  0
SECTION
  2
HEADER
  9
$ACADVER
  1
AC1015
  9
$ACADMAINTVER
 70
    20
  9
$DWGCODEPAGE
  3
ANSI_932
  9
$INSBASE
 10
0.0
 20
0.0
 30
0.0
  9
$EXTMIN
 10
258.9840036951302
 20
207.0046228245412
 30
0.0
  9
$EXTMAX
 10
349.08487932924
 20
288.6514761164201
 30
0.0
  9
$LIMMIN
 10
222.770076765816
 20
167.1114176541369
  9
$LIMMAX
 10
432.7915053372445
 20
315.611417654137
  9
$ORTHOMODE
 70
     0
  9
$REGENMODE
 70
     1
  9
$FILLMODE
 70
     1
  9
$QTEXTMODE
 70
     0
  9
$MIRRTEXT
 70
     1
  9
$LTSCALE
 40
0.5
  9
$ATTMODE
 70
     1
  9
$TEXTSIZE
 40
1.5
  9
$TRACEWID
 40
1.0
  9
$TEXTSTYLE
  7
STANDARD
  9
$CLAYER
  8
0
  9
$CELTYPE
  6
ByLayer
  9
$CECOLOR
 62
   256
  9
$CELTSCALE
 40
1.0
  9
$DISPSILH
 70
     0
  9
$DIMSCALE
 40
0.5
  9
$DIMASZ
 40
2.5
  9
$DIMEXO
 40
1.0
  9
$DIMDLI
 40
10.0
  9
$DIMRND
 40
0.0
  9
$DIMDLE
 40
0.0
  9
$DIMEXE
 40
1.0
  9
$DIMTP
 40
0.1
  9
$DIMTM
 40
0.1
  9
$DIMTXT
 40
3.5
  9
$DIMCEN
 40
0.0
  9
$DIMTSZ
 40
0.0
  9
$DIMTOL
 70
     0
  9
$DIMLIM
 70
     0
  9
$DIMTIH
 70
     0
  9
$DIMTOH
 70
     0
  9
$DIMSE1
 70
     0
  9
$DIMSE2
 70
     0
  9
$DIMTAD
 70
     3
  9
$DIMZIN
 70
     8
  9
$DIMBLK
  1
Open30
  9
$DIMASO
 70
     1
  9
$DIMSHO
 70
     1
  9
$DIMPOST
  1

  9
$DIMAPOST
  1
"
  9
$DIMALT
 70
     0
  9
$DIMALTD
 70
     2
  9
$DIMALTF
 40
0.0393701
  9
$DIMLFAC
 40
1.0
  9
$DIMTOFL
 70
     1
  9
$DIMTVP
 40
0.0
  9
$DIMTIX
 70
     0
  9
$DIMSOXD
 70
     0
  9
$DIMSAH
 70
     0
  9
$DIMBLK1
  1
Open30
  9
$DIMBLK2
  1
Open30
  9
$DIMSTYLE
  2
AM_JIS
  9
$DIMCLRD
 70
   256
  9
$DIMCLRE
 70
   256
  9
$DIMCLRT
 70
     2
  9
$DIMTFAC
 40
0.71
  9
$DIMGAP
 40
1.5
  9
$DIMJUST
 70
     0
  9
$DIMSD1
 70
     0
  9
$DIMSD2
 70
     0
  9
$DIMTOLJ
 70
     0
  9
$DIMTZIN
 70
     8
  9
$DIMALTZ
 70
     0
  9
$DIMALTTZ
 70
     0
  9
$DIMUPT
 70
     0
  9
$DIMDEC
 70
     2
  9
$DIMTDEC
 70
     3
  9
$DIMALTU
 70
     2
  9
$DIMALTTD
 70
     4
  9
$DIMTXSTY
  7
STANDARD
  9
$DIMAUNIT
 70
     0
  9
$DIMADEC
 70
     0
  9
$DIMALTRND
 40
0.0
  9
$DIMAZIN
 70
     2
  9
$DIMDSEP
 70
    46
  9
$DIMATFIT
 70
     3
  9
$DIMFRAC
 70
     0
  9
$DIMLDRBLK
  1
Open30
  9
$DIMLUNIT
 70
     2
  9
$DIMLWD
 70
    -1
  9
$DIMLWE
 70
    -1
  9
$DIMTMOVE
 70
     0
  9
$LUNITS
 70
     2
  9
$LUPREC
 70
     2
  9
$SKETCHINC
 40
1.0
  9
$FILLETRAD
 40
0.5
  9
$AUNITS
 70
     0
  9
$AUPREC
 70
     0
  9
$MENU
  1
.
  9
$ELEVATION
 40
0.0
  9
$PELEVATION
 40
0.0
  9
$THICKNESS
 40
0.0
  9
$LIMCHECK
 70
     0
  9
$CHAMFERA
 40
2.5
  9
$CHAMFERB
 40
2.5
  9
$CHAMFERC
 40
20.0
  9
$CHAMFERD
 40
0.0
  9
$SKPOLY
 70
     0
  9
$TDCREATE
 40
2454784.375539815
  9
$TDUCREATE
 40
2454784.000539814
  9
$TDUPDATE
 40
2456024.576556759
  9
$TDUUPDATE
 40
2456024.201556759
  9
$TDINDWG
 40
0.3376841667
  9
$TDUSRTIMER
 40
0.3376839931
  9
$USRTIMER
 70
     1
  9
$ANGBASE
 50
0.0
  9
$ANGDIR
 70
     0
  9
$PDMODE
 70
     0
  9
$PDSIZE
 40
0.0
  9
$PLINEWID
 40
0.0
  9
$SPLFRAME
 70
     0
  9
$SPLINETYPE
 70
     6
  9
$SPLINESEGS
 70
     8
  9
$HANDSEED
  5
56C2
  9
$SURFTAB1
 70
     6
  9
$SURFTAB2
 70
     6
  9
$SURFTYPE
 70
     6
  9
$SURFU
 70
     6
  9
$SURFV
 70
     6
  9
$UCSBASE
  2

  9
$UCSNAME
  2

  9
$UCSORG
 10
0.0
 20
0.0
 30
0.0
  9
$UCSXDIR
 10
1.0
 20
0.0
 30
0.0
  9
$UCSYDIR
 10
0.0
 20
1.0
 30
0.0
  9
$UCSORTHOREF
  2

  9
$UCSORTHOVIEW
 70
     0
  9
$UCSORGTOP
 10
0.0
 20
0.0
 30
0.0
  9
$UCSORGBOTTOM
 10
0.0
 20
0.0
 30
0.0
  9
$UCSORGLEFT
 10
0.0
 20
0.0
 30
0.0
  9
$UCSORGRIGHT
 10
0.0
 20
0.0
 30
0.0
  9
$UCSORGFRONT
 10
0.0
 20
0.0
 30
0.0
  9
$UCSORGBACK
 10
0.0
 20
0.0
 30
0.0
  9
$PUCSBASE
  2

  9
$PUCSNAME
  2

  9
$PUCSORG
 10
0.0
 20
0.0
 30
0.0
  9
$PUCSXDIR
 10
1.0
 20
0.0
 30
0.0
  9
$PUCSYDIR
 10
0.0
 20
1.0
 30
0.0
  9
$PUCSORTHOREF
  2

  9
$PUCSORTHOVIEW
 70
     0
  9
$PUCSORGTOP
 10
0.0
 20
0.0
 30
0.0
  9
$PUCSORGBOTTOM
 10
0.0
 20
0.0
 30
0.0
  9
$PUCSORGLEFT
 10
0.0
 20
0.0
 30
0.0
  9
$PUCSORGRIGHT
 10
0.0
 20
0.0
 30
0.0
  9
$PUCSORGFRONT
 10
0.0
 20
0.0
 30
0.0
  9
$PUCSORGBACK
 10
0.0
 20
0.0
 30
0.0
  9
$USERI1
 70
     0
  9
$USERI2
 70
     0
  9
$USERI3
 70
     0
  9
$USERI4
 70
     0
  9
$USERI5
 70
     0
  9
$USERR1
 40
0.0
  9
$USERR2
 40
0.0
  9
$USERR3
 40
0.0
  9
$USERR4
 40
0.0
  9
$USERR5
 40
0.0
  9
$WORLDVIEW
 70
     1
  9
$SHADEDGE
 70
     3
  9
$SHADEDIF
 70
    70
  9
$TILEMODE
 70
     1
  9
$MAXACTVP
 70
    64
  9
$PINSBASE
 10
0.0
 20
0.0
 30
0.0
  9
$PLIMCHECK
 70
     0
  9
$PEXTMIN
 10
1.000000000000000E+20
 20
1.000000000000000E+20
 30
1.000000000000000E+20
  9
$PEXTMAX
 10
-1.000000000000000E+20
 20
-1.000000000000000E+20
 30
-1.000000000000000E+20
  9
$PLIMMIN
 10
0.0
 20
0.0
  9
$PLIMMAX
 10
420.0
 20
297.0
  9
$UNITMODE
 70
     0
  9
$VISRETAIN
 70
     1
  9
$PLINEGEN
 70
     0
  9
$PSLTSCALE
 70
     1
  9
$TREEDEPTH
 70
  3020
  9
$CMLSTYLE
  2
Standard
  9
$CMLJUST
 70
     0
  9
$CMLSCALE
 40
20.0
  9
$PROXYGRAPHICS
 70
     1
  9
$MEASUREMENT
 70
     1
  9
$CELWEIGHT
370
    -1
  9
$ENDCAPS
280
     0
  9
$JOINSTYLE
280
     0
  9
$LWDISPLAY
290
     0
  9
$INSUNITS
 70
     4
  9
$HYPERLINKBASE
  1

  9
$STYLESHEET
  1
IMAGIO.ctb
  9
$XEDIT
290
     1
  9
$CEPSNTYPE
380
     0
  9
$PSTYLEMODE
290
     1
  9
$FINGERPRINTGUID
  2
{195D72E8-7936-4A99-BEE5-8CE1A826B80A}
  9
$VERSIONGUID
  2
{D23D883C-D245-4CC8-9AC1-E804A48DF87E}
  9
$EXTNAMES
290
     1
  9
$PSVPSCALE
 40
0.0
  9
$OLESTARTUP
290
     0
  0
ENDSEC
  0
SECTION
  2
CLASSES
  0
CLASS
  1
ACDBDICTIONARYWDFLT
  2
AcDbDictionaryWithDefault
  3
ObjectDBX Classes
 90
        0
280
     0
281
     0
  0
CLASS
  1
ACDBPLACEHOLDER
  2
AcDbPlaceHolder
  3
ObjectDBX Classes
 90
        0
280
     0
281
     0
  0
CLASS
  1
LAYOUT
  2
AcDbLayout
  3
ObjectDBX Classes
 90
        0
280
     0
281
     0
  0
CLASS
  1
AMGSETTINGSOBJ
  2
AmgSettingsObj
  3
"AcadM|Product Description: AutoCAD Mechanical|Company: Autodesk, Inc."
 90
     1024
280
     0
281
     0
  0
CLASS
  1
ACME_DOCUMENT
  2
AcMeDbDoc
  3
AcMeServices
 90
     1024
280
     0
281
     0
  0
CLASS
  1
ACMESCOPE
  2
AcMeScope
  3
AcMeServices
 90
     1024
280
     0
281
     0
  0
CLASS
  1
ACMECOMMANDHISTORY
  2
AcMeCommandHistory
  3
AcMeServices
 90
     1024
280
     0
281
     0
  0
CLASS
  1
DICTIONARYVAR
  2
AcDbDictionaryVar
  3
ObjectDBX Classes
 90
        0
280
     0
281
     0
  0
CLASS
  1
ACIMSYSVARMAN
  2
AcImSysVarManager
  3
AcMeServices
 90
     1024
280
     0
281
     0
  0
CLASS
  1
ACIMREALSYSVAR
  2
AcImRealSysVar
  3
AcMeServices
 90
     1024
280
     0
281
     0
  0
CLASS
  1
ACIMINTSYSVAR
  2
AcImIntSysVar
  3
AcMeServices
 90
     1024
280
     0
281
     0
  0
CLASS
  1
ACMEDRAWINGMAN
  2
AcMeDrawingMan
  3
AcMeServices
 90
    33792
280
     0
281
     0
  0
CLASS
  1
ACMEVIEW
  2
AcMeView
  3
AcMeServices
 90
    33792
280
     0
281
     0
  0
CLASS
  1
ACDBENTITYCACHE
  2
AcMeEntityCache
  3
AcMeServices
 90
     1024
280
     0
281
     0
  0
CLASS
  1
GSMANAGER
  2
AcMeGSManager
  3
AcMeServices
 90
    32768
280
     0
281
     0
  0
CLASS
  1
AMDTINTERNALREACTOR
  2
AmdtInternalReactor
  3
AcMeServices
 90
     1024
280
     0
281
     0
  0
CLASS
  1
ACMESTATEMGR
  2
AcMeStateMgr
  3
AcMeServices
 90
     1024
280
     0
281
     0
  0
CLASS
  1
ACME_DATABASE
  2
AcMeDbDatabase
  3
AcMeServices
 90
     1024
280
     0
281
     0
  0
CLASS
  1
ACRFINSADJUSTERMGR
  2
AcRfInsAdjusterMgr
  3
AcMeServices
 90
     1024
280
     0
281
     0
  0
CLASS
  1
ACMDATADICTIONARY
  2
AcmDataDictionary
  3
"AcmSymBB|Product Description: AutoCAD Mechanical|Company: Autodesk, Inc."
 90
     1024
280
     0
281
     0
  0
CLASS
  1
ACMDATAENTRYBLOCK
  2
AcmDataEntryBlock
  3
AcmSymBB|Product Description: AutoCAD Mechanical|Company: Autodesk, Inc.
 90
     1024
280
     0
281
     0
  0
CLASS
  1
AMGOBJPROPCFG
  2
AmgObjPropCfg
  3
"AmgLay|Product Description: AutoCAD Mechanical|Company: Autodesk, Inc."
 90
     1025
280
     0
281
     0
  0
CLASS
  1
ACAMGFILTERDAT
  2
AcAmgFilterDat
  3
"AcadM|Product Description: AutoCAD Mechanical|Company: Autodesk, Inc."
 90
     1024
280
     0
281
     0
  0
CLASS
  1
LAYER_INDEX
  2
AcDbLayerIndex
  3
ObjectDBX Classes
 90
    32768
280
     0
281
     0
  0
CLASS
  1
IDBUFFER
  2
AcDbIdBuffer
  3
ObjectDBX Classes
 90
    32768
280
     0
281
     0
  0
CLASS
  1
ACIMSTRSYSVAR
  2
AcImStrSysVar
  3
AcMeServices
 90
     1024
280
     0
281
     0
  0
CLASS
  1
ACMSTANDARDJIS
  2
AcmStandardJIS
  3
"Amdt_StdImp|Product Description: AutoCAD Mechanical|Company: Autodesk, Inc."
 90
     1024
280
     0
281
     0
  0
CLASS
  1
ACMSURFSTANDARDJIS
  2
AcmSurfTextStdJIS
  3
"Amdt_StdImp|Product Description: AutoCAD Mechanical|Company: Autodesk, Inc."
 90
     1024
280
     0
281
     0
  0
CLASS
  1
ACMFCFSTANDARDJIS
  2
AcmFCFStdJIS
  3
"Amdt_StdImp|Product Description: AutoCAD Mechanical|Company: Autodesk, Inc."
 90
     1024
280
     0
281
     0
  0
CLASS
  1
ACMWELDSTANDARDJIS
  2
AcmWeldingStdJIS
  3
"Amdt_StdImp|Product Description: AutoCAD Mechanical|Company: Autodesk, Inc."
 90
     1024
280
     0
281
     0
  0
CLASS
  1
ACMIDSTANDARDJIS
  2
AcmIdStdJIS
  3
"Amdt_StdImp|Product Description: AutoCAD Mechanical|Company: Autodesk, Inc."
 90
     1024
280
     0
281
     0
  0
CLASS
  1
ACMDATUMSTANDARDJIS
  2
AcmDatumStdJIS
  3
"Amdt_StdImp|Product Description: AutoCAD Mechanical|Company: Autodesk, Inc."
 90
     1024
280
     0
281
     0
  0
CLASS
  1
ACMBOMSTANDARDJIS
  2
AcmBOMStdJIS
  3
"Amdt_StdImp|Product Description: AutoCAD Mechanical|Company: Autodesk, Inc."
 90
     1024
280
     0
281
     0
  0
CLASS
  1
MATERIAL
  2
AcDbMaterial
  3
ObjectDBX Classes
 90
     1153
280
     0
281
     0
  0
CLASS
  1
VISUALSTYLE
  2
AcDbVisualStyle
  3
ObjectDBX Classes
 90
     4095
280
     0
281
     0
  0
CLASS
  1
TABLESTYLE
  2
AcDbTableStyle
  3
ObjectDBX Classes
 90
     4095
280
     0
281
     0
  0
CLASS
  1
ACGREFMASTER
  2
AcGrefMaster
  3
AcAttribServices
 90
     1024
280
     0
281
     0
  0
CLASS
  1
AM_DRAWING_MGR
  2
AcDmDwgMgr
  3
AcMechDwgViewMgmt
 90
     1024
280
     0
281
     0
  0
CLASS
  1
AM_DWG_DOCUMENT
  2
AcDmDwgDocument
  3
AcMechDwgViewMgmt
 90
     1024
280
     0
281
     0
  0
CLASS
  1
AM_DWG_SHEET
  2
AcDmSheet
  3
AcMechDwgViewMgmt
 90
     1024
280
     0
281
     0
  0
CLASS
  1
AM_VIEWDIMPARMAP
  2
AcDmViewDimParMap
  3
AcMechDwgViewMgmt
 90
     1024
280
     0
281
     0
  0
CLASS
  1
AM_DWGMGR_NAME
  2
AcDmDwgMgrName
  3
AcMechDwgViewMgmt
 90
     1024
280
     0
281
     0
  0
CLASS
  1
ACGREFACADMASTER
  2
AcGrefacadMaster
  3
AcGrefServices
 90
     1024
280
     0
281
     0
  0
CLASS
  1
AMDTMENUSTATEMGR
  2
AmdtMenuStateMgr
  3
McadcomServices
 90
     1024
280
     0
281
     0
  0
CLASS
  1
AMDTMCOMMENUSTATE
  2
AmdtMcomMenuState
  3
McadcomServices
 90
     1024
280
     0
281
     0
  0
CLASS
  1
AMIMASTER
  2
AmiMaster
  3
AmiServices
 90
     1024
280
     0
281
     0
  0
CLASS
  1
MAPIAMMOUDLE
  2
MApiAmModule
  3
MApiAmServices
 90
     1024
280
     0
281
     0
  0
CLASS
  1
AMDTADMENUSTATE
  2
AmdtAdMenuState
  3
DesignerServices
 90
    32768
280
     0
281
     0
  0
CLASS
  1
ADAPPL
  2
AcAdAppl
  3
DesignerAssemblies
 90
    33792
280
     0
281
     0
  0
CLASS
  1
DEPMGR
  2
AcAdDepMgr
  3
DesignerAssemblies
 90
    33792
280
     0
281
     0
  0
CLASS
  1
PARAMMGR
  2
AcAdParamMgr
  3
DesignerAssemblies
 90
    33792
280
     0
281
     0
  0
CLASS
  1
PARAMSCOPE
  2
AcAdParamScope
  3
DesignerAssemblies
 90
    33792
280
     0
281
     0
  0
CLASS
  1
NAMEDAPPL
  2
AcAdNamedAppl
  3
DesignerAssemblies
 90
    33792
280
     0
281
     0
  0
CLASS
  1
AMDTDMMENUSTATE
  2
AmdtDmMenuState
  3
AcMechDwgViewMgmt
 90
     1024
280
     0
281
     0
  0
CLASS
  1
AMDTAMMENUSTATE
  2
AmdtAmMenuState
  3
DesignerAssemblies
 90
     1024
280
     0
281
     0
  0
CLASS
  1
ACAMPROJECT
  2
AcAmProject
  3
DesignerAssemblies
 90
     1024
280
     0
281
     0
  0
CLASS
  1
ACAMGRCOMPDEF
  2
AcAmGrCompDef
  3
DesignerAssemblies
 90
     1024
280
     0
281
     0
  0
CLASS
  1
ACCMCONTEXT
  2
AcCmContext
  3
DesignerAssemblies
 90
     1024
280
     0
281
     0
  0
CLASS
  1
ACAMCOMPDEF
  2
AcAmCompDef
  3
DesignerAssemblies
 90
     1024
280
     0
281
     0
  0
CLASS
  1
ACAMCOMPDEFMGR
  2
AcAmCompDefMgr
  3
DesignerAssemblies
 90
     1024
280
     0
281
     0
  0
CLASS
  1
AMCONTEXTMGR
  2
AcAmContextMgr
  3
DesignerAssemblies
 90
     1024
280
     0
281
     0
  0
CLASS
  1
ACAMCONTEXTMODELER
  2
AcAmContextModeler
  3
DesignerAssemblies
 90
     1024
280
     0
281
     0
  0
CLASS
  1
ACRFATTGENMGR
  2
AcRfAttGeneralMgr
  3
AcAttribServices
 90
     1024
280
     0
281
     0
  0
CLASS
  1
ACRFOBJATTMGR
  2
AcRfObjAttGroupMgr
  3
AcAttribServices
 90
     1024
280
     0
281
     0
  0
CLASS
  1
ACRFMCADAPIATTHOLDER
  2
AcRfMCADAPIAttHolder
  3
AcAttribServices
 90
     1024
280
     0
281
     0
  0
CLASS
  1
AMDTSYSATTR
  2
AmdtSystemAttribute
  3
AcAttribServices
 90
     1024
280
     0
281
     0
  0
CLASS
  1
ACAMGTITLESTD
  2
AcAmgTitleStd
  3
"AmgTitle|Product Description: AutoCAD Mechanical|Company: Autodesk, Inc."
 90
     4095
280
     0
281
     0
  0
CLASS
  1
ACMDETAILSTANDARDJIS
  2
AmdtDetailSymStdJIS
  3
"Amdt_StdImp|Product Description: AutoCAD Mechanical|Company: Autodesk, Inc."
 90
     1024
280
     0
281
     0
  0
CLASS
  1
ACMSECTIONSTANDARDJIS
  2
AmdtSectionSymStdJIS
  3
"Amdt_StdImp|Product Description: AutoCAD Mechanical|Company: Autodesk, Inc."
 90
     1024
280
     0
281
     0
  0
CLASS
  1
ACMCENTERLINESTANDARDJIS
  2
AmdtCenterLineStdJIS
  3
"Amdt_StdImp|Product Description: AutoCAD Mechanical|Company: Autodesk, Inc."
 90
     1024
280
     0
281
     0
  0
CLASS
  1
ACMTHREADLINESTANDARDJIS
  2
AmdtThreadLineStdJIS
  3
"Amdt_StdImp|Product Description: AutoCAD Mechanical|Company: Autodesk, Inc."
 90
     1024
280
     0
281
     0
  0
CLASS
  1
ACMNOTESTANDARDJIS
  2
AmdtNoteStdJIS
  3
"Amdt_StdImp|Product Description: AutoCAD Mechanical|Company: Autodesk, Inc."
 90
     1024
280
     0
281
     0
  0
CLASS
  1
AMDTNOTETEMPLATEDB
  2
AmdtNoteTemplateDB
  3
AcmSymBB|Product Description: AutoCAD Mechanical|Company: Autodesk, Inc.
 90
     1024
280
     0
281
     0
  0
CLASS
  1
ACMTAPERSTANDARDJIS
  2
AcmTaperStdJIS
  3
"Amdt_StdImp|Product Description: AutoCAD Mechanical|Company: Autodesk, Inc."
 90
     1024
280
     0
281
     0
  0
CLASS
  1
ACAMGLAYSTD
  2
AcAmgLayStd
  3
"AmgLay|Product Description: AutoCAD Mechanical|Company: Autodesk, Inc."
 90
     1024
280
     0
281
     0
  0
CLASS
  1
ACAMGDIMSTD
  2
AcAmgDimStd
  3
"AmgDim|Product Description: AutoCAD Mechanical|Company: Autodesk, Inc."
 90
     1024
280
     0
281
     0
  0
CLASS
  1
ACAMGHOLECHARTSTDJIS
  2
AcAmgHoleChartStdJIS
  3
AmgDim|Product Description: AutoCAD Mechanical|Company: Autodesk, Inc.
 90
     1024
280
     0
281
     0
  0
CLASS
  1
CATALOGSTATE
  2
AcAmCatalogState
  3
DesignerAssemblies
 90
    33792
280
     0
281
     0
  0
CLASS
  1
ACAMGRCOMPDEFSET
  2
AcAmGrCompDefSet
  3
DesignerAssemblies
 90
     1024
280
     0
281
     0
  0
CLASS
  1
AMDTBROWSERDBTAB
  2
AmdtBrowserDbTab
  3
McadcomServices
 90
     1024
280
     0
281
     0
  0
CLASS
  1
CBROWSERAPPOBJECT
  2
CBrowserAppObject
  3
McadcomServices
 90
     1024
280
     0
281
     0
  0
CLASS
  1
DM_PLACEHOLDER
  2
AcDmSelsetPlaceholder
  3
AcMechDwgViewMgmt
 90
     1024
280
     0
281
     0
  0
CLASS
  1
CAMSSTRUCTBTNSTATE
  2
StructBtnState
  3
DesignerAssemblies
 90
    33792
280
     0
281
     0
  0
CLASS
  1
EXACXREFPANELOBJECT
  2
ExAcXREFPanelObject
  3
EXAC_ESW
 90
    33793
280
     0
281
     0
  0
CLASS
  1
NPOCOLLECTION
  2
AcDbImpNonPersistentObjectsCollection
  3
ObjectDBX Classes
 90
    33921
280
     0
281
     0
  0
CLASS
  1
DIMASSOC
  2
AcDbDimAssoc
  3
"AcDbDimAssoc|Product Desc:     AcDim ARX App For Dimension|Company:          Autodesk, Inc.|WEB Address:      www.autodesk.com"
 90
    32768
280
     0
281
     0
  0
CLASS
  1
ACMPARTREF
  2
AcmPartRef
  3
"AcmSymBB|Product Description: AutoCAD Mechanical|Company: Autodesk, Inc."
 90
    36863
280
     0
281
     1
  0
CLASS
  1
ACDBLINERES
  2
AcDbLineRes
  3
AcGrefServices
 90
     1024
280
     0
281
     0
  0
CLASS
  1
NEWSTDPARTPARLIST
  2
AmgNewParListFiler
  3
"AmgParList|Product Description: AutoCAD Mechanical|Company: Autodesk, Inc."
 90
    36863
280
     0
281
     0
  0
CLASS
  1
SORTENTSTABLE
  2
AcDbSortentsTable
  3
ObjectDBX Classes
 90
        0
280
     0
281
     0
  0
CLASS
  1
ACMDATAENTRYPART
  2
AcmDataEntryPart
  3
AcmSymBB|Product Description: AutoCAD Mechanical|Company: Autodesk, Inc.
 90
    33792
280
     0
281
     0
  0
CLASS
  1
AMDTNOTE
  2
AmdtNote
  3
"AcmSymBB|Product Description: AutoCAD Mechanical|Company: Autodesk, Inc."
 90
    36863
280
     0
281
     1
  0
CLASS
  1
AMDTFORMULAUPDATEDISPATCHER
  2
AmdtFormulaUpdateDispatcher
  3
AcMeServices
 90
     1024
280
     0
281
     0
  0
CLASS
  1
ACMSTANDARDISO
  2
AcmStandardISO
  3
"Amdt_StdImp|Product Description: AutoCAD Mechanical|Company: Autodesk, Inc."
 90
     1024
280
     0
281
     0
  0
CLASS
  1
AMDTEDGESTANDARDISO13715
  2
AmdtEdgeStdISO13715
  3
"Amdt_StdImp|Product Description: AutoCAD Mechanical|Company: Autodesk, Inc."
 90
     1024
280
     0
281
     0
  0
CLASS
  1
ACMSURFSTANDARDISO
  2
AcmSurfTextStdISO
  3
"Amdt_StdImp|Product Description: AutoCAD Mechanical|Company: Autodesk, Inc."
 90
     1024
280
     0
281
     0
  0
CLASS
  1
ACMFCFSTANDARDISO
  2
AcmFCFStdISO
  3
"Amdt_StdImp|Product Description: AutoCAD Mechanical|Company: Autodesk, Inc."
 90
     1024
280
     0
281
     0
  0
CLASS
  1
ACMWELDSTANDARDISO
  2
AcmWeldingStdISO
  3
"Amdt_StdImp|Product Description: AutoCAD Mechanical|Company: Autodesk, Inc."
 90
     1024
280
     0
281
     0
  0
CLASS
  1
ACMIDSTANDARDISO
  2
AcmIdStdISO
  3
"Amdt_StdImp|Product Description: AutoCAD Mechanical|Company: Autodesk, Inc."
 90
     1024
280
     0
281
     0
  0
CLASS
  1
ACMDATUMSTANDARDISO
  2
AcmDatumStdISO
  3
"Amdt_StdImp|Product Description: AutoCAD Mechanical|Company: Autodesk, Inc."
 90
     1024
280
     0
281
     0
  0
CLASS
  1
ACMBOMSTANDARDISO
  2
AcmBOMStdISO
  3
"Amdt_StdImp|Product Description: AutoCAD Mechanical|Company: Autodesk, Inc."
 90
     1024
280
     0
281
     0
  0
CLASS
  1
ACMDETAILSTANDARDISO
  2
AmdtDetailSymStdISO
  3
"Amdt_StdImp|Product Description: AutoCAD Mechanical|Company: Autodesk, Inc."
 90
     1024
280
     0
281
     0
  0
CLASS
  1
ACMSECTIONSTANDARDISO
  2
AmdtSectionSymStdISO
  3
"Amdt_StdImp|Product Description: AutoCAD Mechanical|Company: Autodesk, Inc."
 90
     1024
280
     0
281
     0
  0
CLASS
  1
ACMCENTERLINESTANDARDISO
  2
AmdtCenterLineStdISO
  3
"Amdt_StdImp|Product Description: AutoCAD Mechanical|Company: Autodesk, Inc."
 90
     1024
280
     0
281
     0
  0
CLASS
  1
ACMTHREADLINESTANDARDISO
  2
AmdtThreadLineStdISO
  3
"Amdt_StdImp|Product Description: AutoCAD Mechanical|Company: Autodesk, Inc."
 90
     1024
280
     0
281
     0
  0
CLASS
  1
ACMNOTESTANDARDISO
  2
AmdtNoteStdISO
  3
"Amdt_StdImp|Product Description: AutoCAD Mechanical|Company: Autodesk, Inc."
 90
     1024
280
     0
281
     0
  0
CLASS
  1
ACMTAPERSTANDARDISO
  2
AcmTaperStdISO
  3
"Amdt_StdImp|Product Description: AutoCAD Mechanical|Company: Autodesk, Inc."
 90
     1024
280
     0
281
     0
  0
CLASS
  1
ACAMGHOLECHARTSTDISO
  2
AcAmgHoleChartStdISO
  3
AmgDim|Product Description: AutoCAD Mechanical|Company: Autodesk, Inc.
 90
     1024
280
     0
281
     0
  0
CLASS
  1
ACMDATAENTRY
  2
AcmDataEntry
  3
AcmSymBB|Product Description: AutoCAD Mechanical|Company: Autodesk, Inc.
 90
     1024
280
     0
281
     0
  0
CLASS
  1
ACMBOM
  2
AcmBom
  3
"AcmSymBB|Product Description: AutoCAD Mechanical|Company: Autodesk, Inc."
 90
     1024
280
     0
281
     0
  0
CLASS
  1
ACMBOMROW
  2
AcmBomRow
  3
"AcmSymBB|Product Description: AutoCAD Mechanical|Company: Autodesk, Inc."
 90
    33792
280
     0
281
     0
  0
CLASS
  1
ACMPARTLIST
  2
AcmPartList
  3
"AcmSymBB|Product Description: AutoCAD Mechanical|Company: Autodesk, Inc."
 90
    36863
280
     0
281
     1
  0
CLASS
  1
ACDBOPPOLYLINERES
  2
AcDbOpPolylineRes
  3
AcGrefServices
 90
    33792
280
     0
281
     0
  0
CLASS
  1
ACRFINSADJ
  2
AcRfInsAdjuster
  3
AcMeServices
 90
    33792
280
     0
281
     0
  0
CLASS
  1
ACMPICKOBJ
  2
AcmPickEnt
  3
"AcmSymBB|Product Description: AutoCAD Mechanical|Company: Autodesk, Inc."
 90
    33792
280
     0
281
     1
  0
CLASS
  1
ACMBALLOON
  2
AcmBalloon
  3
"AcmSymBB|Product Description: AutoCAD Mechanical|Company: Autodesk, Inc."
 90
    36863
280
     0
281
     1
  0
CLASS
  1
ACDBDIMENSIONRES
  2
AcDbDimensionRes
  3
AcmSymBB|Product Description: AutoCAD Mechanical|Company: Autodesk, Inc.
 90
    33792
280
     0
281
     0
  0
CLASS
  1
ACDBCIRCARCRES
  2
AcDbCircArcRes
  3
AcGrefServices
 90
     1024
280
     0
281
     0
  0
CLASS
  1
SCALE
  2
AcDbScale
  3
ObjectDBX Classes
 90
     1153
280
     0
281
     0
  0
CLASS
  1
MLEADERSTYLE
  2
AcDbMLeaderStyle
  3
ACDB_MLEADERSTYLE_CLASS
 90
     4095
280
     0
281
     0
  0
CLASS
  1
ACMANOOTATIONVIEWSTANDARDJIS
  2
AmdtAnViewStdJIS
  3
"Amdt_StdImp|Product Description: AutoCAD Mechanical|Company: Autodesk, Inc."
 90
     1024
280
     0
281
     0
  0
CLASS
  1
AMDTEDGESTANDARDJIS
  2
AmdtEdgeStdJIS
  3
"Amdt_StdImp|Product Description: AutoCAD Mechanical|Company: Autodesk, Inc."
 90
     1024
280
     0
281
     0
  0
CLASS
  1
ACMANOOTATIONVIEWSTANDARDISO
  2
AmdtAnViewStdISO
  3
"Amdt_StdImp|Product Description: AutoCAD Mechanical|Company: Autodesk, Inc."
 90
     1024
280
     0
281
     0
  0
CLASS
  1
CELLSTYLEMAP
  2
AcDbCellStyleMap
  3
ObjectDBX Classes
 90
     1152
280
     0
281
     0
  0
CLASS
  1
AMDTACMWBLOCKBOMENTITY
  2
AmdtAcmWblockBomEntity
  3
"AcmSymBB|Product Description: AutoCAD Mechanical|Company: Autodesk, Inc."
 90
    36863
280
     0
281
     1
  0
CLASS
  1
PLOTSETTINGS
  2
AcDbPlotSettings
  3
ObjectDBX Classes
 90
        0
280
     0
281
     0
  0
ENDSEC
  0
SECTION
  2
TABLES
  0
TABLE
  2
VPORT
  5
8
102
{ACAD_XDICTIONARY
360
CA7
102
}
330
0
100
AcDbSymbolTable
 70
     1
  0
VPORT
  5
230
330
8
100
AcDbSymbolTableRecord
100
AcDbViewportTableRecord
  2
*Active
 70
     0
 10
0.0
 20
0.0
 11
1.0
 21
1.0
 12
298.0612127233476
 22
244.4073433923669
 13
0.0
 23
0.0
 14
1.25
 24
1.25
 15
5.0
 25
5.0
 16
0.0
 26
0.0
 36
1.0
 17
0.0
 27
0.0
 37
0.0
 40
131.5119750763992
 41
1.811279826464208
 42
50.0
 43
0.0
 44
0.0
 50
0.0
 51
0.0
 71
    16
 72
   100
 73
     1
 74
     3
 75
     0
 76
     0
 77
     0
 78
     0
281
     0
 65
     1
110
0.0
120
0.0
130
0.0
111
1.0
121
0.0
131
0.0
112
0.0
122
1.0
132
0.0
 79
     0
146
0.0
  0
ENDTAB
  0
TABLE
  2
LTYPE
  5
5
330
0
100
AcDbSymbolTable
 70
    17
  0
LTYPE
  5
14
330
5
100
AcDbSymbolTableRecord
100
AcDbLinetypeTableRecord
  2
ByBlock
 70
     0
  3

 72
    65
 73
     0
 40
0.0
  0
LTYPE
  5
15
330
5
100
AcDbSymbolTableRecord
100
AcDbLinetypeTableRecord
  2
ByLayer
 70
     0
  3

 72
    65
 73
     0
 40
0.0
  0
LTYPE
  5
16
330
5
100
AcDbSymbolTableRecord
100
AcDbLinetypeTableRecord
  2
Continuous
 70
     0
  3
Solid line
 72
    65
 73
     0
 40
0.0
  0
LTYPE
  5
4B
330
5
100
AcDbSymbolTableRecord
100
AcDbLinetypeTableRecord
  2
AM_ISO02W050
 70
     0
  3
__ __ __ __ __ __ __ __ __ __ __ __ __ __ __
 72
    65
 73
     2
 40
7.5
 49
6.0
 74
     0
 49
-1.5
 74
     0
  0
LTYPE
  5
4C
330
5
100
AcDbSymbolTableRecord
100
AcDbLinetypeTableRecord
  2
AM_ISO08W050
 70
     0
  3
____ . ____ . ____ . ____ . ____ . ____ . ____
 72
    65
 73
     4
 40
18.0
 49
12.0
 74
     0
 49
-1.5
 74
     0
 49
3.0
 74
     0
 49
-1.5
 74
     0
  0
LTYPE
  5
4D
330
5
100
AcDbSymbolTableRecord
100
AcDbLinetypeTableRecord
  2
AM_ISO09W050
 70
     0
  3
_____ . . _____ . . _____ . . ____ .. ____
 72
    65
 73
     6
 40
22.5
 49
12.0
 74
     0
 49
-1.5
 74
     0
 49
3.0
 74
     0
 49
-1.5
 74
     0
 49
3.0
 74
     0
 49
-1.5
 74
     0
  0
LTYPE
  5
4E
330
5
100
AcDbSymbolTableRecord
100
AcDbLinetypeTableRecord
  2
Amconstr
 70
     0
  3
_______________________
 72
    65
 73
     2
 40
9999.0
 49
9999.0
 74
     0
 49
0.0
 74
     0
  0
LTYPE
  5
4F
330
5
100
AcDbSymbolTableRecord
100
AcDbLinetypeTableRecord
  2
AM_ISO02W050x2
 70
     0
  3
 _ _ _ _ _ _ _ _ _ _ _ _
 72
    65
 73
     2
 40
3.75
 49
3.0
 74
     0
 49
-0.75
 74
     0
  0
LTYPE
  5
50
330
5
100
AcDbSymbolTableRecord
100
AcDbLinetypeTableRecord
  2
AM_ISO08W050x2
 70
     0
  3
__ . __ . __ . __ . __ . __
 72
    65
 73
     4
 40
9.0
 49
6.0
 74
     0
 49
-0.75
 74
     0
 49
1.5
 74
     0
 49
-0.75
 74
     0
  0
LTYPE
  5
53
330
5
100
AcDbSymbolTableRecord
100
AcDbLinetypeTableRecord
  2
Amzigzag
 70
     0
  3
/\/-/\/-/\/-/\/-/\/-/\/
 72
    65
 73
     2
 40
11.0001
 49
0.0001
 74
     4
 75
   135
340
52
 46
0.04
 50
0.0
 44
0.0
 45
0.0
 49
-11.0
 74
     0
  0
LTYPE
  5
169
330
5
100
AcDbSymbolTableRecord
100
AcDbLinetypeTableRecord
  2
ACJISTGB
 70
     0
  3
__ . . __ . .
 72
    65
 73
     6
 40
9.0
 49
4.0
 74
     0
 49
-1.0
 74
     0
 49
1.0
 74
     0
 49
-1.0
 74
     0
 49
1.0
 74
     0
 49
-1.0
 74
     0
  0
LTYPE
  5
16A
330
5
100
AcDbSymbolTableRecord
100
AcDbLinetypeTableRecord
  2
ACJISTGL
 70
     0
  3
_ _ _ _ _
 72
    65
 73
     2
 40
3.0
 49
2.0
 74
     0
 49
-1.0
 74
     0
  0
LTYPE
  5
27A
330
5
100
AcDbSymbolTableRecord
100
AcDbLinetypeTableRecord
  2
HIDDEN
 70
     0
  3
Hidden __ __ __ __ __ __ __ __ __ __ __ __ __ _
 72
    65
 73
     2
 40
9.524999999999998
 49
6.349999999999999
 74
     0
 49
-3.174999999999999
 74
     0
  0
LTYPE
  5
27B
330
5
100
AcDbSymbolTableRecord
100
AcDbLinetypeTableRecord
  2
PHANTOM2
 70
     0
  3
Phantom (.5x) ___ _ _ ___ _ _ ___ _ _ ___ _ _
 72
    65
 73
     6
 40
31.75
 49
15.875
 74
     0
 49
-3.174999999999999
 74
     0
 49
3.174999999999999
 74
     0
 49
-3.174999999999999
 74
     0
 49
3.174999999999999
 74
     0
 49
-3.174999999999999
 74
     0
  0
LTYPE
  5
27C
330
5
100
AcDbSymbolTableRecord
100
AcDbLinetypeTableRecord
  2
CENTER
 70
     0
  3
Center ____ _ ____ _ ____ _ ____ _ ____ _ ____
 72
    65
 73
     4
 40
50.8
 49
31.75
 74
     0
 49
-6.349999999999999
 74
     0
 49
6.349999999999999
 74
     0
 49
-6.349999999999999
 74
     0
  0
LTYPE
  5
BB2
330
5
100
AcDbSymbolTableRecord
100
AcDbLinetypeTableRecord
  2
ACISOWELD
 70
     0
  3
_ _ _ _ _
 72
    65
 73
     2
 40
2.0
 49
2.0
 74
     0
 49
-1.0
 74
     0
  0
LTYPE
  5
BB3
330
5
100
AcDbSymbolTableRecord
100
AcDbLinetypeTableRecord
  2
ACISOTGB
 70
     0
  3
__ . . __ . .
 72
    65
 73
     6
 40
9.0
 49
4.0
 74
     0
 49
-1.0
 74
     0
 49
1.0
 74
     0
 49
-1.0
 74
     0
 49
1.0
 74
     0
 49
-1.0
 74
     0
  0
LTYPE
  5
BB4
330
5
100
AcDbSymbolTableRecord
100
AcDbLinetypeTableRecord
  2
ACISOTGL
 70
     0
  3
_ _ _ _ _
 72
    65
 73
     2
 40
3.0
 49
2.0
 74
     0
 49
-1.0
 74
     0
  0
ENDTAB
  0
TABLE
  2
LAYER
  5
2
102
{ACAD_XDICTIONARY
360
971
102
}
330
0
100
AcDbSymbolTable
 70
    14
  0
LAYER
  5
10
102
{ACAD_XDICTIONARY
360
227D
102
}
330
2
100
AcDbSymbolTableRecord
100
AcDbLayerTableRecord
  2
0
 70
     0
 62
     7
  6
Continuous
370
    -3
390
F
  0
LAYER
  5
59
102
{ACAD_XDICTIONARY
360
227F
102
}
330
2
100
AcDbSymbolTableRecord
100
AcDbLayerTableRecord
  2
AM_0
 70
     0
 62
     7
  6
Continuous
370
    50
390
F
  0
LAYER
  5
5A
102
{ACAD_XDICTIONARY
360
2281
102
}
330
2
100
AcDbSymbolTableRecord
100
AcDbLayerTableRecord
  2
AM_BOR
 70
     0
 62
     7
  6
Continuous
370
    50
390
F
  0
LAYER
  5
31B
102
{ACAD_XDICTIONARY
360
2283
102
}
330
2
100
AcDbSymbolTableRecord
100
AcDbLayerTableRecord
  2
AM_5
 70
     0
 62
     3
  6
Continuous
370
    25
390
F
1001
AcAecLayerStandard
1000

1000

  0
LAYER
  5
414
330
2
100
AcDbSymbolTableRecord
100
AcDbLayerTableRecord
  2
Defpoints
 70
     0
 62
     7
  6
Continuous
290
     0
370
    -3
390
F
  0
LAYER
  5
7C0
102
{ACAD_XDICTIONARY
360
2285
102
}
330
2
100
AcDbSymbolTableRecord
100
AcDbLayerTableRecord
  2
AM_7
 70
     0
 62
     4
  6
AM_ISO08W050
370
    25
390
F
  0
LAYER
  5
7C1
102
{ACAD_XDICTIONARY
360
2287
102
}
330
2
100
AcDbSymbolTableRecord
100
AcDbLayerTableRecord
  2
AM_8
 70
     0
 62
     1
  6
Continuous
370
    25
390
F
  0
LAYER
  5
7C2
102
{ACAD_XDICTIONARY
360
2289
102
}
330
2
100
AcDbSymbolTableRecord
100
AcDbLayerTableRecord
  2
AM_4
 70
     0
 62
     3
  6
Continuous
370
    25
390
F
  0
LAYER
  5
7C3
102
{ACAD_XDICTIONARY
360
228B
102
}
330
2
100
AcDbSymbolTableRecord
100
AcDbLayerTableRecord
  2
AM_11
 70
     0
 62
     3
  6
AM_ISO09W050
370
    25
390
F
  0
LAYER
  5
7C4
102
{ACAD_XDICTIONARY
360
228D
102
}
330
2
100
AcDbSymbolTableRecord
100
AcDbLayerTableRecord
  2
AM_12
 70
     0
 62
     7
  6
Continuous
290
     0
370
    50
390
F
  0
LAYER
  5
7C5
102
{ACAD_XDICTIONARY
360
228F
102
}
330
2
100
AcDbSymbolTableRecord
100
AcDbLayerTableRecord
  2
AM_PAREF
 70
     0
 62
     4
  6
Continuous
290
     0
370
    25
390
F
  0
LAYER
  5
1264
102
{ACAD_XDICTIONARY
360
2291
102
}
330
2
100
AcDbSymbolTableRecord
100
AcDbLayerTableRecord
  2
AM_12N
 70
     0
 62
     7
  6
Continuous
290
     0
370
    50
390
F
  0
LAYER
  5
2276
102
{ACAD_XDICTIONARY
360
2293
102
}
330
2
100
AcDbSymbolTableRecord
100
AcDbLayerTableRecord
  2
AM_CL
 70
     0
 62
     1
  6
Amconstr
370
    25
390
F
1001
AcAecLayerStandard
1000

1000

  0
LAYER
  5
41C8
102
{ACAD_XDICTIONARY
360
41C9
102
}
330
2
100
AcDbSymbolTableRecord
100
AcDbLayerTableRecord
  2
AM_3
 70
     0
 62
     6
  6
AM_ISO02W050
370
    25
390
F
  0
ENDTAB
  0
TABLE
  2
STYLE
  5
3
330
0
100
AcDbSymbolTable
 70
    10
  0
STYLE
  5
11
330
3
100
AcDbSymbolTableRecord
100
AcDbTextStyleTableRecord
  2
STANDARD
 70
     0
 40
0.0
 41
1.0
 50
0.0
 71
     0
 42
1.5
  3
ISOCP.SHX
  4
EXTFONT.SHX
  0
STYLE
  5
52
330
3
100
AcDbSymbolTableRecord
100
AcDbTextStyleTableRecord
  2

 70
     1
 40
0.0
 41
1.0
 50
0.0
 71
     0
 42
2.5
  3
ltypeshp.shx
  4

  0
STYLE
  5
161
330
3
100
AcDbSymbolTableRecord
100
AcDbTextStyleTableRecord
  2
ACJISTS
 70
     0
 40
1.0
 41
1.0
 50
0.0
 71
     0
 42
2.5
  3
isocp.shx
  4
bigfont.shx
  0
STYLE
  5
168
330
3
100
AcDbSymbolTableRecord
100
AcDbTextStyleTableRecord
  2
ACJISGDT
 70
     0
 40
0.0
 41
1.0
 50
0.0
 71
     0
 42
2.5
  3
amgdt.shx
  4

  0
STYLE
  5
7C6
330
3
100
AcDbSymbolTableRecord
100
AcDbTextStyleTableRecord
  2
ｽﾀｲﾙ1
 70
     0
 40
0.0
 41
1.0
 50
0.0
 71
     0
 42
44.62462130138407
  3

  4

1001
ACAD
1000
HGPSoeiKakugothicUB
1071
    32818
  0
STYLE
  5
BB6
330
3
100
AcDbSymbolTableRecord
100
AcDbTextStyleTableRecord
  2
ACISOTS
 70
     0
 40
1.0
 41
1.0
 50
0.0
 71
     0
 42
5.0
  3
isocp.shx
  4
extfont.shx
  0
STYLE
  5
BB7
330
3
100
AcDbSymbolTableRecord
100
AcDbTextStyleTableRecord
  2
ACISOGDT
 70
     0
 40
0.0
 41
1.0
 50
0.0
 71
     0
 42
5.0
  3
amgdt.shx
  4

  0
STYLE
  5
17C7
330
3
100
AcDbSymbolTableRecord
100
AcDbTextStyleTableRecord
  2
USER1
 70
     0
 40
0.0
 41
1.0
 50
0.0
 71
     0
 42
2.5
  3
TXT.SHX
  4

  0
STYLE
  5
17C8
330
3
100
AcDbSymbolTableRecord
100
AcDbTextStyleTableRecord
  2
USER2
 70
     0
 40
0.0
 41
1.0
 50
0.0
 71
     0
 42
2.5
  3
SIMPLEX.SHX
  4

  0
STYLE
  5
17C9
330
3
100
AcDbSymbolTableRecord
100
AcDbTextStyleTableRecord
  2
USER3
 70
     0
 40
0.0
 41
1.0
 50
0.0
 71
     0
 42
2.5
  3
ITALIC.SHX
  4

  0
ENDTAB
  0
TABLE
  2
VIEW
  5
6
330
0
100
AcDbSymbolTable
 70
     6
  0
VIEW
  5
7C
330
6
100
AcDbSymbolTableRecord
100
AcDbViewTableRecord
  2
AM_VIEW1
 70
     0
 40
74.25
 10
299.6082196229588
 20
278.486417654137
 41
153.6762857142857
 11
0.0
 21
0.0
 31
1.0
 12
0.0
 22
0.0
 32
0.0
 42
50.0
 43
0.0
 44
0.0
 50
0.0
 71
    16
281
     0
 72
     0
  0
VIEW
  5
7D
330
6
100
AcDbSymbolTableRecord
100
AcDbViewTableRecord
  2
AM_VIEW2
 70
     0
 40
74.25
 10
355.9533624801016
 20
278.486417654137
 41
153.6762857142857
 11
0.0
 21
0.0
 31
1.0
 12
0.0
 22
0.0
 32
0.0
 42
50.0
 43
0.0
 44
0.0
 50
0.0
 71
    16
281
     0
 72
     0
  0
VIEW
  5
7E
330
6
100
AcDbSymbolTableRecord
100
AcDbViewTableRecord
  2
AM_VIEW3
 70
     0
 40
74.25
 10
299.6082196229588
 20
204.236417654137
 41
153.6762857142857
 11
0.0
 21
0.0
 31
1.0
 12
0.0
 22
0.0
 32
0.0
 42
50.0
 43
0.0
 44
0.0
 50
0.0
 71
    16
281
     0
 72
     0
  0
VIEW
  5
7F
330
6
100
AcDbSymbolTableRecord
100
AcDbViewTableRecord
  2
AM_VIEW4
 70
     0
 40
74.25
 10
355.9533624801016
 20
204.236417654137
 41
153.6762857142857
 11
0.0
 21
0.0
 31
1.0
 12
0.0
 22
0.0
 32
0.0
 42
50.0
 43
0.0
 44
0.0
 50
0.0
 71
    16
281
     0
 72
     0
  0
VIEW
  5
80
330
6
100
AcDbSymbolTableRecord
100
AcDbViewTableRecord
  2
AM_VIEW5
 70
     0
 40
74.25
 10
327.7807910515302
 20
241.361417654137
 41
153.6762857142857
 11
0.0
 21
0.0
 31
1.0
 12
0.0
 22
0.0
 32
0.0
 42
50.0
 43
0.0
 44
0.0
 50
0.0
 71
    16
281
     0
 72
     0
  0
VIEW
  5
81
330
6
100
AcDbSymbolTableRecord
100
AcDbViewTableRecord
  2
AM_VIEW6
 70
     0
 40
148.498515
 10
327.7807910515302
 20
241.361417654137
 41
307.3494979028571
 11
0.0
 21
0.0
 31
1.0
 12
0.0
 22
0.0
 32
0.0
 42
50.0
 43
0.0
 44
0.0
 50
0.0
 71
    16
281
     0
 72
     0
  0
ENDTAB
  0
TABLE
  2
UCS
  5
7
330
0
100
AcDbSymbolTable
 70
     0
  0
ENDTAB
  0
TABLE
  2
APPID
  5
9
330
0
100
AcDbSymbolTable
 70
    42
  0
APPID
  5
12
330
9
100
AcDbSymbolTableRecord
100
AcDbRegAppTableRecord
  2
ACAD
 70
     0
  0
APPID
  5
30
330
9
100
AcDbSymbolTableRecord
100
AcDbRegAppTableRecord
  2
MCAD_NO_VIS
 70
     0
  0
APPID
  5
31
330
9
100
AcDbSymbolTableRecord
100
AcDbRegAppTableRecord
  2
ACAD_TEMP_GRAPHIC
 70
     0
  0
APPID
  5
5B
330
9
100
AcDbSymbolTableRecord
100
AcDbRegAppTableRecord
  2
GENIUS_GENREC_14
 70
     0
  0
APPID
  5
5C
330
9
100
AcDbSymbolTableRecord
100
AcDbRegAppTableRecord
  2
GENIUS_GENODEF_13
 70
     0
  0
APPID
  5
5D
330
9
100
AcDbSymbolTableRecord
100
AcDbRegAppTableRecord
  2
GENIUS_GENOBJ-N-REC_13
 70
     0
  0
APPID
  5
96
330
9
100
AcDbSymbolTableRecord
100
AcDbRegAppTableRecord
  2
GENIUS_GENOBJ-N-CEN_13
 70
     0
  0
APPID
  5
C1
330
9
100
AcDbSymbolTableRecord
100
AcDbRegAppTableRecord
  2
GENIUS_GENOBJ-N-TIT_13
 70
     0
  0
APPID
  5
C2
330
9
100
AcDbSymbolTableRecord
100
AcDbRegAppTableRecord
  2
GENIUS_GENTITLE_13
 70
     0
  0
APPID
  5
C3
330
9
100
AcDbSymbolTableRecord
100
AcDbRegAppTableRecord
  2
GENIUS_GENOENT_13
 70
     0
  0
APPID
  5
C4
330
9
100
AcDbSymbolTableRecord
100
AcDbRegAppTableRecord
  2
GENIUS_GENOREF_13
 70
     0
  0
APPID
  5
C5
330
9
100
AcDbSymbolTableRecord
100
AcDbRegAppTableRecord
  2
GENIUS_GENOLIS_13
 70
     0
  0
APPID
  5
C6
330
9
100
AcDbSymbolTableRecord
100
AcDbRegAppTableRecord
  2
GENIUS_GENZVEED_13
 70
     0
  0
APPID
  5
C7
330
9
100
AcDbSymbolTableRecord
100
AcDbRegAppTableRecord
  2
GENIUS_GENSCREG_15
 70
     0
  0
APPID
  5
C8
330
9
100
AcDbSymbolTableRecord
100
AcDbRegAppTableRecord
  2
GENIUS_GENOBJ-N-SDF_13
 70
     0
  0
APPID
  5
27E
330
9
100
AcDbSymbolTableRecord
100
AcDbRegAppTableRecord
  2
AD_DRAW
 70
     0
  0
APPID
  5
281
330
9
100
AcDbSymbolTableRecord
100
AcDbRegAppTableRecord
  2
ACATTRIBSERVICES
 70
     0
  0
APPID
  5
2A0
330
9
100
AcDbSymbolTableRecord
100
AcDbRegAppTableRecord
  2
DESIGNERASSEMBLIES
 70
     0
  0
APPID
  5
2B9
330
9
100
AcDbSymbolTableRecord
100
AcDbRegAppTableRecord
  2
ACADM_DIM_EDIT
 70
     0
  0
APPID
  5
2BA
330
9
100
AcDbSymbolTableRecord
100
AcDbRegAppTableRecord
  2
AMDT_DM_ADJ
 70
     0
  0
APPID
  5
31C
330
9
100
AcDbSymbolTableRecord
100
AcDbRegAppTableRecord
  2
AcAecLayerStandard
 70
     0
  0
APPID
  5
37C
330
9
100
AcDbSymbolTableRecord
100
AcDbRegAppTableRecord
  2
ACAD_PSEXT
 70
     0
  0
APPID
  5
729
330
9
100
AcDbSymbolTableRecord
100
AcDbRegAppTableRecord
  2
GENIUS_GENDIMSH_14
 70
     0
  0
APPID
  5
72B
330
9
100
AcDbSymbolTableRecord
100
AcDbRegAppTableRecord
  2
ACAD_EXEMPT_FROM_CAD_STANDARDS
 70
     0
  0
APPID
  5
7C8
330
9
100
AcDbSymbolTableRecord
100
AcDbRegAppTableRecord
  2
GENIUS_GENOBJ-N-FIL_13
 70
     0
  0
APPID
  5
7C9
330
9
100
AcDbSymbolTableRecord
100
AcDbRegAppTableRecord
  2
GENIUS_GEFSH_13
 70
     0
  0
APPID
  5
7CA
330
9
100
AcDbSymbolTableRecord
100
AcDbRegAppTableRecord
  2
GENIUS_GENOBJ-F-SHS_13
 70
     0
  0
APPID
  5
7CB
330
9
100
AcDbSymbolTableRecord
100
AcDbRegAppTableRecord
  2
GENIUS_GENFIL_13
 70
     0
  0
APPID
  5
7CC
330
9
100
AcDbSymbolTableRecord
100
AcDbRegAppTableRecord
  2
GENIUS_GENOBJ-N-CHA_13
 70
     0
  0
APPID
  5
7CD
330
9
100
AcDbSymbolTableRecord
100
AcDbRegAppTableRecord
  2
GENIUS_GENOBJ-N-HTC_13
 70
     0
  0
APPID
  5
7CE
330
9
100
AcDbSymbolTableRecord
100
AcDbRegAppTableRecord
  2
GENIUS_GENHATCH_13
 70
     0
  0
APPID
  5
978
330
9
100
AcDbSymbolTableRecord
100
AcDbRegAppTableRecord
  2
GENIUS_GENCEN_19
 70
     0
  0
APPID
  5
CBC
330
9
100
AcDbSymbolTableRecord
100
AcDbRegAppTableRecord
  2
ACAD_DSTYLE_DIMARC_LENGTH_SYMBOL
 70
     0
  0
APPID
  5
170C
330
9
100
AcDbSymbolTableRecord
100
AcDbRegAppTableRecord
  2
GENIUS_GENOBJ-N-CRS_13
 70
     0
  0
APPID
  5
2248
330
9
100
AcDbSymbolTableRecord
100
AcDbRegAppTableRecord
  2
GENIUS_GENDTOL_13
 70
     0
  0
APPID
  5
2249
330
9
100
AcDbSymbolTableRecord
100
AcDbRegAppTableRecord
  2
ACAD_DSTYLE_DIMINSPECT
 70
     0
  0
APPID
  5
22EC
330
9
100
AcDbSymbolTableRecord
100
AcDbRegAppTableRecord
  2
ACAD_MLEADERVER
 70
     0
  0
APPID
  5
31F5
330
9
100
AcDbSymbolTableRecord
100
AcDbRegAppTableRecord
  2
ACAD_DSTYLE_DIMJAG
 70
     0
  0
APPID
  5
31F6
330
9
100
AcDbSymbolTableRecord
100
AcDbRegAppTableRecord
  2
ACAD_DSTYLE_DIMBREAK
 70
     0
  0
APPID
  5
327F
330
9
100
AcDbSymbolTableRecord
100
AcDbRegAppTableRecord
  2
ACAD_DSTYLE_DIM_LINETYPE
 70
     0
  0
APPID
  5
3280
330
9
100
AcDbSymbolTableRecord
100
AcDbRegAppTableRecord
  2
ACAD_DSTYLE_DIM_EXT1_LINETYPE
 70
     0
  0
APPID
  5
3281
330
9
100
AcDbSymbolTableRecord
100
AcDbRegAppTableRecord
  2
ACAD_DSTYLE_DIM_EXT2_LINETYPE
 70
     0
  0
ENDTAB
  0
TABLE
  2
DIMSTYLE
  5
A
330
0
100
AcDbSymbolTable
 70
    19
100
AcDbDimStyleTable
 71
     1
340
8F
  0
DIMSTYLE
105
2C1
330
A
100
AcDbSymbolTableRecord
100
AcDbDimStyleTableRecord
  2
Standard
 70
     0
340
11
  0
DIMSTYLE
105
8F
330
A
100
AcDbSymbolTableRecord
100
AcDbDimStyleTableRecord
  2
AM_JIS
 70
     0
  4
"
 40
0.5
 41
2.5
 42
1.0
 43
10.0
 44
1.0
 47
0.1
 48
0.1
 73
     0
 74
     0
 77
     3
 78
     8
 79
     2
140
3.5
141
0.0
143
0.0393701
146
0.71
147
1.5
172
     1
176
   256
177
   256
178
     2
271
     2
272
     3
274
     4
283
     0
284
     8
340
11
341
84
342
84
343
84
344
84
371
    -1
372
    -1
1001
ACAD_DSTYLE_DIMJAG
1070
   388
1040
1.5
1001
ACAD_DSTYLE_DIMBREAK
1070
   391
1040
3.75
1001
ACAD_DSTYLE_DIMARC_LENGTH_SYMBOL
1070
   379
1070
     1
1001
ACAD_DSTYLE_DIM_LINETYPE
1070
   380
1005
14
1001
ACAD_DSTYLE_DIM_EXT1_LINETYPE
1070
   381
1005
14
1001
ACAD_DSTYLE_DIM_EXT2_LINETYPE
1070
   382
1005
14
  0
DIMSTYLE
105
90
330
A
100
AcDbSymbolTableRecord
100
AcDbDimStyleTableRecord
  2
AM_JIS$3
 70
     0
  4
"
 40
0.5
 41
2.5
 42
1.0
 43
10.0
 44
1.0
 47
0.1
 48
0.1
 73
     0
 77
     3
 78
     8
 79
     2
140
3.5
141
0.0
143
0.0393701
146
0.71
147
1.5
176
   256
177
   256
178
     2
271
     2
272
     3
274
     4
283
     0
284
     8
288
     1
289
     0
340
11
341
84
342
84
343
84
344
84
371
    -1
372
    -1
1001
ACAD_DSTYLE_DIMBREAK
1070
   391
1040
3.75
1001
ACAD_DSTYLE_DIMJAG
1070
   388
1040
1.5
1001
ACAD_DSTYLE_DIMARC_LENGTH_SYMBOL
1070
   379
1070
     1
1001
ACAD_DSTYLE_DIM_LINETYPE
1070
   380
1005
14
1001
ACAD_DSTYLE_DIM_EXT1_LINETYPE
1070
   381
1005
14
1001
ACAD_DSTYLE_DIM_EXT2_LINETYPE
1070
   382
1005
14
  0
DIMSTYLE
105
91
330
A
100
AcDbSymbolTableRecord
100
AcDbDimStyleTableRecord
  2
AM_JIS$4
 70
     0
  4
"
 40
0.5
 41
2.5
 42
1.0
 43
10.0
 44
1.0
 47
0.1
 48
0.1
 73
     0
 74
     0
 77
     3
 78
     8
 79
     2
140
3.5
141
0.0
143
0.0393701
146
0.71
147
1.5
172
     1
176
   256
177
   256
178
     2
271
     2
272
     3
274
     4
283
     0
284
     8
340
11
341
84
342
84
343
84
344
84
371
    -1
372
    -1
1001
ACAD_DSTYLE_DIMBREAK
1070
   391
1040
3.75
1001
ACAD_DSTYLE_DIMJAG
1070
   388
1040
1.5
1001
ACAD_DSTYLE_DIMARC_LENGTH_SYMBOL
1070
   379
1070
     1
1001
ACAD_DSTYLE_DIM_LINETYPE
1070
   380
1005
14
1001
ACAD_DSTYLE_DIM_EXT1_LINETYPE
1070
   381
1005
14
1001
ACAD_DSTYLE_DIM_EXT2_LINETYPE
1070
   382
1005
14
  0
DIMSTYLE
105
92
330
A
100
AcDbSymbolTableRecord
100
AcDbDimStyleTableRecord
  2
AM_JIS$6
 70
     0
  4
"
 40
0.5
 41
2.5
 42
1.0
 43
10.0
 44
1.0
 47
0.1
 48
0.1
 73
     0
 74
     0
 78
     8
 79
     2
140
3.5
141
0.0
143
0.0393701
146
0.71
147
1.5
172
     1
176
   256
177
   256
178
     2
271
     2
272
     3
274
     4
283
     0
284
     8
340
11
341
84
342
84
343
84
344
84
371
    -1
372
    -1
1001
ACAD_DSTYLE_DIMBREAK
1070
   391
1040
3.75
1001
ACAD_DSTYLE_DIMJAG
1070
   388
1040
1.5
1001
ACAD_DSTYLE_DIMARC_LENGTH_SYMBOL
1070
   379
1070
     1
1001
ACAD_DSTYLE_DIM_LINETYPE
1070
   380
1005
14
1001
ACAD_DSTYLE_DIM_EXT1_LINETYPE
1070
   381
1005
14
1001
ACAD_DSTYLE_DIM_EXT2_LINETYPE
1070
   382
1005
14
  0
DIMSTYLE
105
93
330
A
100
AcDbSymbolTableRecord
100
AcDbDimStyleTableRecord
  2
AM_JIS$7
 70
     0
  4
"
 40
0.5
 41
2.5
 42
1.0
 43
10.0
 44
1.0
 47
0.1
 48
0.1
 73
     0
 74
     0
 77
     3
 78
     8
 79
     2
140
3.5
141
0.0
143
0.0393701
146
0.71
147
1.5
172
     1
176
   256
177
   256
178
     2
271
     2
272
     3
274
     4
283
     0
284
     8
340
11
341
84
342
84
343
84
344
84
371
    -1
372
    -1
1001
ACAD_DSTYLE_DIMBREAK
1070
   391
1040
3.75
1001
ACAD_DSTYLE_DIMJAG
1070
   388
1040
1.5
1001
ACAD_DSTYLE_DIMARC_LENGTH_SYMBOL
1070
   379
1070
     1
1001
ACAD_DSTYLE_DIM_LINETYPE
1070
   380
1005
14
1001
ACAD_DSTYLE_DIM_EXT1_LINETYPE
1070
   381
1005
14
1001
ACAD_DSTYLE_DIM_EXT2_LINETYPE
1070
   382
1005
14
  0
DIMSTYLE
105
94
330
A
100
AcDbSymbolTableRecord
100
AcDbDimStyleTableRecord
  2
AM_JIS$SF
 70
     0
  4
"
 40
0.5
 41
2.5
 42
1.0
 43
10.0
 44
1.0
 47
0.1
 48
0.1
 73
     0
 74
     0
 75
     1
 76
     1
 77
     3
 78
     8
 79
     2
140
3.5
141
0.0
143
0.0393701
146
0.71
147
1.5
172
     1
176
   256
177
   256
178
     2
271
     2
272
     3
274
     4
283
     0
284
     8
340
11
341
84
342
84
343
84
344
84
371
    -1
372
    -1
1001
ACAD_DSTYLE_DIMBREAK
1070
   391
1040
3.75
1001
ACAD_DSTYLE_DIMJAG
1070
   388
1040
1.5
1001
ACAD_DSTYLE_DIMARC_LENGTH_SYMBOL
1070
   379
1070
     1
1001
ACAD_DSTYLE_DIM_LINETYPE
1070
   380
1005
14
1001
ACAD_DSTYLE_DIM_EXT1_LINETYPE
1070
   381
1005
14
1001
ACAD_DSTYLE_DIM_EXT2_LINETYPE
1070
   382
1005
14
  0
DIMSTYLE
105
95
330
A
100
AcDbSymbolTableRecord
100
AcDbDimStyleTableRecord
  2
AM_JIS$SH
 70
     0
  4
"
 40
0.5
 41
2.5
 42
1.0
 43
10.0
 44
1.0
 47
0.1
 48
0.1
 73
     0
 74
     0
 75
     1
 76
     1
 77
     3
 78
     8
 79
     2
140
3.5
141
0.0
143
0.0393701
144
2.0
146
0.71
147
1.5
172
     1
173
     1
176
   256
177
   256
178
     2
271
     2
272
     3
274
     4
283
     0
284
     8
340
11
341
84
342
84
343
8A
344
84
371
    -1
372
    -1
1001
ACAD_DSTYLE_DIMBREAK
1070
   391
1040
3.75
1001
ACAD_DSTYLE_DIMJAG
1070
   388
1040
1.5
1001
ACAD_DSTYLE_DIMARC_LENGTH_SYMBOL
1070
   379
1070
     1
1001
ACAD_DSTYLE_DIM_LINETYPE
1070
   380
1005
14
1001
ACAD_DSTYLE_DIM_EXT1_LINETYPE
1070
   381
1005
14
1001
ACAD_DSTYLE_DIM_EXT2_LINETYPE
1070
   382
1005
14
  0
DIMSTYLE
105
7C7
330
A
100
AcDbSymbolTableRecord
100
AcDbDimStyleTableRecord
  2
AM_JIS$0
 70
     0
  4
"
 40
0.5
 41
2.5
 42
1.0
 43
10.0
 44
1.0
 47
0.1
 48
0.1
 73
     0
 74
     0
 77
     3
 78
     8
 79
     2
140
3.5
141
0.0
143
0.0393701
146
0.71
147
1.5
172
     1
176
   256
177
   256
178
     2
271
     2
272
     3
274
     4
283
     0
284
     8
340
11
341
84
342
84
343
84
344
84
371
    -1
372
    -1
1001
ACAD_DSTYLE_DIMBREAK
1070
   391
1040
3.75
1001
ACAD_DSTYLE_DIMJAG
1070
   388
1040
1.5
1001
ACAD_DSTYLE_DIMARC_LENGTH_SYMBOL
1070
   379
1070
     1
1001
ACAD_DSTYLE_DIM_LINETYPE
1070
   380
1005
14
1001
ACAD_DSTYLE_DIM_EXT1_LINETYPE
1070
   381
1005
14
1001
ACAD_DSTYLE_DIM_EXT2_LINETYPE
1070
   382
1005
14
  0
DIMSTYLE
105
BB8
330
A
100
AcDbSymbolTableRecord
100
AcDbDimStyleTableRecord
  2
AM_ISO
 70
     0
  4
"
 41
2.5
 42
1.0
 43
10.0
 44
1.0
 47
0.1
 48
0.1
 73
     0
 74
     0
 77
     1
 78
     8
 79
     2
140
3.5
141
0.0
143
0.0393701
146
0.71
147
1.5
172
     1
176
   256
177
   256
178
     2
271
     2
272
     3
274
     4
283
     0
284
     8
340
11
371
    -1
372
    -1
1001
ACAD_DSTYLE_DIMARC_LENGTH_SYMBOL
1070
   379
1070
     1
  0
DIMSTYLE
105
BB9
330
A
100
AcDbSymbolTableRecord
100
AcDbDimStyleTableRecord
  2
AM_ISO$3
 70
     0
  4
"
 41
2.5
 42
1.0
 43
10.0
 44
1.0
 47
0.1
 48
0.1
 73
     0
 77
     1
 78
     8
 79
     2
140
3.5
141
0.0
143
0.0393701
146
0.71
147
1.5
176
   256
177
   256
178
     2
271
     2
272
     3
274
     4
283
     0
284
     8
288
     1
289
     0
340
11
371
    -1
372
    -1
1001
ACAD_DSTYLE_DIMARC_LENGTH_SYMBOL
1070
   379
1070
     1
  0
DIMSTYLE
105
BBA
330
A
100
AcDbSymbolTableRecord
100
AcDbDimStyleTableRecord
  2
AM_ISO$4
 70
     0
  4
"
 41
2.5
 42
1.0
 43
10.0
 44
1.0
 47
0.1
 48
0.1
 73
     0
 77
     1
 78
     8
 79
     2
140
3.5
141
0.0
143
0.0393701
146
0.71
147
1.5
176
   256
177
   256
178
     2
271
     2
272
     3
274
     4
283
     0
284
     8
288
     1
289
     0
340
11
371
    -1
372
    -1
1001
ACAD_DSTYLE_DIMARC_LENGTH_SYMBOL
1070
   379
1070
     1
  0
DIMSTYLE
105
BBB
330
A
100
AcDbSymbolTableRecord
100
AcDbDimStyleTableRecord
  2
AM_ISO$6
 70
     0
  4
"
 41
2.5
 42
1.0
 43
10.0
 44
1.0
 47
0.1
 48
0.1
 73
     0
 74
     0
 78
     8
 79
     2
140
3.5
141
0.0
143
0.0393701
146
0.71
147
1.5
172
     1
176
   256
177
   256
178
     2
271
     2
272
     3
274
     4
283
     0
284
     8
340
11
371
    -1
372
    -1
1001
ACAD_DSTYLE_DIMARC_LENGTH_SYMBOL
1070
   379
1070
     1
  0
DIMSTYLE
105
BBC
330
A
100
AcDbSymbolTableRecord
100
AcDbDimStyleTableRecord
  2
AM_ISO$7
 70
     0
  4
"
 41
2.5
 42
1.0
 43
10.0
 44
1.0
 47
0.1
 48
0.1
 73
     0
 74
     0
 77
     1
 78
     8
 79
     2
140
5.0
141
0.0
143
0.0393701
146
0.71
147
1.5
172
     1
176
   256
177
   256
178
     2
271
     2
272
     3
274
     4
283
     0
284
     8
340
11
371
    -1
372
    -1
1001
ACAD_DSTYLE_DIMARC_LENGTH_SYMBOL
1070
   379
1070
     1
  0
DIMSTYLE
105
BBD
330
A
100
AcDbSymbolTableRecord
100
AcDbDimStyleTableRecord
  2
AM_ISO$SF
 70
     0
  4
"
 41
2.5
 42
1.0
 43
10.0
 44
1.0
 47
0.1
 48
0.1
 73
     0
 74
     0
 75
     1
 76
     1
 77
     1
 78
     8
 79
     2
140
3.5
141
0.0
143
0.0393701
146
0.71
147
1.5
172
     1
176
   256
177
   256
178
     2
271
     2
272
     3
274
     4
283
     0
284
     8
340
11
371
    -1
372
    -1
1001
ACAD_DSTYLE_DIMARC_LENGTH_SYMBOL
1070
   379
1070
     1
  0
DIMSTYLE
105
BBE
330
A
100
AcDbSymbolTableRecord
100
AcDbDimStyleTableRecord
  2
AM_ISO$SH
 70
     0
  4
"
 41
2.5
 42
1.0
 43
10.0
 44
1.0
 47
0.1
 48
0.1
 73
     0
 74
     0
 75
     1
 76
     1
 77
     1
 78
     8
 79
     2
140
3.5
141
0.0
143
0.0393701
144
2.0
146
0.71
147
1.5
172
     1
173
     1
176
   256
177
   256
178
     2
271
     2
272
     3
274
     4
283
     0
284
     8
340
11
343
8A
371
    -1
372
    -1
1001
ACAD_DSTYLE_DIMARC_LENGTH_SYMBOL
1070
   379
1070
     1
  0
DIMSTYLE
105
17CA
330
A
100
AcDbSymbolTableRecord
100
AcDbDimStyleTableRecord
  2
ISO-25
 70
     0
 41
2.5
 42
0.625
 43
3.75
 44
1.25
 73
     0
 74
     0
 77
     1
 78
     8
140
2.5
141
2.5
143
0.03937007874016
147
0.625
171
     3
172
     1
271
     2
272
     2
274
     3
283
     0
284
     8
340
11
  0
DIMSTYLE
105
358B
330
A
100
AcDbSymbolTableRecord
100
AcDbDimStyleTableRecord
  2
AM_JIS$2
 70
     0
  4
"
 40
0.5
 41
2.5
 42
1.0
 43
10.0
 44
1.0
 47
0.1
 48
0.1
 73
     0
 74
     0
 77
     3
 78
     8
 79
     2
140
3.5
141
0.0
143
0.0393701
146
0.71
147
1.5
172
     1
176
   256
177
   256
178
     2
271
     2
272
     3
274
     4
283
     0
284
     8
340
11
341
84
342
84
343
84
344
84
371
    -1
372
    -1
1001
ACAD_DSTYLE_DIMBREAK
1070
   391
1040
3.75
1001
ACAD_DSTYLE_DIMJAG
1070
   388
1040
1.5
1001
ACAD_DSTYLE_DIMARC_LENGTH_SYMBOL
1070
   379
1070
     1
1001
ACAD_DSTYLE_DIM_LINETYPE
1070
   380
1005
14
1001
ACAD_DSTYLE_DIM_EXT1_LINETYPE
1070
   381
1005
14
1001
ACAD_DSTYLE_DIM_EXT2_LINETYPE
1070
   382
1005
14
  0
ENDTAB
  0
TABLE
  2
BLOCK_RECORD
  5
1
330
0
100
AcDbSymbolTable
 70
    14
  0
BLOCK_RECORD
  5
1F
102
{ACAD_XDICTIONARY
360
C9
102
}
330
1
100
AcDbSymbolTableRecord
100
AcDbBlockTableRecord
  2
*Model_Space
340
22
  0
BLOCK_RECORD
  5
1B
330
1
100
AcDbSymbolTableRecord
100
AcDbBlockTableRecord
  2
*Paper_Space
340
1E
  0
BLOCK_RECORD
  5
23
330
1
100
AcDbSymbolTableRecord
100
AcDbBlockTableRecord
  2
*Paper_Space0
340
26
  0
BLOCK_RECORD
  5
84
330
1
100
AcDbSymbolTableRecord
100
AcDbBlockTableRecord
  2
_Open30
340
0
  0
BLOCK_RECORD
  5
8A
330
1
100
AcDbSymbolTableRecord
100
AcDbBlockTableRecord
  2
GENAXEH
340
0
  0
BLOCK_RECORD
  5
BBF
102
{ACAD_XDICTIONARY
360
BCD
102
}
330
1
100
AcDbSymbolTableRecord
100
AcDbBlockTableRecord
  2
AA-3-BW
340
0
  0
BLOCK_RECORD
  5
176D
102
{ACAD_XDICTIONARY
360
179B
102
}
330
1
100
AcDbSymbolTableRecord
100
AcDbBlockTableRecord
  2
ASO1
340
0
  0
BLOCK_RECORD
  5
17A8
330
1
100
AcDbSymbolTableRecord
100
AcDbBlockTableRecord
  2
A$C2D292097
340
0
  0
BLOCK_RECORD
  5
17BD
102
{ACAD_XDICTIONARY
360
17BE
102
}
330
1
100
AcDbSymbolTableRecord
100
AcDbBlockTableRecord
  2
A$C676C2959
340
0
1001
ACAD
1000
DesignCenter Data
1002
{
1070
     1
1070
     4
1002
}
  0
BLOCK_RECORD
  5
17C2
102
{ACAD_XDICTIONARY
360
17C3
102
}
330
1
100
AcDbSymbolTableRecord
100
AcDbBlockTableRecord
  2
A$C1FED437B
340
0
1001
ACAD
1000
DesignCenter Data
1002
{
1070
     1
1070
     4
1002
}
  0
BLOCK_RECORD
  5
17CB
102
{ACAD_XDICTIONARY
360
17FE
102
}
330
1
100
AcDbSymbolTableRecord
100
AcDbBlockTableRecord
  2
ASO-A
340
0
  0
BLOCK_RECORD
  5
3A08
102
{ACAD_XDICTIONARY
360
3A21
102
}
330
1
100
AcDbSymbolTableRecord
100
AcDbBlockTableRecord
  2
A$C4DFD3F9C
340
0
1001
ACAD
1000
DesignCenter Data
1002
{
1070
     1
1070
     4
1002
}
  0
BLOCK_RECORD
  5
4413
330
1
100
AcDbSymbolTableRecord
100
AcDbBlockTableRecord
  2
_None
340
0
  0
BLOCK_RECORD
  5
5313
102
{ACAD_XDICTIONARY
360
5330
102
}
330
1
100
AcDbSymbolTableRecord
100
AcDbBlockTableRecord
  2
A$C7420083D
340
0
1001
ACAD
1000
DesignCenter Data
1002
{
1070
     1
1070
     4
1002
}
  0
ENDTAB
  0
ENDSEC
  0
SECTION
  2
BLOCKS
  0
BLOCK
  5
20
330
1F
100
AcDbEntity
  8
0
100
AcDbBlockBegin
  2
*Model_Space
 70
     0
 10
0.0
 20
0.0
 30
0.0
  3
*Model_Space
  1

  0
ENDBLK
  5
21
330
1F
100
AcDbEntity
  8
0
100
AcDbBlockEnd
  0
BLOCK
  5
1C
330
1B
100
AcDbEntity
 67
     1
  8
0
100
AcDbBlockBegin
  2
*Paper_Space
 70
     0
 10
0.0
 20
0.0
 30
0.0
  3
*Paper_Space
  1

  0
ENDBLK
  5
1D
330
1B
100
AcDbEntity
 67
     1
  8
0
100
AcDbBlockEnd
  0
BLOCK
  5
24
330
23
100
AcDbEntity
 67
     1
  8
0
100
AcDbBlockBegin
  2
*Paper_Space0
 70
     0
 10
0.0
 20
0.0
 30
0.0
  3
*Paper_Space0
  1

  0
ENDBLK
  5
25
330
23
100
AcDbEntity
 67
     1
  8
0
100
AcDbBlockEnd
  0
BLOCK
  5
88
330
84
100
AcDbEntity
  8
0
100
AcDbBlockBegin
  2
_Open30
 70
     0
 10
0.0
 20
0.0
 30
0.0
  3
_Open30
  1

  0
LINE
  5
85
330
84
100
AcDbEntity
  8
0
 62
     0
370
    -2
100
AcDbLine
 10
-1.0
 20
0.26794919
 30
0.0
 11
0.0
 21
0.0
 31
0.0
  0
LINE
  5
86
330
84
100
AcDbEntity
  8
0
 62
     0
370
    -2
100
AcDbLine
 10
0.0
 20
0.0
 30
0.0
 11
-1.0
 21
-0.26794919
 31
0.0
  0
LINE
  5
87
330
84
100
AcDbEntity
  8
0
 62
     0
370
    -2
100
AcDbLine
 10
0.0
 20
0.0
 30
0.0
 11
-1.0
 21
0.0
 31
0.0
  0
ENDBLK
  5
89
330
84
100
AcDbEntity
  8
0
100
AcDbBlockEnd
  0
BLOCK
  5
8C
330
8A
100
AcDbEntity
  8
0
100
AcDbBlockBegin
  2
GENAXEH
 70
     0
 10
0.0
 20
0.0
 30
0.0
  3
GENAXEH
  1

  0
LINE
  5
8B
330
8A
100
AcDbEntity
  8
0
100
AcDbLine
 10
-1.0
 20
0.0
 30
0.0
 11
1.0
 21
0.0
 31
0.0
  0
ENDBLK
  5
8D
330
8A
100
AcDbEntity
  8
0
100
AcDbBlockEnd
  0
BLOCK
  5
BCE
330
BBF
100
AcDbEntity
  8
0
100
AcDbBlockBegin
  2
AA-3-BW
 70
     0
 10
0.0
 20
0.0
 30
0.0
  3
AA-3-BW
  1

  0
LWPOLYLINE
  5
BC0
330
BBF
100
AcDbEntity
  8
AM_BOR
 62
   231
100
AcDbPolyline
 90
        4
 70
     1
 43
0.0
 10
11.31798825946299
 20
285.680442839147
 10
11.31798825946292
 20
11.31955716085312
 10
408.7322739737486
 20
11.31955716085296
 10
408.7322739737486
 20
285.680442839147
1001
GENIUS_GENREC_14
1002
{
1000
PYDIR
1011
408.7322739737486
1021
285.680442839147
1031
0.0
1002
}
1002
{
1000
PXDIR
1011
11.31798825946292
1021
11.31955716085312
1031
0.0
1002
}
1002
{
1000
PORI
1011
11.31798825946299
1021
285.680442839147
1031
0.0
1002
}
1002
{
1000
PINS
1011
11.31798825946299
1021
285.680442839147
1031
0.0
1002
}
1002
{
1000
HVAL
1000
281
1002
}
1002
{
1000
H
1070
     2
1002
}
1002
{
1000
WVAL
1000
183
1002
}
1002
{
1000
W
1070
     2
1002
}
1002
{
1000
C
1070
     1
1002
}
1001
GENIUS_GENODEF_13
1002
{
1000
HIER
1070
     0
1002
}
1002
{
1000
MANEDIT
1070
     0
1002
}
1002
{
1000
NOSEL
1070
     0
1002
}
1002
{
1000
BEHIND
1070
     0
1002
}
1002
{
1000
REACTOR
1002
}
1001
GENIUS_GENOBJ-N-REC_13
1002
{
1000
OWNER
1000
GEN
1002
}
  0
TEXT
  5
BC1
330
BBF
100
AcDbEntity
  8
AM_BOR
 60
     1
100
AcDbText
 10
420.0428571428571
 20
296.9999999999998
 30
0.0
 40
5.0
  1
!GENTITLE-MAX
100
AcDbText
  0
LINE
  5
BC2
330
BBF
100
AcDbEntity
  8
AM_BOR
100
AcDbLine
 10
0.0000000000000799
 20
297.0
 30
0.0
 11
0.0000000000000799
 21
275.7857142857142
 31
0.0
1001
GENIUS_GENREC_14
1002
{
1000
PYDIR
1011
420.0428571428571
1021
296.9999999999998
1031
0.0
1002
}
1002
{
1000
PXDIR
1011
0.0
1021
0.0
1031
0.0
1002
}
1002
{
1000
PORI
1011
0.0000000000000799
1021
297.0
1031
0.0
1002
}
1002
{
1000
PINS
1011
0.0000000000000799
1021
297.0
1031
0.0
1002
}
1002
{
1000
HVAL
1000
297
1002
}
1002
{
1000
H
1070
     2
1002
}
1002
{
1000
WVAL
1000
210
1002
}
1002
{
1000
W
1070
     2
1002
}
1002
{
1000
C
1070
     1
1002
}
1001
GENIUS_GENODEF_13
1002
{
1000
HIER
1070
     0
1002
}
1002
{
1000
MANEDIT
1070
     0
1002
}
1002
{
1000
NOSEL
1070
     0
1002
}
1002
{
1000
BEHIND
1070
     0
1002
}
1002
{
1000
REACTOR
1002
}
1001
GENIUS_GENOBJ-N-REC_13
1002
{
1000
OWNER
1000
GEN
1002
}
  0
LINE
  5
BC3
330
BBF
100
AcDbEntity
  8
AM_BOR
100
AcDbLine
 10
0.0
 20
0.0
 30
0.0
 11
21.21428571428571
 21
0.0
 31
0.0
1001
GENIUS_GENREC_14
1002
{
1000
PYDIR
1011
420.0428571428571
1021
296.9999999999998
1031
0.0
1002
}
1002
{
1000
PXDIR
1011
0.0
1021
0.0
1031
0.0
1002
}
1002
{
1000
PORI
1011
0.0000000000000799
1021
297.0
1031
0.0
1002
}
1002
{
1000
PINS
1011
0.0000000000000799
1021
297.0
1031
0.0
1002
}
1002
{
1000
HVAL
1000
297
1002
}
1002
{
1000
H
1070
     2
1002
}
1002
{
1000
WVAL
1000
210
1002
}
1002
{
1000
W
1070
     2
1002
}
1002
{
1000
C
1070
     1
1002
}
1001
GENIUS_GENODEF_13
1002
{
1000
HIER
1070
     0
1002
}
1002
{
1000
MANEDIT
1070
     0
1002
}
1002
{
1000
NOSEL
1070
     0
1002
}
1002
{
1000
BEHIND
1070
     0
1002
}
1002
{
1000
REACTOR
1002
}
1001
GENIUS_GENOBJ-N-REC_13
1002
{
1000
OWNER
1000
GEN
1002
}
  0
LINE
  5
BC4
330
BBF
100
AcDbEntity
  8
AM_BOR
100
AcDbLine
 10
420.0428571428571
 20
-0.0000000000000799
 30
0.0
 11
420.0428571428571
 21
21.21428571428563
 31
0.0
1001
GENIUS_GENREC_14
1002
{
1000
PYDIR
1011
420.0428571428571
1021
296.9999999999998
1031
0.0
1002
}
1002
{
1000
PXDIR
1011
0.0
1021
0.0
1031
0.0
1002
}
1002
{
1000
PORI
1011
0.0000000000000799
1021
297.0
1031
0.0
1002
}
1002
{
1000
PINS
1011
0.0000000000000799
1021
297.0
1031
0.0
1002
}
1002
{
1000
HVAL
1000
297
1002
}
1002
{
1000
H
1070
     2
1002
}
1002
{
1000
WVAL
1000
210
1002
}
1002
{
1000
W
1070
     2
1002
}
1002
{
1000
C
1070
     1
1002
}
1001
GENIUS_GENODEF_13
1002
{
1000
HIER
1070
     0
1002
}
1002
{
1000
MANEDIT
1070
     0
1002
}
1002
{
1000
NOSEL
1070
     0
1002
}
1002
{
1000
BEHIND
1070
     0
1002
}
1002
{
1000
REACTOR
1002
}
1001
GENIUS_GENOBJ-N-REC_13
1002
{
1000
OWNER
1000
GEN
1002
}
  0
LINE
  5
BC5
330
BBF
100
AcDbEntity
  8
AM_BOR
100
AcDbLine
 10
420.0428571428571
 20
296.9999999999998
 30
0.0
 11
398.8285714285715
 21
296.9999999999998
 31
0.0
1001
GENIUS_GENREC_14
1002
{
1000
PYDIR
1011
420.0428571428571
1021
296.9999999999998
1031
0.0
1002
}
1002
{
1000
PXDIR
1011
0.0
1021
0.0
1031
0.0
1002
}
1002
{
1000
PORI
1011
0.0000000000000799
1021
297.0
1031
0.0
1002
}
1002
{
1000
PINS
1011
0.0000000000000799
1021
297.0
1031
0.0
1002
}
1002
{
1000
HVAL
1000
297
1002
}
1002
{
1000
H
1070
     2
1002
}
1002
{
1000
WVAL
1000
210
1002
}
1002
{
1000
W
1070
     2
1002
}
1002
{
1000
C
1070
     1
1002
}
1001
GENIUS_GENODEF_13
1002
{
1000
HIER
1070
     0
1002
}
1002
{
1000
MANEDIT
1070
     0
1002
}
1002
{
1000
NOSEL
1070
     0
1002
}
1002
{
1000
BEHIND
1070
     0
1002
}
1002
{
1000
REACTOR
1002
}
1001
GENIUS_GENOBJ-N-REC_13
1002
{
1000
OWNER
1000
GEN
1002
}
  0
LINE
  5
BC6
330
BBF
100
AcDbEntity
  8
AM_BOR
100
AcDbLine
 10
21.2142857142858
 20
297.0
 30
0.0
 11
0.0000000000000799
 21
297.0
 31
0.0
1001
GENIUS_GENREC_14
1002
{
1000
PYDIR
1011
420.0428571428571
1021
296.9999999999998
1031
0.0
1002
}
1002
{
1000
PXDIR
1011
0.0
1021
0.0
1031
0.0
1002
}
1002
{
1000
PORI
1011
0.0000000000000799
1021
297.0
1031
0.0
1002
}
1002
{
1000
PINS
1011
0.0000000000000799
1021
297.0
1031
0.0
1002
}
1002
{
1000
HVAL
1000
297
1002
}
1002
{
1000
H
1070
     2
1002
}
1002
{
1000
WVAL
1000
210
1002
}
1002
{
1000
W
1070
     2
1002
}
1002
{
1000
C
1070
     1
1002
}
1001
GENIUS_GENODEF_13
1002
{
1000
HIER
1070
     0
1002
}
1002
{
1000
MANEDIT
1070
     0
1002
}
1002
{
1000
NOSEL
1070
     0
1002
}
1002
{
1000
BEHIND
1070
     0
1002
}
1002
{
1000
REACTOR
1002
}
1001
GENIUS_GENOBJ-N-REC_13
1002
{
1000
OWNER
1000
GEN
1002
}
  0
LINE
  5
BC7
330
BBF
100
AcDbEntity
  8
AM_BOR
100
AcDbLine
 10
420.0428571428571
 20
275.7857142857141
 30
0.0
 11
420.0428571428571
 21
296.9999999999998
 31
0.0
1001
GENIUS_GENREC_14
1002
{
1000
PYDIR
1011
420.0428571428571
1021
296.9999999999998
1031
0.0
1002
}
1002
{
1000
PXDIR
1011
0.0
1021
0.0
1031
0.0
1002
}
1002
{
1000
PORI
1011
0.0000000000000799
1021
297.0
1031
0.0
1002
}
1002
{
1000
PINS
1011
0.0000000000000799
1021
297.0
1031
0.0
1002
}
1002
{
1000
HVAL
1000
297
1002
}
1002
{
1000
H
1070
     2
1002
}
1002
{
1000
WVAL
1000
210
1002
}
1002
{
1000
W
1070
     2
1002
}
1002
{
1000
C
1070
     1
1002
}
1001
GENIUS_GENODEF_13
1002
{
1000
HIER
1070
     0
1002
}
1002
{
1000
MANEDIT
1070
     0
1002
}
1002
{
1000
NOSEL
1070
     0
1002
}
1002
{
1000
BEHIND
1070
     0
1002
}
1002
{
1000
REACTOR
1002
}
1001
GENIUS_GENOBJ-N-REC_13
1002
{
1000
OWNER
1000
GEN
1002
}
  0
LINE
  5
BC8
330
BBF
100
AcDbEntity
  8
AM_BOR
100
AcDbLine
 10
398.8285714285715
 20
-0.0000000000000799
 30
0.0
 11
420.0428571428571
 21
-0.0000000000000799
 31
0.0
1001
GENIUS_GENREC_14
1002
{
1000
PYDIR
1011
420.0428571428571
1021
296.9999999999998
1031
0.0
1002
}
1002
{
1000
PXDIR
1011
0.0
1021
0.0
1031
0.0
1002
}
1002
{
1000
PORI
1011
0.0000000000000799
1021
297.0
1031
0.0
1002
}
1002
{
1000
PINS
1011
0.0000000000000799
1021
297.0
1031
0.0
1002
}
1002
{
1000
HVAL
1000
297
1002
}
1002
{
1000
H
1070
     2
1002
}
1002
{
1000
WVAL
1000
210
1002
}
1002
{
1000
W
1070
     2
1002
}
1002
{
1000
C
1070
     1
1002
}
1001
GENIUS_GENODEF_13
1002
{
1000
HIER
1070
     0
1002
}
1002
{
1000
MANEDIT
1070
     0
1002
}
1002
{
1000
NOSEL
1070
     0
1002
}
1002
{
1000
BEHIND
1070
     0
1002
}
1002
{
1000
REACTOR
1002
}
1001
GENIUS_GENOBJ-N-REC_13
1002
{
1000
OWNER
1000
GEN
1002
}
  0
LINE
  5
BC9
330
BBF
100
AcDbEntity
  8
AM_BOR
100
AcDbLine
 10
0.0
 20
21.21428571428571
 30
0.0
 11
0.0
 21
0.0
 31
0.0
1001
GENIUS_GENREC_14
1002
{
1000
PYDIR
1011
420.0428571428571
1021
296.9999999999998
1031
0.0
1002
}
1002
{
1000
PXDIR
1011
0.0
1021
0.0
1031
0.0
1002
}
1002
{
1000
PORI
1011
0.0000000000000799
1021
297.0
1031
0.0
1002
}
1002
{
1000
PINS
1011
0.0000000000000799
1021
297.0
1031
0.0
1002
}
1002
{
1000
HVAL
1000
297
1002
}
1002
{
1000
H
1070
     2
1002
}
1002
{
1000
WVAL
1000
210
1002
}
1002
{
1000
W
1070
     2
1002
}
1002
{
1000
C
1070
     1
1002
}
1001
GENIUS_GENODEF_13
1002
{
1000
HIER
1070
     0
1002
}
1002
{
1000
MANEDIT
1070
     0
1002
}
1002
{
1000
NOSEL
1070
     0
1002
}
1002
{
1000
BEHIND
1070
     0
1002
}
1002
{
1000
REACTOR
1002
}
1001
GENIUS_GENOBJ-N-REC_13
1002
{
1000
OWNER
1000
GEN
1002
}
  0
TEXT
  5
BCA
330
BBF
100
AcDbEntity
  8
AM_0
 60
     1
100
AcDbText
 10
408.7322739737486
 20
285.680442839147
 30
0.0
 40
5.0
  1
!GENTITLE-RU
100
AcDbText
  0
TEXT
  5
BCB
330
BBF
100
AcDbEntity
  8
AM_0
 60
     1
100
AcDbText
 10
16.00523592247285
 20
16.0074545709034
 30
0.0
 40
5.0
  1
!GENTITLE-LL
100
AcDbText
  0
TEXT
  5
BCC
330
BBF
100
AcDbEntity
  8
AM_0
 60
     1
100
AcDbText
 10
408.7322739737486
 20
11.31955716085296
 30
0.0
 40
5.0
  1
!GENTITLE-INSERT
100
AcDbText
  0
ENDBLK
  5
BCF
330
BBF
100
AcDbEntity
  8
0
100
AcDbBlockEnd
  0
BLOCK
  5
179C
330
176D
100
AcDbEntity
  8
0
100
AcDbBlockBegin
  2
ASO1
 70
     2
 10
0.0
 20
0.0
 30
0.0
  3
ASO1
  1

  0
LINE
  5
176E
330
176D
100
AcDbEntity
  8
AM_BOR
 62
   211
100
AcDbLine
 10
-110.0
 20
0.0
 30
0.0
 11
0.0
 21
0.0
 31
0.0
1001
GENIUS_GENREC_14
1002
{
1000
PYDIR
1011
-110.0
1021
40.0
1031
0.0
1002
}
1002
{
1000
PXDIR
1011
0.0
1021
0.0
1031
0.0
1002
}
1002
{
1000
PORI
1011
-110.0
1021
0.0
1031
0.0
1002
}
1002
{
1000
PINS
1011
-110.0
1021
0.0
1031
0.0
1002
}
1002
{
1000
HVAL
1000
40
1002
}
1002
{
1000
H
1070
     2
1002
}
1002
{
1000
WVAL
1000
110
1002
}
1002
{
1000
W
1070
     2
1002
}
1002
{
1000
C
1070
     1
1002
}
1001
GENIUS_GENODEF_13
1002
{
1000
HIER
1070
     0
1002
}
1002
{
1000
MANEDIT
1070
     0
1002
}
1002
{
1000
NOSEL
1070
     0
1002
}
1002
{
1000
BEHIND
1070
     0
1002
}
1002
{
1000
REACTOR
1002
}
1001
GENIUS_GENOBJ-N-REC_13
1002
{
1000
OWNER
1000
GEN
1002
}
  0
LINE
  5
176F
330
176D
100
AcDbEntity
  8
AM_BOR
 62
   211
100
AcDbLine
 10
0.0
 20
0.0
 30
0.0
 11
0.0
 21
40.0
 31
0.0
1001
GENIUS_GENREC_14
1002
{
1000
PYDIR
1011
-110.0
1021
40.0
1031
0.0
1002
}
1002
{
1000
PXDIR
1011
0.0
1021
0.0
1031
0.0
1002
}
1002
{
1000
PORI
1011
-110.0
1021
0.0
1031
0.0
1002
}
1002
{
1000
PINS
1011
-110.0
1021
0.0
1031
0.0
1002
}
1002
{
1000
HVAL
1000
40
1002
}
1002
{
1000
H
1070
     2
1002
}
1002
{
1000
WVAL
1000
110
1002
}
1002
{
1000
W
1070
     2
1002
}
1002
{
1000
C
1070
     1
1002
}
1001
GENIUS_GENODEF_13
1002
{
1000
HIER
1070
     0
1002
}
1002
{
1000
MANEDIT
1070
     0
1002
}
1002
{
1000
NOSEL
1070
     0
1002
}
1002
{
1000
BEHIND
1070
     0
1002
}
1002
{
1000
REACTOR
1002
}
1001
GENIUS_GENOBJ-N-REC_13
1002
{
1000
OWNER
1000
GEN
1002
}
  0
LINE
  5
1770
330
176D
100
AcDbEntity
  8
AM_BOR
 62
   211
100
AcDbLine
 10
0.0
 20
40.0
 30
0.0
 11
-110.0
 21
40.00000000000001
 31
0.0
1001
GENIUS_GENREC_14
1002
{
1000
PYDIR
1011
-110.0
1021
40.0
1031
0.0
1002
}
1002
{
1000
PXDIR
1011
0.0
1021
0.0
1031
0.0
1002
}
1002
{
1000
PORI
1011
-110.0
1021
0.0
1031
0.0
1002
}
1002
{
1000
PINS
1011
-110.0
1021
0.0
1031
0.0
1002
}
1002
{
1000
HVAL
1000
40
1002
}
1002
{
1000
H
1070
     2
1002
}
1002
{
1000
WVAL
1000
110
1002
}
1002
{
1000
W
1070
     2
1002
}
1002
{
1000
C
1070
     1
1002
}
1001
GENIUS_GENODEF_13
1002
{
1000
HIER
1070
     0
1002
}
1002
{
1000
MANEDIT
1070
     0
1002
}
1002
{
1000
NOSEL
1070
     0
1002
}
1002
{
1000
BEHIND
1070
     0
1002
}
1002
{
1000
REACTOR
1002
}
1001
GENIUS_GENOBJ-N-REC_13
1002
{
1000
OWNER
1000
GEN
1002
}
  0
LINE
  5
1771
330
176D
100
AcDbEntity
  8
AM_BOR
 62
   211
100
AcDbLine
 10
-110.0
 20
40.00000000000001
 30
0.0
 11
-110.0
 21
0.0
 31
0.0
1001
GENIUS_GENREC_14
1002
{
1000
PYDIR
1011
-110.0
1021
40.0
1031
0.0
1002
}
1002
{
1000
PXDIR
1011
0.0
1021
0.0
1031
0.0
1002
}
1002
{
1000
PORI
1011
-110.0
1021
0.0
1031
0.0
1002
}
1002
{
1000
PINS
1011
-110.0
1021
0.0
1031
0.0
1002
}
1002
{
1000
HVAL
1000
40
1002
}
1002
{
1000
H
1070
     2
1002
}
1002
{
1000
WVAL
1000
110
1002
}
1002
{
1000
W
1070
     2
1002
}
1002
{
1000
C
1070
     1
1002
}
1001
GENIUS_GENODEF_13
1002
{
1000
HIER
1070
     0
1002
}
1002
{
1000
MANEDIT
1070
     0
1002
}
1002
{
1000
NOSEL
1070
     0
1002
}
1002
{
1000
BEHIND
1070
     0
1002
}
1002
{
1000
REACTOR
1002
}
1001
GENIUS_GENOBJ-N-REC_13
1002
{
1000
OWNER
1000
GEN
1002
}
  0
LINE
  5
1772
330
176D
100
AcDbEntity
  8
AM_BOR
 62
     5
100
AcDbLine
 10
-60.0
 20
9.999999999999992
 30
0.0
 11
0.0
 21
10.0
 31
0.0
1001
GENIUS_GENREC_14
1002
{
1000
PYDIR
1011
-110.0
1021
40.0
1031
0.0
1002
}
1002
{
1000
PXDIR
1011
0.0
1021
0.0
1031
0.0
1002
}
1002
{
1000
PORI
1011
-110.0
1021
0.0
1031
0.0
1002
}
1002
{
1000
PINS
1011
-110.0
1021
0.0
1031
0.0
1002
}
1002
{
1000
HVAL
1000
40
1002
}
1002
{
1000
H
1070
     2
1002
}
1002
{
1000
WVAL
1000
110
1002
}
1002
{
1000
W
1070
     2
1002
}
1002
{
1000
C
1070
     1
1002
}
  0
LINE
  5
1773
330
176D
100
AcDbEntity
  8
AM_BOR
 62
     5
100
AcDbLine
 10
-110.0
 20
19.0
 30
0.0
 11
0.0
 21
19.0
 31
0.0
1001
GENIUS_GENREC_14
1002
{
1000
PYDIR
1011
-110.0
1021
40.0
1031
0.0
1002
}
1002
{
1000
PXDIR
1011
0.0
1021
0.0
1031
0.0
1002
}
1002
{
1000
PORI
1011
-110.0
1021
0.0
1031
0.0
1002
}
1002
{
1000
PINS
1011
-110.0
1021
0.0
1031
0.0
1002
}
1002
{
1000
HVAL
1000
40
1002
}
1002
{
1000
H
1070
     2
1002
}
1002
{
1000
WVAL
1000
110
1002
}
1002
{
1000
W
1070
     2
1002
}
1002
{
1000
C
1070
     1
1002
}
1001
GENIUS_GENODEF_13
1002
{
1000
HIER
1070
     0
1002
}
1002
{
1000
MANEDIT
1070
     0
1002
}
1002
{
1000
NOSEL
1070
     0
1002
}
1002
{
1000
BEHIND
1070
     0
1002
}
1002
{
1000
REACTOR
1002
}
1001
GENIUS_GENOBJ-N-REC_13
1002
{
1000
OWNER
1000
GEN
1002
}
  0
LINE
  5
1774
330
176D
100
AcDbEntity
  8
AM_BOR
 62
     5
100
AcDbLine
 10
-110.0
 20
26.0
 30
0.0
 11
0.0
 21
26.0
 31
0.0
1001
GENIUS_GENREC_14
1002
{
1000
PYDIR
1011
-110.0
1021
40.0
1031
0.0
1002
}
1002
{
1000
PXDIR
1011
0.0
1021
0.0
1031
0.0
1002
}
1002
{
1000
PORI
1011
-110.0
1021
0.0
1031
0.0
1002
}
1002
{
1000
PINS
1011
-110.0
1021
0.0
1031
0.0
1002
}
1002
{
1000
HVAL
1000
40
1002
}
1002
{
1000
H
1070
     2
1002
}
1002
{
1000
WVAL
1000
110
1002
}
1002
{
1000
W
1070
     2
1002
}
1002
{
1000
C
1070
     1
1002
}
1001
GENIUS_GENODEF_13
1002
{
1000
HIER
1070
     0
1002
}
1002
{
1000
MANEDIT
1070
     0
1002
}
1002
{
1000
NOSEL
1070
     0
1002
}
1002
{
1000
BEHIND
1070
     0
1002
}
1002
{
1000
REACTOR
1002
}
1001
GENIUS_GENOBJ-N-REC_13
1002
{
1000
OWNER
1000
GEN
1002
}
  0
LINE
  5
1775
330
176D
100
AcDbEntity
  8
AM_BOR
 62
     5
100
AcDbLine
 10
-110.0
 20
33.0
 30
0.0
 11
0.0
 21
33.0
 31
0.0
1001
GENIUS_GENREC_14
1002
{
1000
PYDIR
1011
-110.0
1021
40.0
1031
0.0
1002
}
1002
{
1000
PXDIR
1011
0.0
1021
0.0
1031
0.0
1002
}
1002
{
1000
PORI
1011
-110.0
1021
0.0
1031
0.0
1002
}
1002
{
1000
PINS
1011
-110.0
1021
0.0
1031
0.0
1002
}
1002
{
1000
HVAL
1000
40
1002
}
1002
{
1000
H
1070
     2
1002
}
1002
{
1000
WVAL
1000
110
1002
}
1002
{
1000
W
1070
     2
1002
}
1002
{
1000
C
1070
     1
1002
}
1001
GENIUS_GENODEF_13
1002
{
1000
HIER
1070
     0
1002
}
1002
{
1000
MANEDIT
1070
     0
1002
}
1002
{
1000
NOSEL
1070
     0
1002
}
1002
{
1000
BEHIND
1070
     0
1002
}
1002
{
1000
REACTOR
1002
}
1001
GENIUS_GENOBJ-N-REC_13
1002
{
1000
OWNER
1000
GEN
1002
}
  0
LINE
  5
1776
330
176D
100
AcDbEntity
  8
AM_BOR
 62
     5
100
AcDbLine
 10
-85.0
 20
33.0
 30
0.0
 11
-85.0
 21
18.99999999999998
 31
0.0
1001
GENIUS_GENREC_14
1002
{
1000
PYDIR
1011
-110.0
1021
40.0
1031
0.0
1002
}
1002
{
1000
PXDIR
1011
0.0
1021
0.0
1031
0.0
1002
}
1002
{
1000
PORI
1011
-110.0
1021
0.0
1031
0.0
1002
}
1002
{
1000
PINS
1011
-110.0
1021
0.0
1031
0.0
1002
}
1002
{
1000
HVAL
1000
40
1002
}
1002
{
1000
H
1070
     2
1002
}
1002
{
1000
WVAL
1000
110
1002
}
1002
{
1000
W
1070
     2
1002
}
1002
{
1000
C
1070
     1
1002
}
1001
GENIUS_GENODEF_13
1002
{
1000
HIER
1070
     0
1002
}
1002
{
1000
MANEDIT
1070
     0
1002
}
1002
{
1000
NOSEL
1070
     0
1002
}
1002
{
1000
BEHIND
1070
     0
1002
}
1002
{
1000
REACTOR
1002
}
1001
GENIUS_GENOBJ-N-REC_13
1002
{
1000
OWNER
1000
GEN
1002
}
  0
LINE
  5
1777
330
176D
100
AcDbEntity
  8
AM_BOR
 62
     5
100
AcDbLine
 10
-60.0
 20
40.00000000000001
 30
0.0
 11
-60.0
 21
0.0
 31
0.0
1001
GENIUS_GENREC_14
1002
{
1000
PYDIR
1011
-110.0
1021
40.0
1031
0.0
1002
}
1002
{
1000
PXDIR
1011
0.0
1021
0.0
1031
0.0
1002
}
1002
{
1000
PORI
1011
-110.0
1021
0.0
1031
0.0
1002
}
1002
{
1000
PINS
1011
-110.0
1021
0.0
1031
0.0
1002
}
1002
{
1000
HVAL
1000
40
1002
}
1002
{
1000
H
1070
     2
1002
}
1002
{
1000
WVAL
1000
110
1002
}
1002
{
1000
W
1070
     2
1002
}
1002
{
1000
C
1070
     1
1002
}
1001
GENIUS_GENODEF_13
1002
{
1000
HIER
1070
     0
1002
}
1002
{
1000
MANEDIT
1070
     0
1002
}
1002
{
1000
NOSEL
1070
     0
1002
}
1002
{
1000
BEHIND
1070
     0
1002
}
1002
{
1000
REACTOR
1002
}
1001
GENIUS_GENOBJ-N-REC_13
1002
{
1000
OWNER
1000
GEN
1002
}
  0
LINE
  5
1778
330
176D
100
AcDbEntity
  8
AM_BOR
 62
     5
100
AcDbLine
 10
-20.0
 20
33.0
 30
0.0
 11
-20.0
 21
40.0
 31
0.0
1001
GENIUS_GENREC_14
1002
{
1000
PYDIR
1011
-110.0
1021
40.0
1031
0.0
1002
}
1002
{
1000
PXDIR
1011
0.0
1021
0.0
1031
0.0
1002
}
1002
{
1000
PORI
1011
-110.0
1021
0.0
1031
0.0
1002
}
1002
{
1000
PINS
1011
-110.0
1021
0.0
1031
0.0
1002
}
1002
{
1000
HVAL
1000
40
1002
}
1002
{
1000
H
1070
     2
1002
}
1002
{
1000
WVAL
1000
110
1002
}
1002
{
1000
W
1070
     2
1002
}
1002
{
1000
C
1070
     1
1002
}
1001
GENIUS_GENODEF_13
1002
{
1000
HIER
1070
     0
1002
}
1002
{
1000
MANEDIT
1070
     0
1002
}
1002
{
1000
NOSEL
1070
     0
1002
}
1002
{
1000
BEHIND
1070
     0
1002
}
1002
{
1000
REACTOR
1002
}
1001
GENIUS_GENOBJ-N-REC_13
1002
{
1000
OWNER
1000
GEN
1002
}
  0
LINE
  5
1779
330
176D
100
AcDbEntity
  8
AM_BOR
 62
     5
100
AcDbLine
 10
-40.0
 20
33.0
 30
0.0
 11
-40.0
 21
40.0
 31
0.0
1001
GENIUS_GENREC_14
1002
{
1000
PYDIR
1011
-110.0
1021
40.0
1031
0.0
1002
}
1002
{
1000
PXDIR
1011
0.0
1021
0.0
1031
0.0
1002
}
1002
{
1000
PORI
1011
-110.0
1021
0.0
1031
0.0
1002
}
1002
{
1000
PINS
1011
-110.0
1021
0.0
1031
0.0
1002
}
1002
{
1000
HVAL
1000
40
1002
}
1002
{
1000
H
1070
     2
1002
}
1002
{
1000
WVAL
1000
110
1002
}
1002
{
1000
W
1070
     2
1002
}
1002
{
1000
C
1070
     1
1002
}
1001
GENIUS_GENODEF_13
1002
{
1000
HIER
1070
     0
1002
}
1002
{
1000
MANEDIT
1070
     0
1002
}
1002
{
1000
NOSEL
1070
     0
1002
}
1002
{
1000
BEHIND
1070
     0
1002
}
1002
{
1000
REACTOR
1002
}
1001
GENIUS_GENOBJ-N-REC_13
1002
{
1000
OWNER
1000
GEN
1002
}
  0
LINE
  5
177A
330
176D
100
AcDbEntity
  8
AM_BOR
 62
     5
100
AcDbLine
 10
-80.0
 20
33.0
 30
0.0
 11
-80.0
 21
40.0
 31
0.0
1001
GENIUS_GENREC_14
1002
{
1000
PYDIR
1011
-110.0
1021
40.0
1031
0.0
1002
}
1002
{
1000
PXDIR
1011
0.0
1021
0.0
1031
0.0
1002
}
1002
{
1000
PORI
1011
-110.0
1021
0.0
1031
0.0
1002
}
1002
{
1000
PINS
1011
-110.0
1021
0.0
1031
0.0
1002
}
1002
{
1000
HVAL
1000
40
1002
}
1002
{
1000
H
1070
     2
1002
}
1002
{
1000
WVAL
1000
110
1002
}
1002
{
1000
W
1070
     2
1002
}
1002
{
1000
C
1070
     1
1002
}
1001
GENIUS_GENODEF_13
1002
{
1000
HIER
1070
     0
1002
}
1002
{
1000
MANEDIT
1070
     0
1002
}
1002
{
1000
NOSEL
1070
     0
1002
}
1002
{
1000
BEHIND
1070
     0
1002
}
1002
{
1000
REACTOR
1002
}
1001
GENIUS_GENOBJ-N-REC_13
1002
{
1000
OWNER
1000
GEN
1002
}
  0
TEXT
  5
177B
330
176D
100
AcDbEntity
  8
AM_BOR
 62
     2
100
AcDbText
 10
-57.4
 20
35.0
 30
0.0
 40
3.0
  1
単位 ｍｍ
 72
     4
 11
-50.0
 21
36.5
 31
0.0
100
AcDbText
  0
TEXT
  5
177C
330
176D
100
AcDbEntity
  8
AM_BOR
 62
     2
100
AcDbText
 10
-39.0
 20
35.0
 30
0.0
 40
3.0
  1
尺度
 41
0.9
 11
-39.0
 21
36.5
 31
0.0
100
AcDbText
 73
     2
  0
TEXT
  5
177D
330
176D
100
AcDbEntity
  8
AM_BOR
 62
     2
100
AcDbText
 10
-19.0
 20
35.0
 30
0.0
 40
3.0
  1
日付
 41
0.9
 11
-19.0
 21
36.5
 31
0.0
100
AcDbText
 73
     2
  0
TEXT
  5
177E
330
176D
100
AcDbEntity
  8
AM_BOR
 62
     2
100
AcDbText
 10
-75.75
 20
34.99999999999999
 30
0.0
 40
3.0
  1
第1角法
 72
     4
 11
-70.0
 21
36.49999999999999
 31
0.0
100
AcDbText
  0
TEXT
  5
177F
330
176D
100
AcDbEntity
  8
AM_BOR
 62
     2
100
AcDbText
 10
-59.0
 20
29.5
 30
0.0
 40
3.0
  1
材 質
 11
-59.0
 21
31.0
 31
0.0
100
AcDbText
 73
     2
  0
TEXT
  5
1780
330
176D
100
AcDbEntity
  8
AM_BOR
 62
     2
100
AcDbText
 10
-59.0
 20
22.5
 30
0.0
 40
3.0
  1
備 考
 11
-59.0
 21
24.0
 31
0.0
100
AcDbText
 73
     2
  0
TEXT
  5
1781
330
176D
100
AcDbEntity
  8
AM_BOR
 62
     2
100
AcDbText
 10
-59.0
 20
15.5
 30
0.0
 40
3.0
  1
品 名
 11
-59.0
 21
17.0
 31
0.0
100
AcDbText
 73
     2
  0
TEXT
  5
1782
330
176D
100
AcDbEntity
  8
AM_BOR
 62
     2
100
AcDbText
 10
-59.0
 20
6.499999999999992
 30
0.0
 40
3.0
  1
図 番
 11
-59.0
 21
7.999999999999992
 31
0.0
100
AcDbText
 73
     2
  0
TEXT
  5
1783
330
176D
100
AcDbEntity
  8
AM_BOR
 62
     2
100
AcDbText
 10
-109.0
 20
29.5
 30
0.0
 40
3.0
  1
承認
 11
-109.0
 21
31.0
 31
0.0
100
AcDbText
 73
     2
  0
TEXT
  5
1784
330
176D
100
AcDbEntity
  8
AM_BOR
 62
     2
100
AcDbText
 10
-109.0
 20
22.5
 30
0.0
 40
3.0
  1
設計
 11
-109.0
 21
24.0
 31
0.0
100
AcDbText
 73
     2
  0
TEXT
  5
1785
330
176D
100
AcDbEntity
  8
AM_BOR
 62
     2
100
AcDbText
 10
-84.0
 20
22.5
 30
0.0
 40
3.0
  1
製図
 11
-84.0
 21
24.0
 31
0.0
100
AcDbText
 73
     2
  0
TEXT
  5
1786
330
176D
100
AcDbEntity
  8
AM_BOR
 62
     2
100
AcDbText
 10
-84.0
 20
29.5
 30
0.0
 40
3.0
  1
検図
 11
-84.0
 21
31.0
 31
0.0
100
AcDbText
 73
     2
  0
ATTDEF
  5
1787
330
176D
100
AcDbEntity
  8
AM_BOR
100
AcDbText
 10
-49.48020001333898
 20
12.75
 30
0.0
 40
3.5
  1

 11
-49.48020001333898
 21
14.5
 31
0.0
100
AcDbAttributeDefinition
  3
品名
  2
HINMEI{14}
 70
     0
 74
     2
  0
ATTDEF
  5
1788
330
176D
100
AcDbEntity
  8
AM_BOR
100
AcDbText
 10
-49.48020001333898
 20
3.249999999999992
 30
0.0
 40
3.5
  1

 11
-49.48020001333898
 21
4.999999999999992
 31
0.0
100
AcDbAttributeDefinition
  3
図番
  2
ZUBAN{14}
 70
     0
 74
     2
  0
ATTDEF
  5
1789
330
176D
100
AcDbEntity
  8
AM_BOR
 62
     2
100
AcDbText
 10
-11.91705654530994
 20
35.0
 30
0.0
 40
3.0
  1

 41
0.8
 11
-11.91705654530994
 21
36.5
 31
0.0
100
AcDbAttributeDefinition
  3
日付
  2
GEN-TITLE-DAT{3.5}
 70
     0
 74
     2
  0
ATTDEF
  5
178A
330
176D
100
AcDbEntity
  8
AM_BOR
 62
     2
100
AcDbText
 10
-71.63012018472975
 20
20.00000000000001
 30
0.0
 40
3.0
  1
水 田
 72
     4
 11
-67.63012018472974
 21
21.50000000000002
 31
0.0
100
AcDbAttributeDefinition
  3
製図
  2
SEIZU
 70
     0
  0
ATTDEF
  5
178B
330
176D
100
AcDbEntity
  8
AM_BOR
 62
     2
100
AcDbText
 10
-31.91705654530995
 20
35.0
 30
0.0
 40
3.0
  1

 11
-31.91705654530995
 21
36.5
 31
0.0
100
AcDbAttributeDefinition
  3
尺度
  2
GEN-TITLE-SCA
 70
     0
 74
     2
  0
LINE
  5
178C
330
176D
100
AcDbEntity
  8
0
100
AcDbLine
 10
-106.9502221859465
 20
14.71456568209314
 30
0.0
 11
-107.7139711131768
 21
11.16237652835879
 31
0.0
  0
LINE
  5
178D
330
176D
100
AcDbEntity
  8
0
100
AcDbLine
 10
-107.7139711131768
 20
11.16237652835879
 30
0.0
 11
-107.6697551010107
 21
11.22470827233807
 31
0.0
  0
ELLIPSE
  5
178E
330
176D
100
AcDbEntity
  8
0
100
AcDbEllipse
 10
-106.5198686826232
 20
9.133166589319488
 30
0.0
 11
0.0200858413762701
 21
2.795177724472429
 31
0.0
210
0.0
220
0.0
230
1.0
 40
0.6250197778053533
 41
-1.051714224928873
 42
0.7298517778971401
1001
GENIUS_GENODEF_13
1002
{
1000
HIER
1070
     0
1002
}
1002
{
1000
MANEDIT
1070
     0
1002
}
1002
{
1000
NOSEL
1070
     0
1002
}
1002
{
1000
BEHIND
1070
     0
1002
}
1002
{
1000
REACTOR
1002
}
1001
GENIUS_GENOBJ-N-FIL_13
1002
{
1000
OWNER
1000
GEN
1002
}
  0
ELLIPSE
  5
178F
330
176D
100
AcDbEntity
  8
0
100
AcDbEllipse
 10
-105.2984958385996
 20
13.8219417489321
 30
0.0
 11
0.0200858413762916
 21
2.795177724472415
 31
0.0
210
0.0
220
0.0
230
1.0
 40
0.6250197778053527
 41
-1.051714224928867
 42
1.250253596044828
1001
GENIUS_GENODEF_13
1002
{
1000
HIER
1070
     0
1002
}
1002
{
1000
MANEDIT
1070
     0
1002
}
1002
{
1000
NOSEL
1070
     0
1002
}
1002
{
1000
BEHIND
1070
     0
1002
}
1002
{
1000
REACTOR
1002
}
1001
GENIUS_GENOBJ-N-FIL_13
1002
{
1000
OWNER
1000
GEN
1002
}
  0
LINE
  5
1790
330
176D
100
AcDbEntity
  8
0
100
AcDbLine
 10
-98.48721298302093
 20
8.077457208786752
 30
0.0
 11
-99.45177360188811
 21
4.065819878065248
 31
0.0
  0
ELLIPSE
  5
1791
330
176D
100
AcDbEntity
  8
0
100
AcDbEllipse
 10
-101.0818809708247
 20
5.053412867376919
 30
0.0
 11
0.0200858413762853
 21
2.795177724472413
 31
0.0
210
0.0
220
0.0
230
1.0
 40
0.6250197778053547
 41
2.089878428660925
 42
4.355766148231805
1001
GENIUS_GENODEF_13
1002
{
1000
HIER
1070
     0
1002
}
1002
{
1000
MANEDIT
1070
     0
1002
}
1002
{
1000
NOSEL
1070
     0
1002
}
1002
{
1000
BEHIND
1070
     0
1002
}
1002
{
1000
REACTOR
1002
}
1001
GENIUS_GENOBJ-N-FIL_13
1002
{
1000
OWNER
1000
GEN
1002
}
  0
LINE
  5
1792
330
176D
100
AcDbEntity
  8
0
100
AcDbLine
 10
-98.48721298302093
 20
8.077457208786752
 30
0.0
 11
-98.66382720839389
 21
7.801834007856294
 31
0.0
  0
ELLIPSE
  5
1793
330
176D
100
AcDbEntity
  8
0
100
AcDbEllipse
 10
-99.87931293102301
 20
9.796066964505511
 30
0.0
 11
0.0200858413762724
 21
2.795177724472415
 31
0.0
210
0.0
220
0.0
230
0.9999999999999998
 40
0.6250197778053552
 41
2.08987842866092
 42
3.922474143254961
1001
GENIUS_GENODEF_13
1002
{
1000
HIER
1070
     0
1002
}
1002
{
1000
MANEDIT
1070
     0
1002
}
1002
{
1000
NOSEL
1070
     0
1002
}
1002
{
1000
BEHIND
1070
     0
1002
}
1002
{
1000
REACTOR
1002
}
1001
GENIUS_GENOBJ-N-FIL_13
1002
{
1000
OWNER
1000
GEN
1002
}
  0
HATCH
  5
1794
330
176D
100
AcDbEntity
  8
AM_8
100
AcDbHatch
 10
0.0
 20
0.0
 30
0.0
210
0.0
220
0.0
230
1.0
  2
SOLID
 70
     1
 71
     0
 91
        1
 92
        1
 93
        2
 72
     3
 10
-106.7638987916396
 20
4.957358478318376
 11
0.0000000000000547
 21
2.56276973145977
 40
0.8333333333333941
 50
-77.14069946214277
 51
264.4007371808275
 73
     1
 72
     3
 10
-106.7638987916396
 20
4.957358478318376
 11
-0.0000000000003928
 21
2.562769731461267
 40
0.8333333333328997
 50
264.4007371808174
 51
282.8593005378472
 73
     1
 97
        0
 75
     0
 76
     1
 98
        1
 10
65.20293740923941
 20
-32.16820874956388
1001
GENIUS_GENODEF_13
1002
{
1000
HIER
1070
     0
1002
}
1002
{
1000
MANEDIT
1070
     0
1002
}
1002
{
1000
NOSEL
1070
     0
1002
}
1002
{
1000
BEHIND
1070
     0
1002
}
1002
{
1000
REACTOR
1002
}
1001
GENIUS_GENOBJ-N-HTC_13
1002
{
1000
OWNER
1000
GEN
1002
}
1001
GENIUS_GENHATCH_13
1002
{
1000
DATA
1040
0.0
1042
0.0015799698758396
1000
SOLID
1070
     0
1011
70.0136537122014
1021
-14.7540192633455
1031
0.0
1002
}
1002
{
1000
UCS
1010
0.0
1020
0.0
1030
0.0
1010
1.0
1020
0.0
1030
0.0
1010
0.0
1020
1.0
1030
0.0
1002
}
  0
ELLIPSE
  5
1795
330
176D
100
AcDbEntity
  8
0
100
AcDbEllipse
 10
-106.7638987916396
 20
4.957358478318417
 30
0.0
 11
0.0000000000000006
 21
2.562769731459943
 31
0.0
210
0.0
220
0.0
230
1.0
 40
0.8333333333333353
 41
-1.570796326794896
 42
4.712388980384689
  0
HATCH
  5
1796
330
176D
100
AcDbEntity
  8
AM_8
100
AcDbHatch
 10
0.0
 20
0.0
 30
0.0
210
0.0
220
0.0
230
1.0
  2
SOLID
 70
     1
 71
     0
 91
        1
 92
        1
 93
       10
 72
     1
 10
-106.9502221859465
 20
14.71456568209311
 11
-107.7139711131768
 21
11.16237652835879
 72
     1
 10
-107.7139711131768
 20
11.16237652835879
 11
-107.6697551010108
 21
11.22470827233809
 72
     3
 10
-106.5198686826232
 20
9.133166589319488
 11
0.0200858413762859
 21
2.795177724472421
 40
0.6250197778053525
 50
-29.21280058452436
 51
47.56891328106517
 73
     0
 72
     1
 10
-104.9929922696577
 20
10.5089073790986
 11
-102.6087573837903
 21
3.677672077597827
 72
     3
 10
-101.0818809708247
 20
5.053412867376919
 11
0.0200858413762844
 21
2.79517772447242
 40
0.625019777805353
 50
132.4310867189347
 51
239.202331800838
 73
     1
 72
     1
 10
-99.45177360188809
 20
4.065819878065248
 11
-98.48721298302093
 21
8.077457208786761
 72
     1
 10
-98.48721298302095
 20
8.077457208786752
 11
-98.66382720839393
 21
7.801834007856288
 72
     3
 10
-99.87931293102301
 20
9.796066964505511
 11
0.0200858413762811
 21
2.795177724472416
 40
0.6250197778053536
 50
148.2259629226598
 51
227.5689132810653
 73
     0
 72
     1
 10
-101.4061893439886
 20
8.420326174726406
 11
-103.771619425634
 21
15.19768253871121
 72
     3
 10
-105.2984958385996
 20
13.8219417489321
 11
0.02008584137625
 21
2.795177724472417
 40
0.6250197778053583
 50
-47.56891328106589
 51
62.02409398278944
 73
     1
 97
        0
 75
     0
 76
     1
 98
        1
 10
65.20293740923941
 20
-32.16820874956388
1001
GENIUS_GENODEF_13
1002
{
1000
HIER
1070
     0
1002
}
1002
{
1000
MANEDIT
1070
     0
1002
}
1002
{
1000
NOSEL
1070
     0
1002
}
1002
{
1000
BEHIND
1070
     0
1002
}
1002
{
1000
REACTOR
1002
}
1001
GENIUS_GENOBJ-N-HTC_13
1002
{
1000
OWNER
1000
GEN
1002
}
1001
GENIUS_GENHATCH_13
1002
{
1000
DATA
1040
0.0
1042
0.0015799698758396
1000
SOLID
1070
     0
1011
74.07735655451816
1021
-11.90112763631223
1031
0.0
1002
}
1002
{
1000
UCS
1010
0.0
1020
0.0
1030
0.0
1010
1.0
1020
0.0
1030
0.0
1010
0.0
1020
1.0
1030
0.0
1002
}
  0
LINE
  5
1797
330
176D
100
AcDbEntity
  8
0
100
AcDbLine
 10
-104.9929922696577
 20
10.5089073790986
 30
0.0
 11
-102.6087573837903
 21
3.677672077597847
 31
0.0
  0
LINE
  5
1798
330
176D
100
AcDbEntity
  8
0
100
AcDbLine
 10
-101.4061893439886
 20
8.420326174726406
 30
0.0
 11
-103.771619425634
 21
15.1976825387112
 31
0.0
  0
TEXT
  5
1799
330
176D
100
AcDbEntity
  8
0
100
AcDbText
 10
-92.04358977334541
 20
2.736280326823534
 30
0.0
 40
1.397647058823528
  1
ASOH   CO.LTD
 41
2.222222222222219
  7
ｽﾀｲﾙ1
100
AcDbText
  0
TEXT
  5
179A
330
176D
100
AcDbEntity
  8
0
100
AcDbText
 10
-96.37601713265375
 20
7.065690057310197
 30
0.0
 40
9.355420606948992
  1
アソー株式会社
 41
0.4444444444444381
  7
ｽﾀｲﾙ1
100
AcDbText
  0
ENDBLK
  5
179D
330
176D
100
AcDbEntity
  8
0
100
AcDbBlockEnd
  0
BLOCK
  5
17A9
330
17A8
100
AcDbEntity
  8
0
100
AcDbBlockBegin
  2
A$C2D292097
 70
     0
 10
0.0
 20
0.0
 30
0.0
  3
A$C2D292097
  1

  0
TEXT
  5
17AA
330
17A8
100
AcDbEntity
  8
0
100
AcDbText
 10
197.1044423511698
 20
31.0035981017752
 30
0.0
 40
10.0
  1
ASOH   CO.LTD
 41
5.0
  7
ｽﾀｲﾙ1
100
AcDbText
  0
TEXT
  5
17AB
330
17A8
100
AcDbEntity
  8
0
100
AcDbText
 10
127.3589261501835
 20
61.98001452360745
 30
0.0
 40
66.93693195207612
  1
アソー株式会社
  7
ｽﾀｲﾙ1
100
AcDbText
  0
HATCH
  5
17AC
330
17A8
100
AcDbEntity
  8
AM_8
100
AcDbHatch
 10
0.0
 20
0.0
 30
0.0
210
0.0
220
0.0
230
1.0
  2
SOLID
 70
     1
 71
     0
 91
        1
 92
        1
 93
       10
 72
     1
 10
26.27998696211468
 20
119.622038302041
 11
19.72254667781421
 21
94.20654351522143
 72
     1
 10
19.72254667781422
 20
94.20654351522143
 11
20.10217910550261
 21
94.65251979790156
 72
     3
 10
29.97494128357687
 20
79.68778553387966
 11
0.2402016329913236
 21
19.99855752736978
 40
0.7499999999999996
 50
-34.10238568201522
 51
52.41091053102508
 73
     0
 72
     1
 10
43.0844862433824
 20
89.53104876041368
 11
63.55518980891033
 21
40.6543652059048
 72
     3
 10
76.66473476871587
 20
50.49762843243886
 11
0.2402016329913165
 21
19.99855752736978
 40
0.7499999999999999
 50
127.589089468975
 51
243.9002512902304
 73
     1
 72
     1
 10
90.66060611817196
 20
43.43151697692579
 11
98.94218718925374
 21
72.13430932636422
 72
     1
 10
98.94218718925376
 20
72.13430932636422
 11
97.4258024259505
 21
70.16225780455534
 72
     3
 10
86.98981389832653
 20
84.43075959876276
 11
-0.2402016329912594
 21
-19.99855752736953
 40
0.7499999999999996
 50
-36.86989764584386
 51
52.41091053102518
 73
     0
 72
     1
 10
73.88026893852099
 20
74.58749637222874
 11
53.57102076277776
 21
123.0786824781806
 72
     3
 10
40.46147580297221
 20
113.2354192516466
 11
-0.240201632991283
 21
-19.99855752736977
 40
0.7500000000000002
 50
127.5890894689749
 51
246.4437724078177
 73
     1
 97
        0
 75
     0
 76
     1
 98
        1
 10
-11.02788873631791
 20
-99.90118815091953
1001
GENIUS_GENODEF_13
1002
{
1000
HIER
1070
     0
1002
}
1002
{
1000
MANEDIT
1070
     0
1002
}
1002
{
1000
NOSEL
1070
     0
1002
}
1002
{
1000
BEHIND
1070
     0
1002
}
1002
{
1000
REACTOR
1002
}
1001
GENIUS_GENOBJ-N-HTC_13
1002
{
1000
OWNER
1000
GEN
1002
}
1001
GENIUS_GENHATCH_13
1002
{
1000
DATA
1040
0.0
1042
0.9999999999999998
1000
SOLID
1070
     0
1011
65.16661907668134
1021
74.10910423558471
1031
0.0
1002
}
1002
{
1000
UCS
1010
0.0
1020
0.0
1030
0.0
1010
1.0
1020
0.0
1030
0.0
1010
0.0
1020
1.0
1030
0.0
1002
}
  0
HATCH
  5
17AD
330
17A8
100
AcDbEntity
  8
AM_8
100
AcDbHatch
 10
0.0
 20
0.0
 30
0.0
210
0.0
220
0.0
230
1.0
  2
SOLID
 70
     1
 71
     0
 91
        1
 92
        1
 93
        2
 72
     2
 10
27.87973327687144
 20
49.81037059826576
 40
18.33631541869489
 50
10.7710123686058
 51
355.3294096482469
 73
     1
 72
     2
 10
27.87973327687144
 20
49.81037059826576
 40
18.33631541869488
 50
355.3294096482469
 51
370.7710123686058
 73
     1
 97
        0
 75
     0
 76
     1
 98
        1
 10
-11.02788873631791
 20
-99.90118815091953
1001
GENIUS_GENODEF_13
1002
{
1000
HIER
1070
     0
1002
}
1002
{
1000
MANEDIT
1070
     0
1002
}
1002
{
1000
NOSEL
1070
     0
1002
}
1002
{
1000
BEHIND
1070
     0
1002
}
1002
{
1000
REACTOR
1002
}
1001
GENIUS_GENOBJ-N-HTC_13
1002
{
1000
OWNER
1000
GEN
1002
}
1001
GENIUS_GENHATCH_13
1002
{
1000
DATA
1040
0.0
1042
0.9999999999999998
1000
SOLID
1070
     0
1011
30.27624113759819
1021
49.61458016509695
1031
0.0
1002
}
1002
{
1000
UCS
1010
0.0
1020
0.0
1030
0.0
1010
1.0
1020
0.0
1030
0.0
1010
0.0
1020
1.0
1030
0.0
1002
}
  0
CIRCLE
  5
17AE
330
17A8
100
AcDbEntity
  8
0
100
AcDbCircle
 10
27.87973327687145
 20
49.81037059826573
 30
0.0
 40
18.33631541869488
  0
LINE
  5
17AF
330
17A8
100
AcDbEntity
  8
0
100
AcDbLine
 10
98.94218718925376
 20
72.13430932636422
 30
0.0
 11
90.66060611817196
 21
43.43151697692576
 31
0.0
  0
LINE
  5
17B0
330
17A8
100
AcDbEntity
  8
0
100
AcDbLine
 10
43.0844862433824
 20
89.5310487604137
 30
0.0
 11
63.55518980891034
 21
40.6543652059048
 31
0.0
  0
ELLIPSE
  5
17B1
330
17A8
100
AcDbEntity
  8
0
100
AcDbEllipse
 10
76.66473476871587
 20
50.49762843243886
 30
0.0
 11
0.2402016329913116
 21
19.99855752736953
 31
0.0
210
0.0
220
0.0
230
0.9999999999999998
 40
0.7499999999999999
 41
2.094395102393195
 42
4.360282821964076
1001
GENIUS_GENODEF_13
1002
{
1000
HIER
1070
     0
1002
}
1002
{
1000
MANEDIT
1070
     0
1002
}
1002
{
1000
NOSEL
1070
     0
1002
}
1002
{
1000
BEHIND
1070
     0
1002
}
1002
{
1000
REACTOR
1002
}
1001
GENIUS_GENOBJ-N-FIL_13
1002
{
1000
OWNER
1000
GEN
1002
}
  0
ELLIPSE
  5
17B2
330
17A8
100
AcDbEntity
  8
0
100
AcDbEllipse
 10
86.98981389832653
 20
84.43075959876276
 30
0.0
 11
0.2402016329912594
 21
19.99855752736953
 31
0.0
210
0.0
220
0.0
230
1.0
 40
0.7499999999999996
 41
2.094395102393192
 42
3.926990816987234
1001
GENIUS_GENODEF_13
1002
{
1000
HIER
1070
     0
1002
}
1002
{
1000
MANEDIT
1070
     0
1002
}
1002
{
1000
NOSEL
1070
     0
1002
}
1002
{
1000
BEHIND
1070
     0
1002
}
1002
{
1000
REACTOR
1002
}
1001
GENIUS_GENOBJ-N-FIL_13
1002
{
1000
OWNER
1000
GEN
1002
}
  0
ELLIPSE
  5
17B3
330
17A8
100
AcDbEntity
  8
0
100
AcDbEllipse
 10
29.97494128357687
 20
79.68778553387966
 30
0.0
 11
0.2402016329913188
 21
19.99855752736953
 31
0.0
210
0.0
220
0.0
230
0.9999999999999998
 40
0.7499999999999996
 41
-1.047197551196598
 42
0.7343684516294112
1001
GENIUS_GENODEF_13
1002
{
1000
HIER
1070
     0
1002
}
1002
{
1000
MANEDIT
1070
     0
1002
}
1002
{
1000
NOSEL
1070
     0
1002
}
1002
{
1000
BEHIND
1070
     0
1002
}
1002
{
1000
REACTOR
1002
}
1001
GENIUS_GENOBJ-N-FIL_13
1002
{
1000
OWNER
1000
GEN
1002
}
  0
ELLIPSE
  5
17B4
330
17A8
100
AcDbEntity
  8
0
100
AcDbEllipse
 10
40.46147580297221
 20
113.2354192516466
 30
0.0
 11
0.2402016329912781
 21
19.99855752736952
 31
0.0
210
0.0
220
0.0
230
0.9999999999999998
 40
0.75
 41
-1.047197551196599
 42
1.254770269777095
1001
GENIUS_GENODEF_13
1002
{
1000
HIER
1070
     0
1002
}
1002
{
1000
MANEDIT
1070
     0
1002
}
1002
{
1000
NOSEL
1070
     0
1002
}
1002
{
1000
BEHIND
1070
     0
1002
}
1002
{
1000
REACTOR
1002
}
1001
GENIUS_GENOBJ-N-FIL_13
1002
{
1000
OWNER
1000
GEN
1002
}
  0
LINE
  5
17B5
330
17A8
100
AcDbEntity
  8
0
100
AcDbLine
 10
73.88026893852099
 20
74.58749637222874
 30
0.0
 11
53.57102076277774
 21
123.0786824781806
 31
0.0
  0
LINE
  5
17B6
330
17A8
100
AcDbEntity
  8
0
100
AcDbLine
 10
26.27998696211472
 20
119.6220383020412
 30
0.0
 11
19.72254667781422
 21
94.20654351522143
 31
0.0
  0
LINE
  5
17B7
330
17A8
100
AcDbEntity
  8
0
100
AcDbLine
 10
19.72254667781422
 20
94.20654351522143
 30
0.0
 11
20.1021791055026
 21
94.65251979790158
 31
0.0
  0
LINE
  5
17B8
330
17A8
100
AcDbEntity
  8
0
100
AcDbLine
 10
98.94218718925372
 20
72.13430932636422
 30
0.0
 11
97.42580242595048
 21
70.16225780455531
 31
0.0
  0
ENDBLK
  5
17B9
330
17A8
100
AcDbEntity
  8
0
100
AcDbBlockEnd
  0
BLOCK
  5
17BF
330
17BD
100
AcDbEntity
  8
0
100
AcDbBlockBegin
  2
A$C676C2959
 70
     2
 10
0.0
 20
0.0
 30
0.0
  3
A$C676C2959
  1

  0
ATTDEF
  5
17C0
330
17BD
100
AcDbEntity
  8
AM_BOR
 62
     2
100
AcDbText
 10
12.15813029624129
 20
1.055831712516678
 30
0.0
 40
3.0
  1
水 田
 72
     4
 11
16.15813029624129
 21
2.555831712516678
 31
0.0
100
AcDbAttributeDefinition
  3
検図
  2
KENZU
 70
     0
  0
ENDBLK
  5
17C1
330
17BD
100
AcDbEntity
  8
0
100
AcDbBlockEnd
  0
BLOCK
  5
17C4
330
17C2
100
AcDbEntity
  8
0
100
AcDbBlockBegin
  2
A$C1FED437B
 70
     2
 10
0.0
 20
0.0
 30
0.0
  3
A$C1FED437B
  1

  0
ATTDEF
  5
17C5
330
17C2
100
AcDbEntity
  8
AM_BOR
 62
     2
100
AcDbText
 10
18.03041271546894
 20
2.555831712516678
 30
0.0
 40
3.0
  1

 72
     4
 11
18.03041271546894
 21
2.555831712516678
 31
0.0
100
AcDbAttributeDefinition
  3
材質
  2
ZAISITU
 70
     0
  0
ENDBLK
  5
17C6
330
17C2
100
AcDbEntity
  8
0
100
AcDbBlockEnd
  0
BLOCK
  5
17FF
330
17CB
100
AcDbEntity
  8
0
100
AcDbBlockBegin
  2
ASO-A
 70
     2
 10
0.0
 20
0.0
 30
0.0
  3
ASO-A
  1

  0
LINE
  5
17CC
330
17CB
100
AcDbEntity
  8
AM_BOR
 62
   211
100
AcDbLine
 10
-110.0
 20
0.0
 30
0.0
 11
0.0
 21
0.0
 31
0.0
1001
GENIUS_GENREC_14
1002
{
1000
PYDIR
1011
-110.0
1021
40.0
1031
0.0
1002
}
1002
{
1000
PXDIR
1011
0.0
1021
0.0
1031
0.0
1002
}
1002
{
1000
PORI
1011
-110.0
1021
0.0
1031
0.0
1002
}
1002
{
1000
PINS
1011
-110.0
1021
0.0
1031
0.0
1002
}
1002
{
1000
HVAL
1000
40
1002
}
1002
{
1000
H
1070
     2
1002
}
1002
{
1000
WVAL
1000
110
1002
}
1002
{
1000
W
1070
     2
1002
}
1002
{
1000
C
1070
     1
1002
}
1001
GENIUS_GENODEF_13
1002
{
1000
HIER
1070
     0
1002
}
1002
{
1000
MANEDIT
1070
     0
1002
}
1002
{
1000
NOSEL
1070
     0
1002
}
1002
{
1000
BEHIND
1070
     0
1002
}
1002
{
1000
REACTOR
1002
}
1001
GENIUS_GENOBJ-N-REC_13
1002
{
1000
OWNER
1000
GEN
1002
}
  0
LINE
  5
17CD
330
17CB
100
AcDbEntity
  8
AM_BOR
 62
   211
100
AcDbLine
 10
0.0
 20
0.0
 30
0.0
 11
0.0
 21
40.0
 31
0.0
1001
GENIUS_GENREC_14
1002
{
1000
PYDIR
1011
-110.0
1021
40.0
1031
0.0
1002
}
1002
{
1000
PXDIR
1011
0.0
1021
0.0
1031
0.0
1002
}
1002
{
1000
PORI
1011
-110.0
1021
0.0
1031
0.0
1002
}
1002
{
1000
PINS
1011
-110.0
1021
0.0
1031
0.0
1002
}
1002
{
1000
HVAL
1000
40
1002
}
1002
{
1000
H
1070
     2
1002
}
1002
{
1000
WVAL
1000
110
1002
}
1002
{
1000
W
1070
     2
1002
}
1002
{
1000
C
1070
     1
1002
}
1001
GENIUS_GENODEF_13
1002
{
1000
HIER
1070
     0
1002
}
1002
{
1000
MANEDIT
1070
     0
1002
}
1002
{
1000
NOSEL
1070
     0
1002
}
1002
{
1000
BEHIND
1070
     0
1002
}
1002
{
1000
REACTOR
1002
}
1001
GENIUS_GENOBJ-N-REC_13
1002
{
1000
OWNER
1000
GEN
1002
}
  0
LINE
  5
17CE
330
17CB
100
AcDbEntity
  8
AM_BOR
 62
   211
100
AcDbLine
 10
0.0
 20
40.0
 30
0.0
 11
-110.0
 21
40.00000000000001
 31
0.0
1001
GENIUS_GENREC_14
1002
{
1000
PYDIR
1011
-110.0
1021
40.0
1031
0.0
1002
}
1002
{
1000
PXDIR
1011
0.0
1021
0.0
1031
0.0
1002
}
1002
{
1000
PORI
1011
-110.0
1021
0.0
1031
0.0
1002
}
1002
{
1000
PINS
1011
-110.0
1021
0.0
1031
0.0
1002
}
1002
{
1000
HVAL
1000
40
1002
}
1002
{
1000
H
1070
     2
1002
}
1002
{
1000
WVAL
1000
110
1002
}
1002
{
1000
W
1070
     2
1002
}
1002
{
1000
C
1070
     1
1002
}
1001
GENIUS_GENODEF_13
1002
{
1000
HIER
1070
     0
1002
}
1002
{
1000
MANEDIT
1070
     0
1002
}
1002
{
1000
NOSEL
1070
     0
1002
}
1002
{
1000
BEHIND
1070
     0
1002
}
1002
{
1000
REACTOR
1002
}
1001
GENIUS_GENOBJ-N-REC_13
1002
{
1000
OWNER
1000
GEN
1002
}
  0
LINE
  5
17CF
330
17CB
100
AcDbEntity
  8
AM_BOR
 62
   211
100
AcDbLine
 10
-110.0
 20
40.00000000000001
 30
0.0
 11
-110.0
 21
0.0
 31
0.0
1001
GENIUS_GENREC_14
1002
{
1000
PYDIR
1011
-110.0
1021
40.0
1031
0.0
1002
}
1002
{
1000
PXDIR
1011
0.0
1021
0.0
1031
0.0
1002
}
1002
{
1000
PORI
1011
-110.0
1021
0.0
1031
0.0
1002
}
1002
{
1000
PINS
1011
-110.0
1021
0.0
1031
0.0
1002
}
1002
{
1000
HVAL
1000
40
1002
}
1002
{
1000
H
1070
     2
1002
}
1002
{
1000
WVAL
1000
110
1002
}
1002
{
1000
W
1070
     2
1002
}
1002
{
1000
C
1070
     1
1002
}
1001
GENIUS_GENODEF_13
1002
{
1000
HIER
1070
     0
1002
}
1002
{
1000
MANEDIT
1070
     0
1002
}
1002
{
1000
NOSEL
1070
     0
1002
}
1002
{
1000
BEHIND
1070
     0
1002
}
1002
{
1000
REACTOR
1002
}
1001
GENIUS_GENOBJ-N-REC_13
1002
{
1000
OWNER
1000
GEN
1002
}
  0
LINE
  5
17D0
330
17CB
100
AcDbEntity
  8
AM_BOR
 62
     5
100
AcDbLine
 10
-60.0
 20
9.999999999999992
 30
0.0
 11
0.0
 21
10.0
 31
0.0
1001
GENIUS_GENREC_14
1002
{
1000
PYDIR
1011
-110.0
1021
40.0
1031
0.0
1002
}
1002
{
1000
PXDIR
1011
0.0
1021
0.0
1031
0.0
1002
}
1002
{
1000
PORI
1011
-110.0
1021
0.0
1031
0.0
1002
}
1002
{
1000
PINS
1011
-110.0
1021
0.0
1031
0.0
1002
}
1002
{
1000
HVAL
1000
40
1002
}
1002
{
1000
H
1070
     2
1002
}
1002
{
1000
WVAL
1000
110
1002
}
1002
{
1000
W
1070
     2
1002
}
1002
{
1000
C
1070
     1
1002
}
  0
LINE
  5
17D1
330
17CB
100
AcDbEntity
  8
AM_BOR
 62
     5
100
AcDbLine
 10
-110.0
 20
19.0
 30
0.0
 11
0.0
 21
19.0
 31
0.0
1001
GENIUS_GENREC_14
1002
{
1000
PYDIR
1011
-110.0
1021
40.0
1031
0.0
1002
}
1002
{
1000
PXDIR
1011
0.0
1021
0.0
1031
0.0
1002
}
1002
{
1000
PORI
1011
-110.0
1021
0.0
1031
0.0
1002
}
1002
{
1000
PINS
1011
-110.0
1021
0.0
1031
0.0
1002
}
1002
{
1000
HVAL
1000
40
1002
}
1002
{
1000
H
1070
     2
1002
}
1002
{
1000
WVAL
1000
110
1002
}
1002
{
1000
W
1070
     2
1002
}
1002
{
1000
C
1070
     1
1002
}
1001
GENIUS_GENODEF_13
1002
{
1000
HIER
1070
     0
1002
}
1002
{
1000
MANEDIT
1070
     0
1002
}
1002
{
1000
NOSEL
1070
     0
1002
}
1002
{
1000
BEHIND
1070
     0
1002
}
1002
{
1000
REACTOR
1002
}
1001
GENIUS_GENOBJ-N-REC_13
1002
{
1000
OWNER
1000
GEN
1002
}
  0
LINE
  5
17D2
330
17CB
100
AcDbEntity
  8
AM_BOR
 62
     5
100
AcDbLine
 10
-110.0
 20
26.0
 30
0.0
 11
0.0
 21
26.0
 31
0.0
1001
GENIUS_GENREC_14
1002
{
1000
PYDIR
1011
-110.0
1021
40.0
1031
0.0
1002
}
1002
{
1000
PXDIR
1011
0.0
1021
0.0
1031
0.0
1002
}
1002
{
1000
PORI
1011
-110.0
1021
0.0
1031
0.0
1002
}
1002
{
1000
PINS
1011
-110.0
1021
0.0
1031
0.0
1002
}
1002
{
1000
HVAL
1000
40
1002
}
1002
{
1000
H
1070
     2
1002
}
1002
{
1000
WVAL
1000
110
1002
}
1002
{
1000
W
1070
     2
1002
}
1002
{
1000
C
1070
     1
1002
}
1001
GENIUS_GENODEF_13
1002
{
1000
HIER
1070
     0
1002
}
1002
{
1000
MANEDIT
1070
     0
1002
}
1002
{
1000
NOSEL
1070
     0
1002
}
1002
{
1000
BEHIND
1070
     0
1002
}
1002
{
1000
REACTOR
1002
}
1001
GENIUS_GENOBJ-N-REC_13
1002
{
1000
OWNER
1000
GEN
1002
}
  0
LINE
  5
17D3
330
17CB
100
AcDbEntity
  8
AM_BOR
 62
     5
100
AcDbLine
 10
-110.0
 20
33.0
 30
0.0
 11
0.0
 21
33.0
 31
0.0
1001
GENIUS_GENREC_14
1002
{
1000
PYDIR
1011
-110.0
1021
40.0
1031
0.0
1002
}
1002
{
1000
PXDIR
1011
0.0
1021
0.0
1031
0.0
1002
}
1002
{
1000
PORI
1011
-110.0
1021
0.0
1031
0.0
1002
}
1002
{
1000
PINS
1011
-110.0
1021
0.0
1031
0.0
1002
}
1002
{
1000
HVAL
1000
40
1002
}
1002
{
1000
H
1070
     2
1002
}
1002
{
1000
WVAL
1000
110
1002
}
1002
{
1000
W
1070
     2
1002
}
1002
{
1000
C
1070
     1
1002
}
1001
GENIUS_GENODEF_13
1002
{
1000
HIER
1070
     0
1002
}
1002
{
1000
MANEDIT
1070
     0
1002
}
1002
{
1000
NOSEL
1070
     0
1002
}
1002
{
1000
BEHIND
1070
     0
1002
}
1002
{
1000
REACTOR
1002
}
1001
GENIUS_GENOBJ-N-REC_13
1002
{
1000
OWNER
1000
GEN
1002
}
  0
LINE
  5
17D4
330
17CB
100
AcDbEntity
  8
AM_BOR
 62
     5
100
AcDbLine
 10
-85.0
 20
33.0
 30
0.0
 11
-85.0
 21
18.99999999999998
 31
0.0
1001
GENIUS_GENREC_14
1002
{
1000
PYDIR
1011
-110.0
1021
40.0
1031
0.0
1002
}
1002
{
1000
PXDIR
1011
0.0
1021
0.0
1031
0.0
1002
}
1002
{
1000
PORI
1011
-110.0
1021
0.0
1031
0.0
1002
}
1002
{
1000
PINS
1011
-110.0
1021
0.0
1031
0.0
1002
}
1002
{
1000
HVAL
1000
40
1002
}
1002
{
1000
H
1070
     2
1002
}
1002
{
1000
WVAL
1000
110
1002
}
1002
{
1000
W
1070
     2
1002
}
1002
{
1000
C
1070
     1
1002
}
1001
GENIUS_GENODEF_13
1002
{
1000
HIER
1070
     0
1002
}
1002
{
1000
MANEDIT
1070
     0
1002
}
1002
{
1000
NOSEL
1070
     0
1002
}
1002
{
1000
BEHIND
1070
     0
1002
}
1002
{
1000
REACTOR
1002
}
1001
GENIUS_GENOBJ-N-REC_13
1002
{
1000
OWNER
1000
GEN
1002
}
  0
LINE
  5
17D5
330
17CB
100
AcDbEntity
  8
AM_BOR
 62
     5
100
AcDbLine
 10
-60.0
 20
40.00000000000001
 30
0.0
 11
-60.0
 21
0.0
 31
0.0
1001
GENIUS_GENREC_14
1002
{
1000
PYDIR
1011
-110.0
1021
40.0
1031
0.0
1002
}
1002
{
1000
PXDIR
1011
0.0
1021
0.0
1031
0.0
1002
}
1002
{
1000
PORI
1011
-110.0
1021
0.0
1031
0.0
1002
}
1002
{
1000
PINS
1011
-110.0
1021
0.0
1031
0.0
1002
}
1002
{
1000
HVAL
1000
40
1002
}
1002
{
1000
H
1070
     2
1002
}
1002
{
1000
WVAL
1000
110
1002
}
1002
{
1000
W
1070
     2
1002
}
1002
{
1000
C
1070
     1
1002
}
1001
GENIUS_GENODEF_13
1002
{
1000
HIER
1070
     0
1002
}
1002
{
1000
MANEDIT
1070
     0
1002
}
1002
{
1000
NOSEL
1070
     0
1002
}
1002
{
1000
BEHIND
1070
     0
1002
}
1002
{
1000
REACTOR
1002
}
1001
GENIUS_GENOBJ-N-REC_13
1002
{
1000
OWNER
1000
GEN
1002
}
  0
LINE
  5
17D6
330
17CB
100
AcDbEntity
  8
AM_BOR
 62
     5
100
AcDbLine
 10
-20.0
 20
33.0
 30
0.0
 11
-20.0
 21
40.0
 31
0.0
1001
GENIUS_GENREC_14
1002
{
1000
PYDIR
1011
-110.0
1021
40.0
1031
0.0
1002
}
1002
{
1000
PXDIR
1011
0.0
1021
0.0
1031
0.0
1002
}
1002
{
1000
PORI
1011
-110.0
1021
0.0
1031
0.0
1002
}
1002
{
1000
PINS
1011
-110.0
1021
0.0
1031
0.0
1002
}
1002
{
1000
HVAL
1000
40
1002
}
1002
{
1000
H
1070
     2
1002
}
1002
{
1000
WVAL
1000
110
1002
}
1002
{
1000
W
1070
     2
1002
}
1002
{
1000
C
1070
     1
1002
}
1001
GENIUS_GENODEF_13
1002
{
1000
HIER
1070
     0
1002
}
1002
{
1000
MANEDIT
1070
     0
1002
}
1002
{
1000
NOSEL
1070
     0
1002
}
1002
{
1000
BEHIND
1070
     0
1002
}
1002
{
1000
REACTOR
1002
}
1001
GENIUS_GENOBJ-N-REC_13
1002
{
1000
OWNER
1000
GEN
1002
}
  0
LINE
  5
17D7
330
17CB
100
AcDbEntity
  8
AM_BOR
 62
     5
100
AcDbLine
 10
-40.0
 20
33.0
 30
0.0
 11
-40.0
 21
40.0
 31
0.0
1001
GENIUS_GENREC_14
1002
{
1000
PYDIR
1011
-110.0
1021
40.0
1031
0.0
1002
}
1002
{
1000
PXDIR
1011
0.0
1021
0.0
1031
0.0
1002
}
1002
{
1000
PORI
1011
-110.0
1021
0.0
1031
0.0
1002
}
1002
{
1000
PINS
1011
-110.0
1021
0.0
1031
0.0
1002
}
1002
{
1000
HVAL
1000
40
1002
}
1002
{
1000
H
1070
     2
1002
}
1002
{
1000
WVAL
1000
110
1002
}
1002
{
1000
W
1070
     2
1002
}
1002
{
1000
C
1070
     1
1002
}
1001
GENIUS_GENODEF_13
1002
{
1000
HIER
1070
     0
1002
}
1002
{
1000
MANEDIT
1070
     0
1002
}
1002
{
1000
NOSEL
1070
     0
1002
}
1002
{
1000
BEHIND
1070
     0
1002
}
1002
{
1000
REACTOR
1002
}
1001
GENIUS_GENOBJ-N-REC_13
1002
{
1000
OWNER
1000
GEN
1002
}
  0
LINE
  5
17D8
330
17CB
100
AcDbEntity
  8
AM_BOR
 62
     5
100
AcDbLine
 10
-80.0
 20
33.0
 30
0.0
 11
-80.0
 21
40.0
 31
0.0
1001
GENIUS_GENREC_14
1002
{
1000
PYDIR
1011
-110.0
1021
40.0
1031
0.0
1002
}
1002
{
1000
PXDIR
1011
0.0
1021
0.0
1031
0.0
1002
}
1002
{
1000
PORI
1011
-110.0
1021
0.0
1031
0.0
1002
}
1002
{
1000
PINS
1011
-110.0
1021
0.0
1031
0.0
1002
}
1002
{
1000
HVAL
1000
40
1002
}
1002
{
1000
H
1070
     2
1002
}
1002
{
1000
WVAL
1000
110
1002
}
1002
{
1000
W
1070
     2
1002
}
1002
{
1000
C
1070
     1
1002
}
1001
GENIUS_GENODEF_13
1002
{
1000
HIER
1070
     0
1002
}
1002
{
1000
MANEDIT
1070
     0
1002
}
1002
{
1000
NOSEL
1070
     0
1002
}
1002
{
1000
BEHIND
1070
     0
1002
}
1002
{
1000
REACTOR
1002
}
1001
GENIUS_GENOBJ-N-REC_13
1002
{
1000
OWNER
1000
GEN
1002
}
  0
TEXT
  5
17D9
330
17CB
100
AcDbEntity
  8
AM_BOR
 62
     2
100
AcDbText
 10
-57.4
 20
35.0
 30
0.0
 40
3.0
  1
単位 ｍｍ
 72
     4
 11
-50.0
 21
36.5
 31
0.0
100
AcDbText
  0
TEXT
  5
17DA
330
17CB
100
AcDbEntity
  8
AM_BOR
 62
     2
100
AcDbText
 10
-39.0
 20
35.0
 30
0.0
 40
3.0
  1
尺度
 41
0.9
 11
-39.0
 21
36.5
 31
0.0
100
AcDbText
 73
     2
  0
TEXT
  5
17DB
330
17CB
100
AcDbEntity
  8
AM_BOR
 62
     2
100
AcDbText
 10
-19.0
 20
35.0
 30
0.0
 40
3.0
  1
日付
 41
0.9
 11
-19.0
 21
36.5
 31
0.0
100
AcDbText
 73
     2
  0
TEXT
  5
17DC
330
17CB
100
AcDbEntity
  8
AM_BOR
 62
     2
100
AcDbText
 10
-76.79999999999999
 20
34.99999999999999
 30
0.0
 40
3.0
  1
第３角法
 72
     4
 11
-70.0
 21
36.49999999999999
 31
0.0
100
AcDbText
  0
TEXT
  5
17DD
330
17CB
100
AcDbEntity
  8
AM_BOR
 62
     2
100
AcDbText
 10
-59.0
 20
29.5
 30
0.0
 40
3.0
  1
材 質
 11
-59.0
 21
31.0
 31
0.0
100
AcDbText
 73
     2
  0
TEXT
  5
17DE
330
17CB
100
AcDbEntity
  8
AM_BOR
 62
     2
100
AcDbText
 10
-59.0
 20
22.5
 30
0.0
 40
3.0
  1
備 考
 11
-59.0
 21
24.0
 31
0.0
100
AcDbText
 73
     2
  0
TEXT
  5
17DF
330
17CB
100
AcDbEntity
  8
AM_BOR
 62
     2
100
AcDbText
 10
-59.0
 20
15.5
 30
0.0
 40
3.0
  1
品 名
 11
-59.0
 21
17.0
 31
0.0
100
AcDbText
 73
     2
  0
TEXT
  5
17E0
330
17CB
100
AcDbEntity
  8
AM_BOR
 62
     2
100
AcDbText
 10
-59.0
 20
6.499999999999992
 30
0.0
 40
3.0
  1
図 番
 11
-59.0
 21
7.999999999999992
 31
0.0
100
AcDbText
 73
     2
  0
TEXT
  5
17E1
330
17CB
100
AcDbEntity
  8
AM_BOR
 62
     2
100
AcDbText
 10
-109.0
 20
29.5
 30
0.0
 40
3.0
  1
承認
 11
-109.0
 21
31.0
 31
0.0
100
AcDbText
 73
     2
  0
TEXT
  5
17E2
330
17CB
100
AcDbEntity
  8
AM_BOR
 62
     2
100
AcDbText
 10
-109.0
 20
22.5
 30
0.0
 40
3.0
  1
設計
 11
-109.0
 21
24.0
 31
0.0
100
AcDbText
 73
     2
  0
TEXT
  5
17E3
330
17CB
100
AcDbEntity
  8
AM_BOR
 62
     2
100
AcDbText
 10
-84.0
 20
22.5
 30
0.0
 40
3.0
  1
製図
 11
-84.0
 21
24.0
 31
0.0
100
AcDbText
 73
     2
  0
TEXT
  5
17E4
330
17CB
100
AcDbEntity
  8
AM_BOR
 62
     2
100
AcDbText
 10
-84.0
 20
29.5
 30
0.0
 40
3.0
  1
検図
 11
-84.0
 21
31.0
 31
0.0
100
AcDbText
 73
     2
  0
ATTDEF
  5
17E5
330
17CB
100
AcDbEntity
  8
AM_BOR
100
AcDbText
 10
-50.25926794017573
 20
12.75
 30
0.0
 40
3.5
  1

 11
-50.25926794017573
 21
14.5
 31
0.0
100
AcDbAttributeDefinition
  3
品名
  2
HINMEI{14}
 70
     0
 74
     2
  0
ATTDEF
  5
17E6
330
17CB
100
AcDbEntity
  8
AM_BOR
100
AcDbText
 10
-50.10873010396898
 20
3.249999999999992
 30
0.0
 40
3.5
  1

 11
-50.10873010396898
 21
4.999999999999992
 31
0.0
100
AcDbAttributeDefinition
  3
図番
  2
ZUBAN{14}
 70
     0
 74
     2
  0
ATTDEF
  5
17E7
330
17CB
100
AcDbEntity
  8
AM_BOR
 62
     2
100
AcDbText
 10
-11.91705654530994
 20
35.0
 30
0.0
 40
3.0
  1

 41
0.8
 11
-11.91705654530994
 21
36.5
 31
0.0
100
AcDbAttributeDefinition
  3
日付
  2
GEN-TITLE-DAT{3.5}
 70
     0
 74
     2
  0
ATTDEF
  5
17E8
330
17CB
100
AcDbEntity
  8
AM_BOR
 62
     2
100
AcDbText
 10
-71.63012018472975
 20
20.00000000000001
 30
0.0
 40
3.0
  1
水 田
 72
     4
 11
-67.63012018472974
 21
21.50000000000002
 31
0.0
100
AcDbAttributeDefinition
  3
製図
  2
SEIZU
 70
     0
  0
ATTDEF
  5
17E9
330
17CB
100
AcDbEntity
  8
AM_BOR
 62
     2
100
AcDbText
 10
-31.91705654530995
 20
35.0
 30
0.0
 40
3.0
  1

 11
-31.91705654530995
 21
36.5
 31
0.0
100
AcDbAttributeDefinition
  3
尺度
  2
GEN-TITLE-SCA
 70
     0
 74
     2
  0
LINE
  5
17EA
330
17CB
100
AcDbEntity
  8
0
100
AcDbLine
 10
-106.9502221859465
 20
14.71456568209314
 30
0.0
 11
-107.7139711131768
 21
11.16237652835879
 31
0.0
  0
LINE
  5
17EB
330
17CB
100
AcDbEntity
  8
0
100
AcDbLine
 10
-107.7139711131768
 20
11.16237652835879
 30
0.0
 11
-107.6697551010107
 21
11.22470827233807
 31
0.0
  0
ELLIPSE
  5
17EC
330
17CB
100
AcDbEntity
  8
0
100
AcDbEllipse
 10
-106.5198686826232
 20
9.133166589319488
 30
0.0
 11
0.0200858413762701
 21
2.795177724472429
 31
0.0
210
0.0
220
0.0
230
1.0
 40
0.6250197778053533
 41
-1.051714224928873
 42
0.7298517778971401
1001
GENIUS_GENODEF_13
1002
{
1000
HIER
1070
     0
1002
}
1002
{
1000
MANEDIT
1070
     0
1002
}
1002
{
1000
NOSEL
1070
     0
1002
}
1002
{
1000
BEHIND
1070
     0
1002
}
1002
{
1000
REACTOR
1002
}
1001
GENIUS_GENOBJ-N-FIL_13
1002
{
1000
OWNER
1000
GEN
1002
}
  0
ELLIPSE
  5
17ED
330
17CB
100
AcDbEntity
  8
0
100
AcDbEllipse
 10
-105.2984958385996
 20
13.8219417489321
 30
0.0
 11
0.0200858413762916
 21
2.795177724472415
 31
0.0
210
0.0
220
0.0
230
1.0
 40
0.6250197778053527
 41
-1.051714224928867
 42
1.250253596044828
1001
GENIUS_GENODEF_13
1002
{
1000
HIER
1070
     0
1002
}
1002
{
1000
MANEDIT
1070
     0
1002
}
1002
{
1000
NOSEL
1070
     0
1002
}
1002
{
1000
BEHIND
1070
     0
1002
}
1002
{
1000
REACTOR
1002
}
1001
GENIUS_GENOBJ-N-FIL_13
1002
{
1000
OWNER
1000
GEN
1002
}
  0
LINE
  5
17EE
330
17CB
100
AcDbEntity
  8
0
100
AcDbLine
 10
-98.48721298302093
 20
8.077457208786752
 30
0.0
 11
-99.45177360188811
 21
4.065819878065248
 31
0.0
  0
ELLIPSE
  5
17EF
330
17CB
100
AcDbEntity
  8
0
100
AcDbEllipse
 10
-101.0818809708247
 20
5.053412867376919
 30
0.0
 11
0.0200858413762853
 21
2.795177724472413
 31
0.0
210
0.0
220
0.0
230
1.0
 40
0.6250197778053547
 41
2.089878428660925
 42
4.355766148231805
1001
GENIUS_GENODEF_13
1002
{
1000
HIER
1070
     0
1002
}
1002
{
1000
MANEDIT
1070
     0
1002
}
1002
{
1000
NOSEL
1070
     0
1002
}
1002
{
1000
BEHIND
1070
     0
1002
}
1002
{
1000
REACTOR
1002
}
1001
GENIUS_GENOBJ-N-FIL_13
1002
{
1000
OWNER
1000
GEN
1002
}
  0
LINE
  5
17F0
330
17CB
100
AcDbEntity
  8
0
100
AcDbLine
 10
-98.48721298302093
 20
8.077457208786752
 30
0.0
 11
-98.66382720839389
 21
7.801834007856294
 31
0.0
  0
ELLIPSE
  5
17F1
330
17CB
100
AcDbEntity
  8
0
100
AcDbEllipse
 10
-99.87931293102301
 20
9.796066964505511
 30
0.0
 11
0.0200858413762724
 21
2.795177724472415
 31
0.0
210
0.0
220
0.0
230
0.9999999999999998
 40
0.6250197778053552
 41
2.08987842866092
 42
3.922474143254961
1001
GENIUS_GENODEF_13
1002
{
1000
HIER
1070
     0
1002
}
1002
{
1000
MANEDIT
1070
     0
1002
}
1002
{
1000
NOSEL
1070
     0
1002
}
1002
{
1000
BEHIND
1070
     0
1002
}
1002
{
1000
REACTOR
1002
}
1001
GENIUS_GENOBJ-N-FIL_13
1002
{
1000
OWNER
1000
GEN
1002
}
  0
HATCH
  5
17F2
330
17CB
100
AcDbEntity
  8
AM_8
100
AcDbHatch
 10
0.0
 20
0.0
 30
0.0
210
0.0
220
0.0
230
1.0
  2
SOLID
 70
     1
 71
     0
 91
        1
 92
        1
 93
        2
 72
     3
 10
-106.7638987916396
 20
4.957358478318376
 11
0.0000000000000547
 21
2.56276973145977
 40
0.8333333333333941
 50
-77.14069946214277
 51
264.4007371808275
 73
     1
 72
     3
 10
-106.7638987916396
 20
4.957358478318376
 11
-0.0000000000003928
 21
2.562769731461267
 40
0.8333333333328997
 50
264.4007371808174
 51
282.8593005378472
 73
     1
 97
        0
 75
     0
 76
     1
 98
        1
 10
65.20293740923941
 20
-32.16820874956388
1001
GENIUS_GENODEF_13
1002
{
1000
HIER
1070
     0
1002
}
1002
{
1000
MANEDIT
1070
     0
1002
}
1002
{
1000
NOSEL
1070
     0
1002
}
1002
{
1000
BEHIND
1070
     0
1002
}
1002
{
1000
REACTOR
1002
}
1001
GENIUS_GENOBJ-N-HTC_13
1002
{
1000
OWNER
1000
GEN
1002
}
1001
GENIUS_GENHATCH_13
1002
{
1000
DATA
1040
0.0
1042
0.0015799698758396
1000
SOLID
1070
     0
1011
70.0136537122014
1021
-14.7540192633455
1031
0.0
1002
}
1002
{
1000
UCS
1010
0.0
1020
0.0
1030
0.0
1010
1.0
1020
0.0
1030
0.0
1010
0.0
1020
1.0
1030
0.0
1002
}
  0
ELLIPSE
  5
17F3
330
17CB
100
AcDbEntity
  8
0
100
AcDbEllipse
 10
-106.7638987916396
 20
4.957358478318417
 30
0.0
 11
0.0000000000000006
 21
2.562769731459943
 31
0.0
210
0.0
220
0.0
230
1.0
 40
0.8333333333333353
 41
-1.570796326794896
 42
4.712388980384689
  0
HATCH
  5
17F4
330
17CB
100
AcDbEntity
  8
AM_8
100
AcDbHatch
 10
0.0
 20
0.0
 30
0.0
210
0.0
220
0.0
230
1.0
  2
SOLID
 70
     1
 71
     0
 91
        1
 92
        1
 93
       10
 72
     1
 10
-106.9502221859465
 20
14.71456568209311
 11
-107.7139711131768
 21
11.16237652835879
 72
     1
 10
-107.7139711131768
 20
11.16237652835879
 11
-107.6697551010108
 21
11.22470827233809
 72
     3
 10
-106.5198686826232
 20
9.133166589319488
 11
0.0200858413762859
 21
2.795177724472421
 40
0.6250197778053525
 50
-29.21280058452436
 51
47.56891328106517
 73
     0
 72
     1
 10
-104.9929922696577
 20
10.5089073790986
 11
-102.6087573837903
 21
3.677672077597827
 72
     3
 10
-101.0818809708247
 20
5.053412867376919
 11
0.0200858413762844
 21
2.79517772447242
 40
0.625019777805353
 50
132.4310867189347
 51
239.202331800838
 73
     1
 72
     1
 10
-99.45177360188809
 20
4.065819878065248
 11
-98.48721298302093
 21
8.077457208786761
 72
     1
 10
-98.48721298302095
 20
8.077457208786752
 11
-98.66382720839393
 21
7.801834007856288
 72
     3
 10
-99.87931293102301
 20
9.796066964505511
 11
0.0200858413762811
 21
2.795177724472416
 40
0.6250197778053536
 50
148.2259629226598
 51
227.5689132810653
 73
     0
 72
     1
 10
-101.4061893439886
 20
8.420326174726406
 11
-103.771619425634
 21
15.19768253871121
 72
     3
 10
-105.2984958385996
 20
13.8219417489321
 11
0.02008584137625
 21
2.795177724472417
 40
0.6250197778053583
 50
-47.56891328106589
 51
62.02409398278944
 73
     1
 97
        0
 75
     0
 76
     1
 98
        1
 10
65.20293740923941
 20
-32.16820874956388
1001
GENIUS_GENODEF_13
1002
{
1000
HIER
1070
     0
1002
}
1002
{
1000
MANEDIT
1070
     0
1002
}
1002
{
1000
NOSEL
1070
     0
1002
}
1002
{
1000
BEHIND
1070
     0
1002
}
1002
{
1000
REACTOR
1002
}
1001
GENIUS_GENOBJ-N-HTC_13
1002
{
1000
OWNER
1000
GEN
1002
}
1001
GENIUS_GENHATCH_13
1002
{
1000
DATA
1040
0.0
1042
0.0015799698758396
1000
SOLID
1070
     0
1011
74.07735655451816
1021
-11.90112763631223
1031
0.0
1002
}
1002
{
1000
UCS
1010
0.0
1020
0.0
1030
0.0
1010
1.0
1020
0.0
1030
0.0
1010
0.0
1020
1.0
1030
0.0
1002
}
  0
LINE
  5
17F5
330
17CB
100
AcDbEntity
  8
0
100
AcDbLine
 10
-104.9929922696577
 20
10.5089073790986
 30
0.0
 11
-102.6087573837903
 21
3.677672077597847
 31
0.0
  0
LINE
  5
17F6
330
17CB
100
AcDbEntity
  8
0
100
AcDbLine
 10
-101.4061893439886
 20
8.420326174726406
 30
0.0
 11
-103.771619425634
 21
15.1976825387112
 31
0.0
  0
TEXT
  5
17F7
330
17CB
100
AcDbEntity
  8
0
100
AcDbText
 10
-92.04358977334541
 20
2.736280326823534
 30
0.0
 40
1.397647058823528
  1
ASOH   CO.LTD
 41
2.222222222222219
  7
ｽﾀｲﾙ1
100
AcDbText
  0
TEXT
  5
17F8
330
17CB
100
AcDbEntity
  8
0
100
AcDbText
 10
-96.37601713265375
 20
7.065690057310197
 30
0.0
 40
9.355420606948992
  1
アソー株式会社
 41
0.4444444444444381
  7
ｽﾀｲﾙ1
100
AcDbText
  0
ATTDEF
  5
17F9
330
17CB
100
AcDbEntity
  8
AM_BOR
 62
     2
100
AcDbText
 10
-98.50320560717072
 20
20.29902073441097
 30
0.0
 40
3.0
  1
水 田
 72
     4
 11
-94.50320560717072
 21
21.79902073441097
 31
0.0
100
AcDbAttributeDefinition
  3
設計
  2
SEKKEI
 70
     0
  0
ATTDEF
  5
17FA
330
17CB
100
AcDbEntity
  8
AM_BOR
 62
     2
100
AcDbText
 10
-97.8418697037587
 20
27.05583171251668
 30
0.0
 40
3.0
  1
水 田
 72
     4
 11
-93.8418697037587
 21
28.55583171251668
 31
0.0
100
AcDbAttributeDefinition
  3
承認
  2
SYOUNIN
 70
     0
  0
ATTDEF
  5
17FB
330
17CB
100
AcDbEntity
  8
AM_BOR
 62
     2
100
AcDbText
 10
-72.8418697037587
 20
27.05583171251668
 30
0.0
 40
3.0
  1
水 田
 72
     4
 11
-68.8418697037587
 21
28.55583171251668
 31
0.0
100
AcDbAttributeDefinition
  3
検図
  2
KENZU
 70
     0
  0
ATTDEF
  5
17FC
330
17CB
100
AcDbEntity
  8
AM_BOR
 62
     2
100
AcDbText
 10
-28.88427375716205
 20
27.48523221998006
 30
0.0
 40
2.5
  1

 72
     4
 11
-28.88427375716205
 21
27.48523221998006
 31
0.0
100
AcDbAttributeDefinition
  3
材質
  2
ZAISITU
 70
     0
  0
ATTDEF
  5
17FD
330
17CB
100
AcDbEntity
  8
AM_BOR
 62
     2
100
AcDbText
 10
-28.88427375716205
 20
20.49352515660299
 30
0.0
 40
2.5
  1

 72
     4
 11
-28.88427375716205
 21
20.49352515660299
 31
0.0
100
AcDbAttributeDefinition
  3
備考
  2
BIKOU
 70
     0
  0
ENDBLK
  5
1800
330
17CB
100
AcDbEntity
  8
0
100
AcDbBlockEnd
  0
BLOCK
  5
3A23
330
3A08
100
AcDbEntity
  8
0
100
AcDbBlockBegin
  2
A$C4DFD3F9C
 70
     0
 10
0.0
 20
0.0
 30
0.0
  3
A$C4DFD3F9C
  1

  0
LINE
  5
3A09
330
3A08
100
AcDbEntity
  8
AM_0
100
AcDbLine
 10
-55.0
 20
23.49999999999997
 30
0.0
 11
0.0
 21
23.49999999999997
 31
0.0
1001
GENIUS_GENREC_14
1002
{
1000
PYDIR
1011
-551.3759441294919
1021
-153.6455003897368
1031
0.0
1002
}
1002
{
1000
PXDIR
1011
-441.3759441294918
1021
-193.6455003897368
1031
0.0
1002
}
1002
{
1000
PORI
1011
-551.3759441294919
1021
-193.6455003897368
1031
0.0
1002
}
1002
{
1000
PINS
1011
-551.3759441294919
1021
-193.6455003897368
1031
0.0
1002
}
1002
{
1000
HVAL
1000
40
1002
}
1002
{
1000
H
1070
     2
1002
}
1002
{
1000
WVAL
1000
110
1002
}
1002
{
1000
W
1070
     2
1002
}
1002
{
1000
C
1070
     1
1002
}
1001
GENIUS_GENODEF_13
1002
{
1000
HIER
1070
     0
1002
}
1002
{
1000
MANEDIT
1070
     0
1002
}
1002
{
1000
NOSEL
1070
     0
1002
}
1002
{
1000
BEHIND
1070
     0
1002
}
1002
{
1000
REACTOR
1002
}
1001
GENIUS_GENOBJ-N-REC_13
1002
{
1000
OWNER
1000
GEN
1002
}
  0
TEXT
  5
3A0A
330
3A08
100
AcDbEntity
  8
AM_0
100
AcDbText
 10
-51.46954584744202
 20
20.72689692617266
 30
0.0
 40
1.5
  1
製品重量
100
AcDbText
  0
LINE
  5
3A0B
330
3A08
100
AcDbEntity
  8
AM_0
100
AcDbLine
 10
-40.0
 20
20.0
 30
0.0
 11
-40.0
 21
23.49999999999997
 31
0.0
  0
LINE
  5
3A0C
330
3A08
100
AcDbEntity
  8
AM_0
100
AcDbLine
 10
-55.0
 20
20.0
 30
0.0
 11
-55.0
 21
23.49999999999997
 31
0.0
  0
MTEXT
  5
3A0D
330
3A08
100
AcDbEntity
  8
AM_0
100
AcDbMText
 10
-32.71753908933795
 20
22.25172703937864
 30
0.0
 40
1.5
 41
9.157608339287776
 71
     1
 72
     5
  1
約 g
 73
     1
 44
1.0
1001
ACAD
1000
ACAD_MTEXT_COLUMN_INFO_BEGIN
1070
    75
1070
     2
1070
    79
1070
     0
1070
    76
1070
     1
1070
    78
1070
     0
1070
    48
1040
9.157608339287776
1070
    49
1040
7.5
1070
    50
1070
     1
1040
0.0
1000
ACAD_MTEXT_COLUMN_INFO_END
1000
MTEXTBEGIN
1070
    73
1070
     1
1070
    44
1040
1.0
1070
    74
1070
     0
1000
MTEXTEND
  0
LINE
  5
3A0E
330
3A08
100
AcDbEntity
  8
AM_0
100
AcDbLine
 10
-55.0
 20
37.49999999999997
 30
0.0
 11
0.0
 21
37.49999999999997
 31
0.0
1001
GENIUS_GENREC_14
1002
{
1000
PYDIR
1011
-551.3759441294919
1021
214.6455003897368
1031
0.0
1002
}
1002
{
1000
PXDIR
1011
-441.3759441294918
1021
254.6455003897368
1031
0.0
1002
}
1002
{
1000
PORI
1011
-551.3759441294919
1021
254.6455003897368
1031
0.0
1002
}
1002
{
1000
PINS
1011
-551.3759441294919
1021
254.6455003897368
1031
0.0
1002
}
1002
{
1000
HVAL
1000
40
1002
}
1002
{
1000
H
1070
     2
1002
}
1002
{
1000
WVAL
1000
110
1002
}
1002
{
1000
W
1070
     2
1002
}
1002
{
1000
C
1070
     1
1002
}
1001
GENIUS_GENODEF_13
1002
{
1000
HIER
1070
     0
1002
}
1002
{
1000
MANEDIT
1070
     0
1002
}
1002
{
1000
NOSEL
1070
     0
1002
}
1002
{
1000
BEHIND
1070
     0
1002
}
1002
{
1000
REACTOR
1002
}
1001
GENIUS_GENOBJ-N-REC_13
1002
{
1000
OWNER
1000
GEN
1002
}
  0
LINE
  5
3A0F
330
3A08
100
AcDbEntity
  8
AM_0
100
AcDbLine
 10
-55.0
 20
30.49999999999997
 30
0.0
 11
0.0
 21
30.49999999999997
 31
0.0
1001
GENIUS_GENREC_14
1002
{
1000
PYDIR
1011
-551.3759441294919
1021
214.6455003897368
1031
0.0
1002
}
1002
{
1000
PXDIR
1011
-441.3759441294918
1021
254.6455003897368
1031
0.0
1002
}
1002
{
1000
PORI
1011
-551.3759441294919
1021
254.6455003897368
1031
0.0
1002
}
1002
{
1000
PINS
1011
-551.3759441294919
1021
254.6455003897368
1031
0.0
1002
}
1002
{
1000
HVAL
1000
40
1002
}
1002
{
1000
H
1070
     2
1002
}
1002
{
1000
WVAL
1000
110
1002
}
1002
{
1000
W
1070
     2
1002
}
1002
{
1000
C
1070
     1
1002
}
1001
GENIUS_GENODEF_13
1002
{
1000
HIER
1070
     0
1002
}
1002
{
1000
MANEDIT
1070
     0
1002
}
1002
{
1000
NOSEL
1070
     0
1002
}
1002
{
1000
BEHIND
1070
     0
1002
}
1002
{
1000
REACTOR
1002
}
1001
GENIUS_GENOBJ-N-REC_13
1002
{
1000
OWNER
1000
GEN
1002
}
  0
LINE
  5
3A10
330
3A08
100
AcDbEntity
  8
AM_0
100
AcDbLine
 10
-55.0
 20
33.99999999999997
 30
0.0
 11
0.0
 21
33.99999999999997
 31
0.0
1001
GENIUS_GENREC_14
1002
{
1000
PYDIR
1011
-551.3759441294919
1021
214.6455003897368
1031
0.0
1002
}
1002
{
1000
PXDIR
1011
-441.3759441294918
1021
254.6455003897368
1031
0.0
1002
}
1002
{
1000
PORI
1011
-551.3759441294919
1021
254.6455003897368
1031
0.0
1002
}
1002
{
1000
PINS
1011
-551.3759441294919
1021
254.6455003897368
1031
0.0
1002
}
1002
{
1000
HVAL
1000
40
1002
}
1002
{
1000
H
1070
     2
1002
}
1002
{
1000
WVAL
1000
110
1002
}
1002
{
1000
W
1070
     2
1002
}
1002
{
1000
C
1070
     1
1002
}
1001
GENIUS_GENODEF_13
1002
{
1000
HIER
1070
     0
1002
}
1002
{
1000
MANEDIT
1070
     0
1002
}
1002
{
1000
NOSEL
1070
     0
1002
}
1002
{
1000
BEHIND
1070
     0
1002
}
1002
{
1000
REACTOR
1002
}
1001
GENIUS_GENOBJ-N-REC_13
1002
{
1000
OWNER
1000
GEN
1002
}
  0
LINE
  5
3A11
330
3A08
100
AcDbEntity
  8
AM_0
100
AcDbLine
 10
-55.0
 20
23.49999999999997
 30
0.0
 11
0.0
 21
23.49999999999997
 31
0.0
1001
GENIUS_GENREC_14
1002
{
1000
PYDIR
1011
-551.3759441294919
1021
-153.6455003897368
1031
0.0
1002
}
1002
{
1000
PXDIR
1011
-441.3759441294918
1021
-193.6455003897368
1031
0.0
1002
}
1002
{
1000
PORI
1011
-551.3759441294919
1021
-193.6455003897368
1031
0.0
1002
}
1002
{
1000
PINS
1011
-551.3759441294919
1021
-193.6455003897368
1031
0.0
1002
}
1002
{
1000
HVAL
1000
40
1002
}
1002
{
1000
H
1070
     2
1002
}
1002
{
1000
WVAL
1000
110
1002
}
1002
{
1000
W
1070
     2
1002
}
1002
{
1000
C
1070
     1
1002
}
1001
GENIUS_GENODEF_13
1002
{
1000
HIER
1070
     0
1002
}
1002
{
1000
MANEDIT
1070
     0
1002
}
1002
{
1000
NOSEL
1070
     0
1002
}
1002
{
1000
BEHIND
1070
     0
1002
}
1002
{
1000
REACTOR
1002
}
1001
GENIUS_GENOBJ-N-REC_13
1002
{
1000
OWNER
1000
GEN
1002
}
  0
LINE
  5
3A12
330
3A08
100
AcDbEntity
  8
AM_0
100
AcDbLine
 10
-55.0
 20
26.99999999999997
 30
0.0
 11
0.0
 21
26.99999999999997
 31
0.0
1001
GENIUS_GENREC_14
1002
{
1000
PYDIR
1011
-551.3759441294919
1021
-153.6455003897368
1031
0.0
1002
}
1002
{
1000
PXDIR
1011
-441.3759441294918
1021
-193.6455003897368
1031
0.0
1002
}
1002
{
1000
PORI
1011
-551.3759441294919
1021
-193.6455003897368
1031
0.0
1002
}
1002
{
1000
PINS
1011
-551.3759441294919
1021
-193.6455003897368
1031
0.0
1002
}
1002
{
1000
HVAL
1000
40
1002
}
1002
{
1000
H
1070
     2
1002
}
1002
{
1000
WVAL
1000
110
1002
}
1002
{
1000
W
1070
     2
1002
}
1002
{
1000
C
1070
     1
1002
}
1001
GENIUS_GENODEF_13
1002
{
1000
HIER
1070
     0
1002
}
1002
{
1000
MANEDIT
1070
     0
1002
}
1002
{
1000
NOSEL
1070
     0
1002
}
1002
{
1000
BEHIND
1070
     0
1002
}
1002
{
1000
REACTOR
1002
}
1001
GENIUS_GENOBJ-N-REC_13
1002
{
1000
OWNER
1000
GEN
1002
}
  0
LINE
  5
3A13
330
3A08
100
AcDbEntity
  8
AM_0
100
AcDbLine
 10
-55.0
 20
30.49999999999997
 30
0.0
 11
0.0
 21
30.49999999999997
 31
0.0
1001
GENIUS_GENREC_14
1002
{
1000
PYDIR
1011
-551.3759441294919
1021
-153.6455003897368
1031
0.0
1002
}
1002
{
1000
PXDIR
1011
-441.3759441294918
1021
-193.6455003897368
1031
0.0
1002
}
1002
{
1000
PORI
1011
-551.3759441294919
1021
-193.6455003897368
1031
0.0
1002
}
1002
{
1000
PINS
1011
-551.3759441294919
1021
-193.6455003897368
1031
0.0
1002
}
1002
{
1000
HVAL
1000
40
1002
}
1002
{
1000
H
1070
     2
1002
}
1002
{
1000
WVAL
1000
110
1002
}
1002
{
1000
W
1070
     2
1002
}
1002
{
1000
C
1070
     1
1002
}
1001
GENIUS_GENODEF_13
1002
{
1000
HIER
1070
     0
1002
}
1002
{
1000
MANEDIT
1070
     0
1002
}
1002
{
1000
NOSEL
1070
     0
1002
}
1002
{
1000
BEHIND
1070
     0
1002
}
1002
{
1000
REACTOR
1002
}
1001
GENIUS_GENOBJ-N-REC_13
1002
{
1000
OWNER
1000
GEN
1002
}
  0
TEXT
  5
3A14
330
3A08
100
AcDbEntity
  8
AM_0
100
AcDbText
 10
-51.46954584744202
 20
24.22689692617266
 30
0.0
 40
1.5
  1
気密試験
100
AcDbText
  0
TEXT
  5
3A15
330
3A08
100
AcDbEntity
  8
AM_0
100
AcDbText
 10
-51.46954584744202
 20
27.72689692617266
 30
0.0
 40
1.5
  1
耐圧試験
100
AcDbText
  0
TEXT
  5
3A16
330
3A08
100
AcDbEntity
  8
AM_0
100
AcDbText
 10
-51.46954584744202
 20
31.22689692617266
 30
0.0
 40
1.5
  1
使用温度
100
AcDbText
  0
TEXT
  5
3A17
330
3A08
100
AcDbEntity
  8
AM_0
100
AcDbText
 10
-51.46954584744202
 20
34.72689692617266
 30
0.0
 40
1.5
  1
使用圧力
100
AcDbText
  0
LINE
  5
3A18
330
3A08
100
AcDbEntity
  8
AM_0
100
AcDbLine
 10
-39.99999999999995
 20
37.49999999999997
 30
0.0
 11
-40.00000000000006
 21
23.49999999999997
 31
0.0
  0
TEXT
  5
3A19
330
3A08
100
AcDbEntity
  8
AM_0
100
AcDbText
 10
-17.55041072966759
 20
24.93976100664199
 30
0.0
 40
0.5
  1
2
100
AcDbText
  0
TEXT
  5
3A1A
330
3A08
100
AcDbEntity
  8
AM_0
100
AcDbText
 10
-32.72624678470743
 20
27.72689692617266
 30
0.0
 40
1.5
  1
1.96MPa (20kg/cm )
100
AcDbText
  0
TEXT
  5
3A1B
330
3A08
100
AcDbEntity
  8
AM_0
100
AcDbText
 10
-32.72624678470743
 20
24.22689692617266
 30
0.0
 40
1.5
  1
0.59MPa (6kg/cm )
100
AcDbText
  0
TEXT
  5
3A1C
330
3A08
100
AcDbEntity
  8
AM_0
100
AcDbText
 10
-32.72624678470743
 20
34.72689692617266
 30
0.0
 40
1.5
  1
MAX 0.98MPa (10kg/cm )
100
AcDbText
  0
TEXT
  5
3A1D
330
3A08
100
AcDbEntity
  8
AM_0
100
AcDbText
 10
-32.72624678470743
 20
31.22689692617266
 30
0.0
 40
1.5
  1
+80℃～-10℃（凍結無き事）
100
AcDbText
  0
TEXT
  5
3A1E
330
3A08
100
AcDbEntity
  8
AM_0
100
AcDbText
 10
-16.74198284401041
 20
28.44745702017477
 30
0.0
 40
0.5
  1
2
100
AcDbText
  0
TEXT
  5
3A1F
330
3A08
100
AcDbEntity
  8
AM_0
100
AcDbText
 10
-11.76943732449638
 20
35.44614366535765
 30
0.0
 40
0.5
  1
2
100
AcDbText
  0
LINE
  5
3A20
330
3A08
100
AcDbEntity
  8
AM_0
100
AcDbLine
 10
-55.0
 20
37.49999999999997
 30
0.0
 11
-55.0
 21
23.49999999999997
 31
0.0
  0
ENDBLK
  5
3A24
330
3A08
100
AcDbEntity
  8
0
100
AcDbBlockEnd
  0
BLOCK
  5
4414
330
4413
100
AcDbEntity
  8
0
100
AcDbBlockBegin
  2
_None
 70
     0
 10
0.0
 20
0.0
 30
0.0
  3
_None
  1

  0
ENDBLK
  5
4415
330
4413
100
AcDbEntity
  8
0
100
AcDbBlockEnd
  0
BLOCK
  5
5332
330
5313
100
AcDbEntity
  8
0
100
AcDbBlockBegin
  2
A$C7420083D
 70
     0
 10
0.0
 20
0.0
 30
0.0
  3
A$C7420083D
  1

  0
LINE
  5
5314
330
5313
100
AcDbEntity
  8
0
100
AcDbLine
 10
0.0000000000002274
 20
7.500000000000028
 30
0.0
 11
6.000000000000227
 21
7.500000000000028
 31
0.0
  0
LINE
  5
5315
330
5313
100
AcDbEntity
  8
0
100
AcDbLine
 10
6.000000000000227
 20
7.500000000000028
 30
0.0
 11
6.000000000000227
 21
7.000000000000028
 31
0.0
  0
LINE
  5
5316
330
5313
100
AcDbEntity
  8
0
100
AcDbLine
 10
7.000000000000227
 20
6.000000000000028
 30
0.0
 11
7.500000000000227
 21
6.000000000000028
 31
0.0
  0
LINE
  5
5317
330
5313
100
AcDbEntity
  8
0
100
AcDbLine
 10
7.500000000000227
 20
6.000000000000028
 30
0.0
 11
7.500000000000227
 21
-4.499999999999971
 31
0.0
  0
LINE
  5
5318
330
5313
100
AcDbEntity
  8
0
100
AcDbLine
 10
-5.999999999999715
 20
7.500000000000028
 30
0.0
 11
0.0000000000002274
 21
7.500000000000028
 31
0.0
  0
LINE
  5
5319
330
5313
100
AcDbEntity
  8
0
100
AcDbLine
 10
7.500000000000227
 20
0.0000000000000284
 30
0.0
 11
7.500000000000227
 21
-5.999999999999971
 31
0.0
  0
LINE
  5
531A
330
5313
100
AcDbEntity
  8
0
100
AcDbLine
 10
7.500000000000227
 20
-5.999999999999971
 30
0.0
 11
-3.999999999999715
 21
-5.999999999999971
 31
0.0
  0
LINE
  5
531B
330
5313
100
AcDbEntity
  8
0
100
AcDbLine
 10
-5.999999999999715
 20
7.500000000000028
 30
0.0
 11
-5.999999999999715
 21
-3.999999999999971
 31
0.0
  0
ARC
  5
531C
330
5313
100
AcDbEntity
  8
0
100
AcDbCircle
 10
-3.999999999999715
 20
-3.999999999999971
 30
0.0
 40
2.0
100
AcDbArc
 50
180.0
 51
270.0
1001
GENIUS_GENODEF_13
1002
{
1000
HIER
1070
     0
1002
}
1002
{
1000
MANEDIT
1070
     0
1002
}
1002
{
1000
NOSEL
1070
     0
1002
}
1002
{
1000
BEHIND
1070
     0
1002
}
1002
{
1000
REACTOR
1002
}
1001
GENIUS_GENOBJ-N-FIL_13
1002
{
1000
OWNER
1000
GEN
1002
}
  0
LINE
  5
531D
330
5313
100
AcDbEntity
  8
0
100
AcDbLine
 10
5.604641927653403
 20
-3.365619605126966
 30
0.0
 11
4.512426164357634
 21
-0.3113930719474354
 31
0.0
  0
LINE
  5
531E
330
5313
100
AcDbEntity
  8
0
100
AcDbLine
 10
3.48757383564282
 20
-0.3113930719475491
 30
0.0
 11
2.395612598632624
 21
-3.364907858455268
 31
0.0
  0
ELLIPSE
  5
531F
330
5313
100
AcDbEntity
  8
0
100
AcDbEllipse
 10
4.000000000000227
 20
-6.715185109194493
 30
0.0
 11
-2.485294117647051
 21
0.0000000000000504
 31
0.0
210
0.0
220
0.0
230
1.0
 40
0.953303940344945
 41
3.962594650554286
 42
5.462183310215122
  0
ELLIPSE
  5
5320
330
5313
100
AcDbEntity
  8
0
100
AcDbEllipse
 10
4.000000000000227
 20
-0.5388620618677749
 30
0.0
 11
0.565257352941185
 21
0.0000000000000472
 31
0.0
210
0.0
220
0.0
230
1.0
 40
0.953303940344951
 41
0.2213144423477107
 42
2.920278211241923
  0
LINE
  5
5321
330
5313
100
AcDbEntity
  8
0
100
AcDbLine
 10
3.667445808997172
 20
-3.270930469264811
 30
0.0
 11
3.930754272959632
 21
-2.568094083973477
 31
0.0
  0
LINE
  5
5322
330
5313
100
AcDbEntity
  8
0
100
AcDbLine
 10
4.069245730547095
 20
-2.568094083973477
 30
0.0
 11
4.332554191507767
 21
-3.270930469510489
 31
0.0
  0
LINE
  5
5323
330
5313
100
AcDbEntity
  8
0
100
AcDbLine
 10
4.263308462668021
 20
-3.364602142393863
 30
0.0
 11
3.736691537744889
 21
-3.364602142393863
 31
0.0
  0
LINE
  5
5324
330
5313
100
AcDbEntity
  8
0
100
AcDbLine
 10
2.190425102545873
 20
-4.961355595799631
 30
0.0
 11
1.500000000000284
 21
-3.644985654260068
 31
0.0
  0
LINE
  5
5325
330
5313
100
AcDbEntity
  8
0
100
AcDbLine
 10
5.809574897454695
 20
-4.961355595799631
 30
0.0
 11
6.500000000000284
 21
-3.644985654260068
 31
0.0
  0
LINE
  5
5326
330
5313
100
AcDbEntity
  8
0
100
AcDbLine
 10
1.500000000000284
 20
-3.644985654260068
 30
0.0
 11
1.54472425264521
 21
-3.669601448490283
 31
0.0
  0
LINE
  5
5327
330
5313
100
AcDbEntity
  8
0
100
AcDbLine
 10
6.500000000000284
 20
-3.644985654260068
 30
0.0
 11
6.463886025621036
 21
-3.665626327389389
 31
0.0
  0
ELLIPSE
  5
5328
330
5313
100
AcDbEntity
  8
0
100
AcDbEllipse
 10
1.838841899703993
 20
-3.183962960333502
 30
0.0
 11
0.5882352941176451
 21
0.0000000000000118
 31
0.0
210
0.0
220
0.0
230
1.0
 40
0.9533039403449411
 41
4.188790204786369
 42
5.954632136628113
1001
GENIUS_GENODEF_13
1002
{
1000
HIER
1070
     0
1002
}
1002
{
1000
MANEDIT
1070
     0
1002
}
1002
{
1000
NOSEL
1070
     0
1002
}
1002
{
1000
BEHIND
1070
     0
1002
}
1002
{
1000
REACTOR
1002
}
1001
GENIUS_GENOBJ-N-FIL_13
1002
{
1000
OWNER
1000
GEN
1002
}
  0
ELLIPSE
  5
5329
330
5313
100
AcDbEntity
  8
0
100
AcDbEllipse
 10
6.16141262658192
 20
-3.1846747070052
 30
0.0
 11
-0.5882352941176458
 21
0.0000000000000019
 31
0.0
210
0.0
220
0.0
230
1.0
 40
0.9533039403449464
 41
0.3285531705514608
 42
2.110876526947248
1001
GENIUS_GENODEF_13
1002
{
1000
HIER
1070
     0
1002
}
1002
{
1000
MANEDIT
1070
     0
1002
}
1002
{
1000
NOSEL
1070
     0
1002
}
1002
{
1000
BEHIND
1070
     0
1002
}
1002
{
1000
REACTOR
1002
}
1001
GENIUS_GENOBJ-N-FIL_13
1002
{
1000
OWNER
1000
GEN
1002
}
  0
ELLIPSE
  5
532A
330
5313
100
AcDbEntity
  8
0
100
AcDbEllipse
 10
2.256191807766413
 20
-4.930007766184502
 30
0.0
 11
0.0735294117647067
 21
0.0000000000000146
 31
0.0
210
0.0
220
0.0
230
1.0
 40
0.9533039403448611
 41
3.605240262590422
 42
5.462183310214919
1001
GENIUS_GENODEF_13
1002
{
1000
HIER
1070
     0
1002
}
1002
{
1000
MANEDIT
1070
     0
1002
}
1002
{
1000
NOSEL
1070
     0
1002
}
1002
{
1000
BEHIND
1070
     0
1002
}
1002
{
1000
REACTOR
1002
}
1001
GENIUS_GENOBJ-N-FIL_13
1002
{
1000
OWNER
1000
GEN
1002
}
  0
ELLIPSE
  5
532B
330
5313
100
AcDbEntity
  8
0
100
AcDbEllipse
 10
5.743808192234098
 20
-4.930007766184502
 30
0.0
 11
0.0735294117647032
 21
0.0000000000000346
 31
0.0
210
0.0
220
0.0
230
1.0
 40
0.9533039403449665
 41
3.962594650553778
 42
5.819537698178287
1001
GENIUS_GENODEF_13
1002
{
1000
HIER
1070
     0
1002
}
1002
{
1000
MANEDIT
1070
     0
1002
}
1002
{
1000
NOSEL
1070
     0
1002
}
1002
{
1000
BEHIND
1070
     0
1002
}
1002
{
1000
REACTOR
1002
}
1001
GENIUS_GENOBJ-N-FIL_13
1002
{
1000
OWNER
1000
GEN
1002
}
  0
ELLIPSE
  5
532C
330
5313
100
AcDbEntity
  8
0
100
AcDbEllipse
 10
4.000000001753335
 20
-2.59166987901321
 30
0.0
 11
-0.0735294117647053
 21
0.0
 31
0.0
210
0.0
220
0.0
230
1.0
 40
0.9533039403448885
 41
3.484616594010533
 42
5.940161366758846
1001
GENIUS_GENODEF_13
1002
{
1000
HIER
1070
     0
1002
}
1002
{
1000
MANEDIT
1070
     0
1002
}
1002
{
1000
NOSEL
1070
     0
1002
}
1002
{
1000
BEHIND
1070
     0
1002
}
1002
{
1000
REACTOR
1002
}
1001
GENIUS_GENOBJ-N-FIL_13
1002
{
1000
OWNER
1000
GEN
1002
}
  0
ELLIPSE
  5
532D
330
5313
100
AcDbEntity
  8
0
100
AcDbEllipse
 10
3.736691537744832
 20
-3.294506264427326
 30
0.0
 11
-0.0735294117647077
 21
0.0000000000000054
 31
0.0
210
0.0
220
0.0
230
1.0
 40
0.9533039403448576
 41
-0.3430239422815355
 42
1.570796326795022
1001
GENIUS_GENODEF_13
1002
{
1000
HIER
1070
     0
1002
}
1002
{
1000
MANEDIT
1070
     0
1002
}
1002
{
1000
NOSEL
1070
     0
1002
}
1002
{
1000
BEHIND
1070
     0
1002
}
1002
{
1000
REACTOR
1002
}
1001
GENIUS_GENOBJ-N-FIL_13
1002
{
1000
OWNER
1000
GEN
1002
}
  0
ELLIPSE
  5
532E
330
5313
100
AcDbEntity
  8
0
100
AcDbEllipse
 10
4.263308462667964
 20
-3.294506264427326
 30
0.0
 11
0.0735294117647059
 21
0.0000000000000367
 31
0.0
210
0.0
220
0.0
230
1.0
 40
0.9533039403448807
 41
4.712388980384213
 42
6.62620924573893
1001
GENIUS_GENODEF_13
1002
{
1000
HIER
1070
     0
1002
}
1002
{
1000
MANEDIT
1070
     0
1002
}
1002
{
1000
NOSEL
1070
     0
1002
}
1002
{
1000
BEHIND
1070
     0
1002
}
1002
{
1000
REACTOR
1002
}
1001
GENIUS_GENOBJ-N-FIL_13
1002
{
1000
OWNER
1000
GEN
1002
}
  0
ARC
  5
532F
330
5313
100
AcDbEntity
  8
0
100
AcDbCircle
 10
7.000000000000227
 20
7.000000000000028
 30
0.0
 40
1.0
100
AcDbArc
 50
180.0
 51
270.0
  0
ENDBLK
  5
5333
330
5313
100
AcDbEntity
  8
0
100
AcDbBlockEnd
  0
ENDSEC
  0
SECTION
  2
ENTITIES
  0
LINE
  5
4881
330
1F
100
AcDbEntity
  8
0
100
AcDbLine
 10
281.4623051123362
 20
213.758029285092
 30
0.0
 11
263.3810036951305
 21
213.7580292850921
 31
0.0
  0
ARC
  5
4886
330
1F
100
AcDbEntity
  8
0
100
AcDbCircle
 10
284.8810036951304
 20
232.5080292850921
 30
0.0
 40
1.0
100
AcDbArc
 50
166.8500691589483
 51
167.6263748838145
1001
GENIUS_GENODEF_13
1002
{
1000
HIER
1070
     0
1002
}
1002
{
1000
MANEDIT
1070
     0
1002
}
1002
{
1000
NOSEL
1070
     0
1002
}
1002
{
1000
BEHIND
1070
     0
1002
}
1002
{
1000
REACTOR
1002
}
1001
GENIUS_GENOBJ-N-FIL_13
1002
{
1000
OWNER
1000
GEN
1002
}
  0
ARC
  5
4887
330
1F
100
AcDbEntity
  8
0
100
AcDbCircle
 10
284.8810036951304
 20
212.0080292850921
 30
0.0
 40
1.0
100
AcDbArc
 50
192.3736251161888
 51
193.1499308410682
1001
GENIUS_GENODEF_13
1002
{
1000
HIER
1070
     0
1002
}
1002
{
1000
MANEDIT
1070
     0
1002
}
1002
{
1000
NOSEL
1070
     0
1002
}
1002
{
1000
BEHIND
1070
     0
1002
}
1002
{
1000
REACTOR
1002
}
1001
GENIUS_GENOBJ-N-FIL_13
1002
{
1000
OWNER
1000
GEN
1002
}
  0
ARC
  5
4888
330
1F
100
AcDbEntity
  8
0
100
AcDbCircle
 10
281.4623051123362
 20
211.258029285092
 30
0.0
 40
2.5
100
AcDbArc
 50
12.37362511618883
 51
90.0
1001
GENIUS_GENODEF_13
1002
{
1000
HIER
1070
     0
1002
}
1002
{
1000
MANEDIT
1070
     0
1002
}
1002
{
1000
NOSEL
1070
     0
1002
}
1002
{
1000
BEHIND
1070
     0
1002
}
1002
{
1000
REACTOR
1002
}
1001
GENIUS_GENOBJ-N-FIL_13
1002
{
1000
OWNER
1000
GEN
1002
}
  0
ARC
  5
4889
330
1F
100
AcDbEntity
  8
0
100
AcDbCircle
 10
281.4623051123361
 20
233.258029285092
 30
0.0
 40
2.5
100
AcDbArc
 50
270.0
 51
347.6263748838112
1001
GENIUS_GENODEF_13
1002
{
1000
HIER
1070
     0
1002
}
1002
{
1000
MANEDIT
1070
     0
1002
}
1002
{
1000
NOSEL
1070
     0
1002
}
1002
{
1000
BEHIND
1070
     0
1002
}
1002
{
1000
REACTOR
1002
}
1001
GENIUS_GENOBJ-N-FIL_13
1002
{
1000
OWNER
1000
GEN
1002
}
  0
LINE
  5
488F
330
1F
100
AcDbEntity
  8
0
100
AcDbLine
 10
287.3073147786962
 20
211.780529285092
 30
0.0
 11
283.9072256146624
 21
211.780529285092
 31
0.0
  0
LINE
  5
4890
330
1F
100
AcDbEntity
  8
0
100
AcDbLine
 10
287.3073147786962
 20
212.942529285092
 30
0.0
 11
283.3095895381894
 21
212.942529285092
 31
0.0
  0
LINE
  5
4891
330
1F
100
AcDbEntity
  8
0
100
AcDbLine
 10
287.3073147786961
 20
232.735529285092
 30
0.0
 11
283.9072256146624
 21
232.7355292850918
 31
0.0
  0
LINE
  5
4892
330
1F
100
AcDbEntity
  8
0
100
AcDbLine
 10
287.3073147786961
 20
231.5735292850918
 30
0.0
 11
283.3095895381891
 21
231.5735292850918
 31
0.0
  0
LINE
  5
489A
330
1F
100
AcDbEntity
  8
0
100
AcDbLine
 10
283.8810036951305
 20
232.6256550560247
 30
0.0
 11
283.8810036951305
 21
231.5735292850918
 31
0.0
  0
LINE
  5
489B
330
1F
100
AcDbEntity
  8
0
100
AcDbLine
 10
283.8810036951305
 20
212.942529285092
 30
0.0
 11
283.8810036951305
 21
211.8904035141595
 31
0.0
  0
LINE
  5
48FF
330
1F
100
AcDbEntity
  8
0
100
AcDbLine
 10
262.3810036951304
 20
285.1514761164199
 30
0.0
 11
281.4623051123361
 21
285.1514761164199
 31
0.0
  0
ARC
  5
4900
330
1F
100
AcDbEntity
  8
0
100
AcDbCircle
 10
284.8810036951304
 20
286.9014761164199
 30
0.0
 40
1.0
100
AcDbArc
 50
166.8500691589483
 51
167.6263748838112
1001
GENIUS_GENODEF_13
1002
{
1000
HIER
1070
     0
1002
}
1002
{
1000
MANEDIT
1070
     0
1002
}
1002
{
1000
NOSEL
1070
     0
1002
}
1002
{
1000
BEHIND
1070
     0
1002
}
1002
{
1000
REACTOR
1002
}
1001
GENIUS_GENOBJ-N-FIL_13
1002
{
1000
OWNER
1000
GEN
1002
}
  0
ARC
  5
4901
330
1F
100
AcDbEntity
  8
0
100
AcDbCircle
 10
284.8810036951304
 20
266.4014761164199
 30
0.0
 40
1.0
100
AcDbArc
 50
192.3736251161887
 51
193.1499308410683
1001
GENIUS_GENODEF_13
1002
{
1000
HIER
1070
     0
1002
}
1002
{
1000
MANEDIT
1070
     0
1002
}
1002
{
1000
NOSEL
1070
     0
1002
}
1002
{
1000
BEHIND
1070
     0
1002
}
1002
{
1000
REACTOR
1002
}
1001
GENIUS_GENOBJ-N-FIL_13
1002
{
1000
OWNER
1000
GEN
1002
}
  0
ARC
  5
4902
330
1F
100
AcDbEntity
  8
0
100
AcDbCircle
 10
281.4623051123362
 20
265.6514761164199
 30
0.0
 40
2.5
100
AcDbArc
 50
12.37362511618872
 51
90.0
1001
GENIUS_GENODEF_13
1002
{
1000
HIER
1070
     0
1002
}
1002
{
1000
MANEDIT
1070
     0
1002
}
1002
{
1000
NOSEL
1070
     0
1002
}
1002
{
1000
BEHIND
1070
     0
1002
}
1002
{
1000
REACTOR
1002
}
1001
GENIUS_GENOBJ-N-FIL_13
1002
{
1000
OWNER
1000
GEN
1002
}
  0
ARC
  5
4903
330
1F
100
AcDbEntity
  8
0
100
AcDbCircle
 10
281.4623051123361
 20
287.6514761164199
 30
0.0
 40
2.5
100
AcDbArc
 50
270.0
 51
347.6263748838112
1001
GENIUS_GENODEF_13
1002
{
1000
HIER
1070
     0
1002
}
1002
{
1000
MANEDIT
1070
     0
1002
}
1002
{
1000
NOSEL
1070
     0
1002
}
1002
{
1000
BEHIND
1070
     0
1002
}
1002
{
1000
REACTOR
1002
}
1001
GENIUS_GENOBJ-N-FIL_13
1002
{
1000
OWNER
1000
GEN
1002
}
  0
LINE
  5
4904
330
1F
100
AcDbEntity
  8
0
100
AcDbLine
 10
287.3073147786962
 20
266.1739761164199
 30
0.0
 11
283.9072256146624
 21
266.1739761164199
 31
0.0
  0
LINE
  5
4905
330
1F
100
AcDbEntity
  8
0
100
AcDbLine
 10
287.3073147786962
 20
267.3359761164198
 30
0.0
 11
283.3095895381894
 21
267.3359761164199
 31
0.0
  0
LINE
  5
4906
330
1F
100
AcDbEntity
  8
0
100
AcDbLine
 10
287.3073147786962
 20
287.1289761164198
 30
0.0
 11
283.9072256146624
 21
287.1289761164198
 31
0.0
  0
LINE
  5
4907
330
1F
100
AcDbEntity
  8
0
100
AcDbLine
 10
287.3073147786962
 20
285.9669761164198
 30
0.0
 11
283.3095895381891
 21
285.9669761164198
 31
0.0
  0
LINE
  5
4908
330
1F
100
AcDbEntity
  8
0
100
AcDbLine
 10
283.8810036951305
 20
287.0191018873526
 30
0.0
 11
283.8810036951305
 21
276.6514761164199
 31
0.0
  0
LINE
  5
4909
330
1F
100
AcDbEntity
  8
0
100
AcDbLine
 10
283.8810036951305
 20
276.6514761164199
 30
0.0
 11
283.8810036951305
 21
266.2838503454874
 31
0.0
  0
LINE
  5
490A
330
1F
100
AcDbEntity
  8
0
100
AcDbLine
 10
262.3810036951304
 20
268.1514761164199
 30
0.0
 11
281.4623051123361
 21
268.1514761164199
 31
0.0
  0
LINE
  5
490B
330
1F
100
AcDbEntity
  8
0
100
AcDbLine
 10
261.8810036951304
 20
268.6514761164199
 30
0.0
 11
261.8810036951304
 21
271.8296507359228
 31
0.0
  0
LINE
  5
490D
330
1F
100
AcDbEntity
  8
0
100
AcDbLine
 10
277.3810036951307
 20
271.8296507359229
 30
0.0
 11
277.3810036951305
 21
268.1514761164199
 31
0.0
  0
LINE
  5
490E
330
1F
100
AcDbEntity
  8
0
100
AcDbLine
 10
261.8810036951304
 20
284.6514761164199
 30
0.0
 11
261.8810036951304
 21
281.4733014969169
 31
0.0
  0
LINE
  5
4910
330
1F
100
AcDbEntity
  8
0
100
AcDbLine
 10
277.3810036951307
 20
281.4733014969169
 30
0.0
 11
277.3810036951305
 21
285.1514761164199
 31
0.0
  0
LINE
  5
4911
330
1F
100
AcDbEntity
  8
0
100
AcDbLine
 10
275.8810036951305
 20
268.1514761164199
 30
0.0
 11
275.8810036951305
 21
271.829650735923
 31
0.0
  0
LINE
  5
4912
330
1F
100
AcDbEntity
  8
0
100
AcDbLine
 10
275.8810036951305
 20
285.1514761164199
 30
0.0
 11
275.8810036951305
 21
281.4733014969169
 31
0.0
  0
LINE
  5
4913
330
1F
100
AcDbEntity
  8
AM_7
100
AcDbLine
 10
268.8810036951305
 20
286.5484761164202
 30
0.0
 11
268.8810036951305
 21
266.7544761164196
 31
0.0
1001
GENIUS_GENODEF_13
1002
{
1000
HIER
1070
     0
1002
}
1002
{
1000
MANEDIT
1070
     0
1002
}
1002
{
1000
NOSEL
1070
     0
1002
}
1002
{
1000
BEHIND
1070
     0
1002
}
1002
{
1000
OTHER
1070
     0
1002
}
1002
{
1000
REACTOR
1002
}
1001
GENIUS_GENOBJ-N-CEN_13
1002
{
1000
OWNER
1000
GEN
1002
}
1001
GENIUS_GENCEN_19
1002
{
1040
1.397
1002
}
  0
LINE
  5
4914
330
1F
100
AcDbEntity
  8
0
100
AcDbLine
 10
283.3095895381892
 20
285.9669761164198
 30
0.0
 11
283.3095895381894
 21
267.3359761164199
 31
0.0
  0
LINE
  5
4915
330
1F
100
AcDbEntity
  8
0
100
AcDbLine
 10
287.3073147786962
 20
264.6514761164199
 30
0.0
 11
305.3073147786962
 21
264.6514761164199
 31
0.0
  0
LINE
  5
4916
330
1F
100
AcDbEntity
  8
0
100
AcDbLine
 10
305.3073147786962
 20
276.6514761164199
 30
0.0
 11
305.3073147786962
 21
288.6514761164199
 31
0.0
  0
LINE
  5
4917
330
1F
100
AcDbEntity
  8
0
100
AcDbLine
 10
305.3073147786962
 20
288.6514761164199
 30
0.0
 11
287.3073147786962
 21
288.6514761164199
 31
0.0
  0
LINE
  5
4918
330
1F
100
AcDbEntity
  8
0
100
AcDbLine
 10
287.3073147786962
 20
288.6514761164199
 30
0.0
 11
287.3073147786962
 21
276.6514761164199
 31
0.0
  0
LINE
  5
4919
330
1F
100
AcDbEntity
  8
0
100
AcDbLine
 10
287.3073147786962
 20
264.6514761164199
 30
0.0
 11
287.3073147786962
 21
276.6514761164199
 31
0.0
  0
LINE
  5
491A
330
1F
100
AcDbEntity
  8
0
100
AcDbLine
 10
305.3073147786962
 20
264.6514761164199
 30
0.0
 11
305.3073147786962
 21
276.6514761164199
 31
0.0
  0
ARC
  5
491B
330
1F
100
AcDbEntity
  8
0
100
AcDbCircle
 10
289.8982511642838
 20
270.6514761164199
 30
0.0
 40
15.40906361441239
100
AcDbArc
 50
337.0839973724288
 51
22.91600262757119
  0
ARC
  5
491C
330
1F
100
AcDbEntity
  8
0
100
AcDbCircle
 10
289.8982511642838
 20
282.6514761164199
 30
0.0
 40
15.40906361441239
100
AcDbArc
 50
337.0839973724288
 51
22.91600262757119
  0
ARC
  5
491D
330
1F
100
AcDbEntity
  8
0
100
AcDbCircle
 10
302.7163783931086
 20
270.6514761164199
 30
0.0
 40
15.40906361441239
100
AcDbArc
 50
157.0839973724288
 51
202.9160026275712
  0
ARC
  5
491E
330
1F
100
AcDbEntity
  8
0
100
AcDbCircle
 10
302.7163783931086
 20
282.6514761164199
 30
0.0
 40
15.40906361441239
100
AcDbArc
 50
157.0839973724288
 51
202.9160026275712
  0
LINE
  5
491F
330
1F
100
AcDbEntity
  8
0
100
AcDbLine
 10
288.5234491157181
 20
276.6514761164199
 30
0.0
 11
304.0911804416742
 21
276.6514761164198
 31
0.0
  0
LINE
  5
4929
330
1F
100
AcDbEntity
  8
AM_7
100
AcDbLine
 10
258.9840036951302
 20
276.6514761164199
 30
0.0
 11
306.9871071607495
 21
276.6514761164199
 31
0.0
1001
GENIUS_GENODEF_13
1002
{
1000
HIER
1070
     0
1002
}
1002
{
1000
MANEDIT
1070
     0
1002
}
1002
{
1000
NOSEL
1070
     0
1002
}
1002
{
1000
BEHIND
1070
     0
1002
}
1002
{
1000
OTHER
1070
     0
1002
}
1002
{
1000
REACTOR
1002
}
1001
GENIUS_GENOBJ-N-CEN_13
1002
{
1000
OWNER
1000
GEN
1002
}
1001
GENIUS_GENCEN_19
1002
{
1040
1.397
1002
}
  0
LINE
  5
492A
330
1F
100
AcDbEntity
  8
AM_7
100
AcDbLine
 10
306.9871071607495
 20
222.2580292850923
 30
0.0
 11
258.9840036951305
 21
222.2580292850922
 31
0.0
1001
GENIUS_GENOBJ-N-CEN_13
1002
{
1000
OWNER
1000
GEN
1002
}
1001
GENIUS_GENODEF_13
1002
{
1000
HIER
1070
     0
1002
}
1002
{
1000
MANEDIT
1070
     0
1002
}
1002
{
1000
NOSEL
1070
     0
1002
}
1002
{
1000
BEHIND
1070
     0
1002
}
1002
{
1000
OTHER
1070
     0
1002
}
1002
{
1000
REACTOR
1002
}
1001
GENIUS_GENCEN_19
1002
{
1040
1.397
1002
}
  0
LINE
  5
4972
330
1F
100
AcDbEntity
  8
0
100
AcDbLine
 10
327.1878793292401
 20
238.5000292850952
 30
0.0
 11
327.18787932924
 21
231.2069584575314
 31
0.0
  0
LINE
  5
4973
330
1F
100
AcDbEntity
  8
0
100
AcDbLine
 10
344.1878793292401
 20
238.5000292850874
 30
0.0
 11
344.1878793292401
 21
231.2069584575314
 31
0.0
  0
POLYLINE
  5
4974
330
1F
100
AcDbEntity
  8
0
100
AcDb2dPolyline
 66
     1
 10
0.0
 20
0.0
 30
0.0
 70
     1
  0
VERTEX
  5
4975
330
4974
100
AcDbEntity
  8
0
100
AcDbVertex
100
AcDb2dVertex
 10
335.68787932924
 20
236.1144357456432
 30
0.0
  0
VERTEX
  5
4976
330
4974
100
AcDbEntity
  8
0
100
AcDbVertex
100
AcDb2dVertex
 10
323.68787932924
 20
229.1862325153676
 30
0.0
  0
VERTEX
  5
4977
330
4974
100
AcDbEntity
  8
0
100
AcDbVertex
100
AcDb2dVertex
 10
323.68787932924
 20
215.3298260548166
 30
0.0
  0
VERTEX
  5
4978
330
4974
100
AcDbEntity
  8
0
100
AcDbVertex
100
AcDb2dVertex
 10
335.6878793292401
 20
208.4016228245411
 30
0.0
  0
VERTEX
  5
4979
330
4974
100
AcDbEntity
  8
0
100
AcDbVertex
100
AcDb2dVertex
 10
347.68787932924
 20
215.3298260548166
 30
0.0
  0
VERTEX
  5
497A
330
4974
100
AcDbEntity
  8
0
100
AcDbVertex
100
AcDb2dVertex
 10
347.68787932924
 20
229.1862325153677
 30
0.0
  0
SEQEND
  5
497B
330
4974
100
AcDbEntity
  8
0
  0
CIRCLE
  5
497C
330
1F
100
AcDbEntity
  8
0
100
AcDbCircle
 10
335.6878793292399
 20
222.2580292850921
 30
0.0
 40
6.0
  0
CIRCLE
  5
497D
330
1F
100
AcDbEntity
  8
0
100
AcDbCircle
 10
335.6878793292399
 20
222.2580292850921
 30
0.0
 40
11.75
  0
LINE
  5
497E
330
1F
100
AcDbEntity
  8
AM_7
100
AcDbLine
 10
322.29087932924
 20
222.2580292850921
 30
0.0
 11
349.08487932924
 21
222.2580292850922
 31
0.0
1001
GENIUS_GENODEF_13
1002
{
1000
HIER
1070
     0
1002
}
1002
{
1000
MANEDIT
1070
     0
1002
}
1002
{
1000
NOSEL
1070
     0
1002
}
1002
{
1000
BEHIND
1070
     0
1002
}
1002
{
1000
OTHER
1070
     0
1002
}
1002
{
1000
REACTOR
1002
}
1001
GENIUS_GENOBJ-N-CEN_13
1002
{
1000
OWNER
1000
GEN
1002
}
1001
GENIUS_GENCEN_19
1002
{
1040
1.397
1002
}
  0
CIRCLE
  5
497F
330
1F
100
AcDbEntity
  8
0
100
AcDbCircle
 10
335.6878793292399
 20
222.2580292850921
 30
0.0
 40
4.999999999999687
  0
LINE
  5
4980
330
1F
100
AcDbEntity
  8
AM_7
100
AcDbLine
 10
335.6878793292399
 20
252.6550292850921
 30
0.0
 11
335.6878793292401
 21
207.0046228245412
 31
0.0
1001
GENIUS_GENOBJ-N-CEN_13
1002
{
1000
OWNER
1000
GEN
1002
}
1001
GENIUS_GENODEF_13
1002
{
1000
HIER
1070
     0
1002
}
1002
{
1000
MANEDIT
1070
     0
1002
}
1002
{
1000
NOSEL
1070
     0
1002
}
1002
{
1000
BEHIND
1070
     0
1002
}
1002
{
1000
OTHER
1070
     0
1002
}
1002
{
1000
REACTOR
1002
}
1001
GENIUS_GENCEN_19
1002
{
1040
1.397
1002
}
  0
LINE
  5
4A70
330
1F
100
AcDbEntity
  8
0
100
AcDbLine
 10
305.3073147786962
 20
210.5080292850921
 30
0.0
 11
305.3073147786962
 21
222.2580292850921
 31
0.0
  0
ARC
  5
4A71
330
1F
100
AcDbEntity
  8
0
100
AcDbCircle
 10
299.1733401824805
 20
211.8657244396788
 30
0.0
 40
6.133974596215669
100
AcDbArc
 50
342.393801652692
 51
34.38424746804152
  0
ARC
  5
4A72
330
1F
100
AcDbEntity
  8
0
100
AcDbCircle
 10
282.3791115484204
 20
222.2580292850921
 30
0.0
 40
22.92820323027579
100
AcDbArc
 50
342.4120462260069
 51
0.0
  0
LINE
  5
4A73
330
1F
100
AcDbEntity
  8
0
100
AcDbLine
 10
305.3073147786962
 20
210.508029285092
 30
0.0
 11
304.0911804416743
 21
208.4016228245411
 31
0.0
  0
LINE
  5
4A77
330
1F
100
AcDbEntity
  8
0
100
AcDbLine
 10
287.3073147786962
 20
210.5080292850921
 30
0.0
 11
287.3073147786962
 21
222.2580292850921
 31
0.0
  0
ARC
  5
4A78
330
1F
100
AcDbEntity
  8
0
100
AcDbCircle
 10
293.4412893749119
 20
211.8657244396788
 30
0.0
 40
6.133974596215669
100
AcDbArc
 50
145.6157525319598
 51
197.6061983473094
  0
ARC
  5
4A79
330
1F
100
AcDbEntity
  8
0
100
AcDbCircle
 10
310.235518008972
 20
222.2580292850921
 30
0.0
 40
22.92820323027579
100
AcDbArc
 50
180.0
 51
197.5879537739924
  0
LINE
  5
4A7A
330
1F
100
AcDbEntity
  8
0
100
AcDbLine
 10
287.3073147786962
 20
210.508029285092
 30
0.0
 11
288.5234491157181
 21
208.4016228245411
 31
0.0
  0
LINE
  5
4A82
330
1F
100
AcDbEntity
  8
0
100
AcDbLine
 10
304.0911804416743
 20
208.4016228245411
 30
0.0
 11
288.5234491157181
 21
208.4016228245411
 31
0.0
  0
LINE
  5
4A83
330
1F
100
AcDbEntity
  8
0
100
AcDbLine
 10
288.3791115484207
 20
215.3298260548165
 30
0.0
 11
304.2355180089714
 21
215.3298260548158
 31
0.0
  0
LINE
  5
4C40
330
1F
100
AcDbEntity
  8
0
100
AcDbLine
 10
281.4623051123361
 20
285.1514761164199
 30
0.0
 11
281.4623051123362
 21
268.1514761164199
 31
0.0
  0
LINE
  5
51DD
330
1F
100
AcDbEntity
  8
0
100
AcDbLine
 10
277.3810036951306
 20
238.5000292850899
 30
0.0
 11
277.3810036951305
 21
232.2580292850921
 31
0.0
  0
LINE
  5
51DE
330
1F
100
AcDbEntity
  8
0
100
AcDbLine
 10
260.3810036951305
 20
216.758029285092
 30
0.0
 11
260.3810036951307
 21
238.5000292850972
 31
0.0
  0
ARC
  5
51DF
330
1F
100
AcDbEntity
  8
0
100
AcDbCircle
 10
263.3810036951305
 20
216.758029285092
 30
0.0
 40
3.0
100
AcDbArc
 50
180.0
 51
270.0
1001
GENIUS_GENOREF_13
1005
0
  0
ARC
  5
51E0
330
1F
100
AcDbEntity
  8
0
100
AcDbCircle
 10
278.8810036951304
 20
232.2580292850921
 30
0.0
 40
1.5
100
AcDbArc
 50
180.0
 51
270.0
1001
GENIUS_GENOREF_13
1005
5203
  0
LINE
  5
51E4
330
1F
100
AcDbEntity
  8
AM_7
100
AcDbLine
 10
268.8810036951305
 20
252.6550292850921
 30
0.0
 11
268.8810036951305
 21
212.3610292850921
 31
0.0
1001
GENIUS_GENODEF_13
1002
{
1000
HIER
1070
     0
1002
}
1002
{
1000
MANEDIT
1070
     0
1002
}
1002
{
1000
NOSEL
1070
     0
1002
}
1002
{
1000
BEHIND
1070
     0
1002
}
1002
{
1000
OTHER
1070
     0
1002
}
1002
{
1000
REACTOR
1002
}
1001
GENIUS_GENOBJ-N-CEN_13
1002
{
1000
OWNER
1000
GEN
1002
}
1001
GENIUS_GENCEN_19
1002
{
1040
1.397
1002
}
  0
LINE
  5
51F1
330
1F
100
AcDbEntity
  8
0
100
AcDbLine
 10
274.3810036951304
 20
250.258029285092
 30
0.0
 11
275.8810036951305
 21
250.258029285092
 31
0.0
  0
LINE
  5
51F2
330
1F
100
AcDbEntity
  8
0
100
AcDbLine
 10
260.6836315253284
 20
248.1841198514258
 30
0.0
 11
260.3810036951306
 21
238.5000292850957
 31
0.0
  0
LINE
  5
51F3
330
1F
100
AcDbEntity
  8
0
100
AcDbLine
 10
261.5890569825333
 20
249.752362745771
 30
0.0
 11
261.1673590618872
 21
236.258029285092
 31
0.0
  0
LINE
  5
51F5
330
1F
100
AcDbEntity
  8
0
100
AcDbLine
 10
261.8810036951304
 20
250.258029285092
 30
0.0
 11
274.3810036951304
 21
250.258029285092
 31
0.0
  0
LINE
  5
51F7
330
1F
100
AcDbEntity
  8
0
100
AcDbLine
 10
261.8810036951304
 20
250.258029285092
 30
0.0
 11
260.6836315253284
 21
248.1841198514258
 31
0.0
  0
LINE
  5
51F8
330
1F
100
AcDbEntity
  8
0
100
AcDbLine
 10
260.6836315253284
 20
248.1841198514258
 30
0.0
 11
261.5400493920851
 21
248.1841198514258
 31
0.0
  0
LINE
  5
51FA
330
1F
100
AcDbEntity
  8
0
100
AcDbLine
 10
276.1729504077274
 20
249.7523627457711
 30
0.0
 11
276.5946483283738
 21
236.2580292850923
 31
0.0
  0
LINE
  5
51FB
330
1F
100
AcDbEntity
  8
0
100
AcDbLine
 10
277.0783758649324
 20
248.1841198514259
 30
0.0
 11
277.3810036951305
 21
238.5000292850912
 31
0.0
  0
LINE
  5
51FC
330
1F
100
AcDbEntity
  8
0
100
AcDbLine
 10
275.8810036951305
 20
250.258029285092
 30
0.0
 11
277.0783758649325
 21
248.1841198514259
 31
0.0
  0
LINE
  5
51FD
330
1F
100
AcDbEntity
  8
0
100
AcDbLine
 10
277.0783758649324
 20
248.1841198514259
 30
0.0
 11
276.2219579981758
 21
248.1841198514259
 31
0.0
  0
LINE
  5
51FE
330
1F
100
AcDbEntity
  8
0
100
AcDbLine
 10
261.1673590618872
 20
236.258029285092
 30
0.0
 11
260.3810036951306
 21
234.8960218370651
 31
0.0
  0
LINE
  5
51FF
330
1F
100
AcDbEntity
  8
0
100
AcDbLine
 10
260.3810036951307
 20
236.258029285092
 30
0.0
 11
261.1673590618872
 21
236.258029285092
 31
0.0
  0
LINE
  5
5200
330
1F
100
AcDbEntity
  8
0
100
AcDbLine
 10
276.5946483283738
 20
236.2580292850923
 30
0.0
 11
277.3810036951305
 21
234.8960218370654
 31
0.0
  0
LINE
  5
5201
330
1F
100
AcDbEntity
  8
0
100
AcDbLine
 10
277.3810036951303
 20
236.2580292850923
 30
0.0
 11
276.5946483283738
 21
236.2580292850923
 31
0.0
  0
POINT
  5
5203
330
1F
100
AcDbEntity
  8
0
 60
     1
100
AcDbPoint
 10
-53.84868737629893
 20
-147.9781532458928
 30
0.0
1001
GENIUS_GENOBJ-N-FIL_13
1002
{
1000
OWNER
1000
GEN
1002
}
1001
GENIUS_GENOENT_13
1002
{
1000
MYREF
1005
5203
1002
}
1002
{
1000
GRP
1005
0
1002
}
1001
GENIUS_GENOLIS_13
1002
{
1000
ENT
1005
0
1005
51E0
1002
}
1001
GENIUS_GENODEF_13
1002
{
1000
HIER
1070
     1
1002
}
1002
{
1000
MANEDIT
1070
     1
1002
}
1002
{
1000
NOSEL
1070
     0
1002
}
1002
{
1000
BEHIND
1070
     0
1002
}
1002
{
1000
REACTOR
1002
}
  0
CIRCLE
  5
522D
330
1F
100
AcDbEntity
  8
0
100
AcDbCircle
 10
268.8810036951305
 20
276.6514761164199
 30
0.0
 40
8.500000000000312
  0
CIRCLE
  5
522E
330
1F
100
AcDbEntity
  8
0
100
AcDbCircle
 10
268.8810036951305
 20
276.6514761164199
 30
0.0
 40
8.197372169802065
  0
CIRCLE
  5
522F
330
1F
100
AcDbEntity
  8
0
100
AcDbCircle
 10
268.8810036951305
 20
276.6514761164199
 30
0.0
 40
7.0
  0
CIRCLE
  5
5230
330
1F
100
AcDbEntity
  8
0
100
AcDbCircle
 10
268.8810036951305
 20
276.6514761164199
 30
0.0
 40
5.5
  0
CIRCLE
  5
5231
330
1F
100
AcDbEntity
  8
0
100
AcDbCircle
 10
268.8810036951305
 20
276.6514761164199
 30
0.0
 40
5.0
  0
CIRCLE
  5
5232
330
1F
100
AcDbEntity
  8
0
100
AcDbCircle
 10
268.8810036951305
 20
276.6514761164199
 30
0.0
 40
7.291946712597109
  0
LINE
  5
5252
330
1F
100
AcDbEntity
  8
0
100
AcDbLine
 10
341.1878793292399
 20
250.2580292850918
 30
0.0
 11
342.6878793292399
 21
250.2580292850918
 31
0.0
  0
LINE
  5
5253
330
1F
100
AcDbEntity
  8
0
100
AcDbLine
 10
327.4905071594378
 20
248.1841198514255
 30
0.0
 11
327.1878793292401
 21
238.5000292850954
 31
0.0
  0
LINE
  5
5254
330
1F
100
AcDbEntity
  8
0
100
AcDbLine
 10
328.3959326166428
 20
249.7523627457708
 30
0.0
 11
327.9742346959966
 21
236.2580292850918
 31
0.0
  0
LINE
  5
5255
330
1F
100
AcDbEntity
  8
0
100
AcDbLine
 10
328.6878793292399
 20
250.2580292850918
 30
0.0
 11
341.1878793292399
 21
250.2580292850918
 31
0.0
  0
LINE
  5
5256
330
1F
100
AcDbEntity
  8
0
100
AcDbLine
 10
328.6878793292399
 20
250.2580292850918
 30
0.0
 11
327.4905071594378
 21
248.1841198514255
 31
0.0
  0
LINE
  5
5257
330
1F
100
AcDbEntity
  8
0
100
AcDbLine
 10
327.4905071594378
 20
248.1841198514255
 30
0.0
 11
328.3469250261945
 21
248.1841198514255
 31
0.0
  0
LINE
  5
5258
330
1F
100
AcDbEntity
  8
0
100
AcDbLine
 10
342.9798260418369
 20
249.7523627457709
 30
0.0
 11
343.4015239624832
 21
236.2580292850921
 31
0.0
  0
LINE
  5
5259
330
1F
100
AcDbEntity
  8
0
100
AcDbLine
 10
343.8852514990418
 20
248.1841198514257
 30
0.0
 11
344.1878793292399
 21
238.500029285091
 31
0.0
  0
LINE
  5
525A
330
1F
100
AcDbEntity
  8
0
100
AcDbLine
 10
342.6878793292399
 20
250.2580292850918
 30
0.0
 11
343.8852514990419
 21
248.1841198514257
 31
0.0
  0
LINE
  5
525B
330
1F
100
AcDbEntity
  8
0
100
AcDbLine
 10
343.8852514990418
 20
248.1841198514257
 30
0.0
 11
343.0288336322852
 21
248.1841198514257
 31
0.0
  0
LINE
  5
525C
330
1F
100
AcDbEntity
  8
0
100
AcDbLine
 10
327.9742346959966
 20
236.2580292850918
 30
0.0
 11
327.18787932924
 21
234.8960218370649
 31
0.0
  0
LINE
  5
525D
330
1F
100
AcDbEntity
  8
0
100
AcDbLine
 10
327.1878793292401
 20
236.2580292850918
 30
0.0
 11
327.9742346959966
 21
236.2580292850918
 31
0.0
  0
LINE
  5
525E
330
1F
100
AcDbEntity
  8
0
100
AcDbLine
 10
343.4015239624832
 20
236.2580292850921
 30
0.0
 11
344.1878793292399
 21
234.8960218370652
 31
0.0
  0
LINE
  5
525F
330
1F
100
AcDbEntity
  8
0
100
AcDbLine
 10
344.1878793292397
 20
236.2580292850921
 30
0.0
 11
343.4015239624832
 21
236.2580292850921
 31
0.0
  0
LINE
  5
5261
330
1F
100
AcDbEntity
  8
0
100
AcDbLine
 10
328.3469250261945
 20
248.1841198514255
 30
0.0
 11
343.0288336322852
 21
248.1841198514257
 31
0.0
  0
LINE
  5
5262
330
1F
100
AcDbEntity
  8
0
100
AcDbLine
 10
327.9742346959966
 20
236.2580292850918
 30
0.0
 11
343.4015239624832
 21
236.2580292850918
 31
0.0
  0
LINE
  5
5263
330
1F
100
AcDbEntity
  8
0
100
AcDbLine
 10
327.18787932924
 20
234.8960218370649
 30
0.0
 11
333.5775245349339
 21
234.896021837065
 31
0.0
  0
LINE
  5
5264
330
1F
100
AcDbEntity
  8
0
100
AcDbLine
 10
337.7982341235459
 20
234.8960218370651
 30
0.0
 11
344.1878793292399
 21
234.8960218370652
 31
0.0
  0
LINE
  5
5335
330
1F
100
AcDbEntity
  8
0
100
AcDbLine
 10
305.3073147786961
 20
234.0080292850924
 30
0.0
 11
305.3073147786962
 21
222.2580292850924
 31
0.0
  0
ARC
  5
5336
330
1F
100
AcDbEntity
  8
0
100
AcDbCircle
 10
299.1733401824804
 20
232.6503341305057
 30
0.0
 40
6.133974596215669
100
AcDbArc
 50
325.6157525319581
 51
17.60619834730924
  0
ARC
  5
5337
330
1F
100
AcDbEntity
  8
0
100
AcDbCircle
 10
282.3791115484204
 20
222.2580292850923
 30
0.0
 40
22.92820323027579
100
AcDbArc
 50
0.0
 51
17.58795377399428
  0
LINE
  5
5338
330
1F
100
AcDbEntity
  8
0
100
AcDbLine
 10
305.3073147786961
 20
234.0080292850925
 30
0.0
 11
304.0911804416742
 21
236.1144357456435
 31
0.0
  0
LINE
  5
5339
330
1F
100
AcDbEntity
  8
0
100
AcDbLine
 10
287.3073147786961
 20
234.0080292850923
 30
0.0
 11
287.3073147786962
 21
222.2580292850923
 31
0.0
  0
ARC
  5
533A
330
1F
100
AcDbEntity
  8
0
100
AcDbCircle
 10
293.4412893749118
 20
232.6503341305056
 30
0.0
 40
6.133974596215669
100
AcDbArc
 50
162.3938016526906
 51
214.3842474680418
  0
ARC
  5
533B
330
1F
100
AcDbEntity
  8
0
100
AcDbCircle
 10
310.235518008972
 20
222.2580292850925
 30
0.0
 40
22.92820323027579
100
AcDbArc
 50
162.4120462260089
 51
180.0
  0
LINE
  5
533C
330
1F
100
AcDbEntity
  8
0
100
AcDbLine
 10
287.3073147786961
 20
234.0080292850923
 30
0.0
 11
288.523449115718
 21
236.1144357456433
 31
0.0
  0
LINE
  5
533D
330
1F
100
AcDbEntity
  8
0
100
AcDbLine
 10
304.0911804416742
 20
236.1144357456435
 30
0.0
 11
288.523449115718
 21
236.1144357456433
 31
0.0
  0
LINE
  5
533E
330
1F
100
AcDbEntity
  8
0
100
AcDbLine
 10
288.3791115484206
 20
229.1862325153679
 30
0.0
 11
304.2355180089714
 21
229.1862325153687
 31
0.0
  0
LINE
  5
533F
330
1F
100
AcDbEntity
  8
0
100
AcDbLine
 10
278.8810036951304
 20
230.7580292850921
 30
0.0
 11
281.4623051123361
 21
230.7580292850921
 31
0.0
  0
LINE
  5
5340
330
1F
100
AcDbEntity
  8
0
100
AcDbLine
 10
281.4623051123361
 20
230.7580292850921
 30
0.0
 11
281.462305112336
 21
213.758029285092
 31
0.0
  0
LINE
  5
5341
330
1F
100
AcDbEntity
  8
0
100
AcDbLine
 10
283.8810036951305
 20
231.5735292850918
 30
0.0
 11
283.8810036951305
 21
212.942529285092
 31
0.0
  0
LINE
  5
5342
330
1F
100
AcDbEntity
  8
0
100
AcDbLine
 10
283.3095895381891
 20
231.5735292850918
 30
0.0
 11
283.3095895381891
 21
212.942529285092
 31
0.0
  0
LINE
  5
5343
330
1F
100
AcDbEntity
  8
0
100
AcDbLine
 10
260.3810036951306
 20
234.8960218370653
 30
0.0
 11
277.3810036951305
 21
234.8790292850913
 31
0.0
  0
LINE
  5
5344
330
1F
100
AcDbEntity
  8
0
100
AcDbLine
 10
261.1673590618872
 20
236.258029285092
 30
0.0
 11
276.5946483283738
 21
236.2580292850923
 31
0.0
  0
LINE
  5
5345
330
1F
100
AcDbEntity
  8
0
100
AcDbLine
 10
261.5400493920851
 20
248.1841198514258
 30
0.0
 11
276.2219579981758
 21
248.1841198514259
 31
0.0
  0
LINE
  5
536F
330
1F
100
AcDbEntity
  8
0
100
AcDbLine
 10
268.8810036951305
 20
230.7580292850922
 30
0.0
 11
275.8810036951305
 21
230.7580292850922
 31
0.0
  0
LINE
  5
5370
330
1F
100
AcDbEntity
  8
0
100
AcDbLine
 10
275.8810036951305
 20
230.7580292850922
 30
0.0
 11
275.8810036951305
 21
230.7580292850922
 31
0.0
  0
LINE
  5
5371
330
1F
100
AcDbEntity
  8
0
100
AcDbLine
 10
277.3810036951305
 20
229.2580292850923
 30
0.0
 11
277.3810036951305
 21
229.2580292850923
 31
0.0
  0
LINE
  5
5372
330
1F
100
AcDbEntity
  8
0
100
AcDbLine
 10
277.3810036951305
 20
215.2580292850923
 30
0.0
 11
264.8810036951306
 21
215.2580292850923
 31
0.0
  0
LINE
  5
5373
330
1F
100
AcDbEntity
  8
0
100
AcDbLine
 10
261.8810036951306
 20
218.2580292850922
 30
0.0
 11
261.8810036951305
 21
230.7580292850922
 31
0.0
  0
LINE
  5
5374
330
1F
100
AcDbEntity
  8
0
100
AcDbLine
 10
261.8810036951305
 20
230.7580292850922
 30
0.0
 11
268.8810036951305
 21
230.7580292850922
 31
0.0
  0
ARC
  5
5375
330
1F
100
AcDbEntity
  8
0
100
AcDbCircle
 10
264.8810036951306
 20
218.2580292850922
 30
0.0
 40
3.0
100
AcDbArc
 50
180.0
 51
270.0
1001
GENIUS_GENOREF_13
1005
538F
  0
LINE
  5
5376
330
1F
100
AcDbEntity
  8
0
100
AcDbLine
 10
275.4856456227836
 20
217.8924096799653
 30
0.0
 11
274.3934298594879
 21
220.9466362131448
 31
0.0
  0
LINE
  5
5377
330
1F
100
AcDbEntity
  8
0
100
AcDbLine
 10
273.368577530773
 20
220.9466362131447
 30
0.0
 11
272.2766162937628
 21
217.8931214266369
 31
0.0
  0
ELLIPSE
  5
5378
330
1F
100
AcDbEntity
  8
0
100
AcDbEllipse
 10
273.8810036951305
 20
214.5428441758977
 30
0.0
 11
-2.485294117647051
 21
0.0000000000000504
 31
0.0
210
0.0
220
0.0
230
1.0
 40
0.953303940344945
 41
3.962594650554286
 42
5.462183310215122
  0
ELLIPSE
  5
5379
330
1F
100
AcDbEntity
  8
0
100
AcDbEllipse
 10
273.8810036951305
 20
220.7191672232245
 30
0.0
 11
0.565257352941185
 21
0.0000000000000472
 31
0.0
210
0.0
220
0.0
230
1.0
 40
0.953303940344951
 41
0.2213144423477107
 42
2.920278211241923
  0
LINE
  5
537A
330
1F
100
AcDbEntity
  8
0
100
AcDbLine
 10
273.5484495041274
 20
217.9870988158274
 30
0.0
 11
273.8117579680898
 21
218.6899352011187
 31
0.0
  0
LINE
  5
537B
330
1F
100
AcDbEntity
  8
0
100
AcDbLine
 10
273.9502494256773
 20
218.6899352011187
 30
0.0
 11
274.2135578866379
 21
217.9870988155817
 31
0.0
  0
LINE
  5
537C
330
1F
100
AcDbEntity
  8
0
100
AcDbLine
 10
274.1443121577982
 20
217.8934271426983
 30
0.0
 11
273.6176952328751
 21
217.8934271426983
 31
0.0
  0
LINE
  5
537D
330
1F
100
AcDbEntity
  8
0
100
AcDbLine
 10
272.0714287976761
 20
216.2966736892926
 30
0.0
 11
271.3810036951305
 21
217.6130436308322
 31
0.0
  0
LINE
  5
537E
330
1F
100
AcDbEntity
  8
0
100
AcDbLine
 10
275.6905785925849
 20
216.2966736892926
 30
0.0
 11
276.3810036951305
 21
217.6130436308322
 31
0.0
  0
LINE
  5
537F
330
1F
100
AcDbEntity
  8
0
100
AcDbLine
 10
271.3810036951305
 20
217.6130436308322
 30
0.0
 11
271.4257279477755
 21
217.5884278366019
 31
0.0
  0
LINE
  5
5380
330
1F
100
AcDbEntity
  8
0
100
AcDbLine
 10
276.3810036951305
 20
217.6130436308322
 30
0.0
 11
276.3448897207513
 21
217.5924029577029
 31
0.0
  0
ELLIPSE
  5
5381
330
1F
100
AcDbEntity
  8
0
100
AcDbEllipse
 10
271.7198455948342
 20
218.0740663247587
 30
0.0
 11
0.5882352941176451
 21
0.0000000000000118
 31
0.0
210
0.0
220
0.0
230
1.0
 40
0.9533039403449411
 41
4.188790204786369
 42
5.954632136628113
1001
GENIUS_GENODEF_13
1002
{
1000
HIER
1070
     0
1002
}
1002
{
1000
MANEDIT
1070
     0
1002
}
1002
{
1000
NOSEL
1070
     0
1002
}
1002
{
1000
BEHIND
1070
     0
1002
}
1002
{
1000
REACTOR
1002
}
1001
GENIUS_GENOBJ-N-FIL_13
1002
{
1000
OWNER
1000
GEN
1002
}
  0
ELLIPSE
  5
5382
330
1F
100
AcDbEntity
  8
0
100
AcDbEllipse
 10
276.0424163217122
 20
218.073354578087
 30
0.0
 11
-0.5882352941176458
 21
0.0000000000000019
 31
0.0
210
0.0
220
0.0
230
1.0
 40
0.9533039403449464
 41
0.3285531705514608
 42
2.110876526947248
1001
GENIUS_GENODEF_13
1002
{
1000
HIER
1070
     0
1002
}
1002
{
1000
MANEDIT
1070
     0
1002
}
1002
{
1000
NOSEL
1070
     0
1002
}
1002
{
1000
BEHIND
1070
     0
1002
}
1002
{
1000
REACTOR
1002
}
1001
GENIUS_GENOBJ-N-FIL_13
1002
{
1000
OWNER
1000
GEN
1002
}
  0
ELLIPSE
  5
5383
330
1F
100
AcDbEntity
  8
0
100
AcDbEllipse
 10
272.1371955028967
 20
216.3280215189077
 30
0.0
 11
0.0735294117647067
 21
0.0000000000000146
 31
0.0
210
0.0
220
0.0
230
1.0
 40
0.9533039403448611
 41
3.605240262590422
 42
5.462183310214919
1001
GENIUS_GENODEF_13
1002
{
1000
HIER
1070
     0
1002
}
1002
{
1000
MANEDIT
1070
     0
1002
}
1002
{
1000
NOSEL
1070
     0
1002
}
1002
{
1000
BEHIND
1070
     0
1002
}
1002
{
1000
REACTOR
1002
}
1001
GENIUS_GENOBJ-N-FIL_13
1002
{
1000
OWNER
1000
GEN
1002
}
  0
ELLIPSE
  5
5384
330
1F
100
AcDbEntity
  8
0
100
AcDbEllipse
 10
275.6248118873643
 20
216.3280215189077
 30
0.0
 11
0.0735294117647032
 21
0.0000000000000346
 31
0.0
210
0.0
220
0.0
230
1.0
 40
0.9533039403449665
 41
3.962594650553778
 42
5.819537698178287
1001
GENIUS_GENODEF_13
1002
{
1000
HIER
1070
     0
1002
}
1002
{
1000
MANEDIT
1070
     0
1002
}
1002
{
1000
NOSEL
1070
     0
1002
}
1002
{
1000
BEHIND
1070
     0
1002
}
1002
{
1000
REACTOR
1002
}
1001
GENIUS_GENOBJ-N-FIL_13
1002
{
1000
OWNER
1000
GEN
1002
}
  0
ELLIPSE
  5
5385
330
1F
100
AcDbEntity
  8
0
100
AcDbEllipse
 10
273.8810036968835
 20
218.6663594060791
 30
0.0
 11
-0.0735294117647053
 21
0.0
 31
0.0
210
0.0
220
0.0
230
1.0
 40
0.9533039403448885
 41
3.484616594010533
 42
5.940161366758846
1001
GENIUS_GENODEF_13
1002
{
1000
HIER
1070
     0
1002
}
1002
{
1000
MANEDIT
1070
     0
1002
}
1002
{
1000
NOSEL
1070
     0
1002
}
1002
{
1000
BEHIND
1070
     0
1002
}
1002
{
1000
REACTOR
1002
}
1001
GENIUS_GENOBJ-N-FIL_13
1002
{
1000
OWNER
1000
GEN
1002
}
  0
ELLIPSE
  5
5386
330
1F
100
AcDbEntity
  8
0
100
AcDbEllipse
 10
273.6176952328751
 20
217.9635230206649
 30
0.0
 11
-0.0735294117647077
 21
0.0000000000000054
 31
0.0
210
0.0
220
0.0
230
1.0
 40
0.9533039403448576
 41
-0.3430239422815355
 42
1.570796326795022
1001
GENIUS_GENODEF_13
1002
{
1000
HIER
1070
     0
1002
}
1002
{
1000
MANEDIT
1070
     0
1002
}
1002
{
1000
NOSEL
1070
     0
1002
}
1002
{
1000
BEHIND
1070
     0
1002
}
1002
{
1000
REACTOR
1002
}
1001
GENIUS_GENOBJ-N-FIL_13
1002
{
1000
OWNER
1000
GEN
1002
}
  0
ELLIPSE
  5
5387
330
1F
100
AcDbEntity
  8
0
100
AcDbEllipse
 10
274.1443121577982
 20
217.9635230206649
 30
0.0
 11
0.0735294117647059
 21
0.0000000000000367
 31
0.0
210
0.0
220
0.0
230
1.0
 40
0.9533039403448807
 41
4.712388980384213
 42
6.62620924573893
1001
GENIUS_GENODEF_13
1002
{
1000
HIER
1070
     0
1002
}
1002
{
1000
MANEDIT
1070
     0
1002
}
1002
{
1000
NOSEL
1070
     0
1002
}
1002
{
1000
BEHIND
1070
     0
1002
}
1002
{
1000
REACTOR
1002
}
1001
GENIUS_GENOBJ-N-FIL_13
1002
{
1000
OWNER
1000
GEN
1002
}
  0
LINE
  5
5388
330
1F
100
AcDbEntity
  8
0
100
AcDbLine
 10
275.8810036951305
 20
230.7580292850922
 30
0.0
 11
275.8810036951305
 21
230.2580292850922
 31
0.0
  0
LINE
  5
5389
330
1F
100
AcDbEntity
  8
0
100
AcDbLine
 10
276.8810036951304
 20
229.2580292850923
 30
0.0
 11
277.3810036951305
 21
229.2580292850923
 31
0.0
  0
LINE
  5
538A
330
1F
100
AcDbEntity
  8
0
100
AcDbLine
 10
277.3810036951305
 20
229.2580292850923
 30
0.0
 11
277.3810036951305
 21
215.2580292850923
 31
0.0
  0
ARC
  5
538B
330
1F
100
AcDbEntity
  8
0
100
AcDbCircle
 10
276.8810036951304
 20
230.2580292850922
 30
0.0
 40
1.0
100
AcDbArc
 50
180.0000000000016
 51
270.0
1001
GENIUS_GENOREF_13
1005
538E
  0
POINT
  5
538E
330
1F
100
AcDbEntity
  8
0
 60
     1
100
AcDbPoint
 10
168.5651365658757
 20
-10.27994504384423
 30
0.0
1001
GENIUS_GENOBJ-N-FIL_13
1002
{
1000
OWNER
1000
GEN
1002
}
1001
GENIUS_GENOENT_13
1002
{
1000
MYREF
1005
538E
1002
}
1002
{
1000
GRP
1005
0
1002
}
1001
GENIUS_GENOLIS_13
1002
{
1000
ENT
1005
0
1005
538B
1002
}
1001
GENIUS_GENODEF_13
1002
{
1000
HIER
1070
     1
1002
}
1002
{
1000
MANEDIT
1070
     1
1002
}
1002
{
1000
NOSEL
1070
     0
1002
}
1002
{
1000
BEHIND
1070
     0
1002
}
1002
{
1000
REACTOR
1002
}
  0
POINT
  5
538F
330
1F
100
AcDbEntity
  8
0
 60
     1
100
AcDbPoint
 10
168.5651365658757
 20
-10.27994504384423
 30
0.0
1001
GENIUS_GENODEF_13
1002
{
1000
HIER
1070
     1
1002
}
1002
{
1000
MANEDIT
1070
     0
1002
}
1002
{
1000
NOSEL
1070
     0
1002
}
1002
{
1000
BEHIND
1070
     0
1002
}
1002
{
1000
REACTOR
1002
}
1001
GENIUS_GENOBJ-N-FIL_13
1002
{
1000
OWNER
1000
GEN
1002
}
1001
GENIUS_GENOENT_13
1002
{
1000
MYREF
1005
538F
1002
}
1002
{
1000
GRP
1005
0
1002
}
1001
GENIUS_GENOLIS_13
1002
{
1000
ENT
1005
5375
1002
}
  0
LINE
  5
5399
330
1F
100
AcDbEntity
  8
0
100
AcDbLine
 10
275.8810036951305
 20
281.4733014969169
 30
0.0
 11
277.3810036951305
 21
281.4733014969169
 31
0.0
  0
LINE
  5
539A
330
1F
100
AcDbEntity
  8
0
100
AcDbLine
 10
275.8810036951305
 20
271.829650735923
 30
0.0
 11
277.3810036951305
 21
271.8296507359229
 31
0.0
  0
ARC
  5
539B
330
1F
100
AcDbEntity
  8
0
100
AcDbCircle
 10
262.3810036951304
 20
284.6514761164199
 30
0.0
 40
0.5
100
AcDbArc
 50
90.0
 51
180.0
  0
ARC
  5
539C
330
1F
100
AcDbEntity
  8
0
100
AcDbCircle
 10
262.3810036951304
 20
268.6514761164199
 30
0.0
 40
0.5
100
AcDbArc
 50
180.0
 51
270.0
  0
MTEXT
  5
543B
330
1F
100
AcDbEntity
  8
0
100
AcDbMText
 10
328.6035798118762
 20
276.6514761164199
 30
0.0
 40
1.5
 41
16.37309866838348
 71
     1
 72
     5
  1
ﾘﾝｸﾞｴﾙﾎﾞ　RL-1312
 73
     1
 44
1.0
1001
ACAD
1000
ACAD_MTEXT_COLUMN_INFO_BEGIN
1070
    75
1070
     2
1070
    79
1070
     0
1070
    76
1070
     1
1070
    78
1070
     0
1070
    48
1040
16.37309866838348
1070
    49
1040
7.5
1070
    50
1070
     1
1040
0.0
1000
ACAD_MTEXT_COLUMN_INFO_END
1000
MTEXTBEGIN
1070
    73
1070
     1
1070
    44
1040
1.0
1070
    74
1070
     0
1000
MTEXTEND
  0
ENDSEC
  0
SECTION
  2
OBJECTS
  0
DICTIONARY
  5
C
330
0
100
AcDbDictionary
281
     1
  3
ACAD_2007HEADERVARS_RT
350
567B
  3
ACAD_COLOR
350
247
  3
ACAD_GROUP
350
D
  3
ACAD_LAYOUT
350
1A
  3
ACAD_MATERIAL
350
232
  3
ACAD_MLEADERSTYLE
350
2102
  3
ACAD_MLINESTYLE
350
17
  3
ACAD_PLOTSETTINGS
350
19
  3
ACAD_PLOTSTYLENAME
350
E
  3
ACAD_SCALELIST
350
20F0
  3
ACAD_TABLESTYLE
350
248
  3
ACAD_VISUALSTYLE
350
236
  3
ACDB_RECOMPOSE_DATA
350
5679
  3
AcDbVariableDictionary
350
34
  3
AcmDictionary
350
43
  3
AMG
350
2B
  3
AMGSNAPSETTINGS
350
74
  3
DWGPROPS
350
567A
  0
DICTIONARY
  5
CA7
330
8
100
AcDbDictionary
280
     1
281
     1
  0
DICTIONARY
  5
971
330
2
100
AcDbDictionary
280
     1
281
     1
  3
ACAD_LAYERSTATES
360
2298
  3
AMLAYER_GROUPCOLORS
360
972
  0
DICTIONARY
  5
227D
330
10
100
AcDbDictionary
280
     1
281
     1
  3
ADSK_XREC_LAYER_RECONCILED
360
227E
  0
DICTIONARY
  5
227F
330
59
100
AcDbDictionary
280
     1
281
     1
  3
ADSK_XREC_LAYER_RECONCILED
360
2280
  0
DICTIONARY
  5
2281
330
5A
100
AcDbDictionary
280
     1
281
     1
  3
ADSK_XREC_LAYER_RECONCILED
360
2282
  0
DICTIONARY
  5
2283
330
31B
100
AcDbDictionary
280
     1
281
     1
  3
ADSK_XREC_LAYER_RECONCILED
360
2284
  0
DICTIONARY
  5
2285
330
7C0
100
AcDbDictionary
280
     1
281
     1
  3
ADSK_XREC_LAYER_RECONCILED
360
2286
  0
DICTIONARY
  5
2287
330
7C1
100
AcDbDictionary
280
     1
281
     1
  3
ADSK_XREC_LAYER_RECONCILED
360
2288
  0
DICTIONARY
  5
2289
330
7C2
100
AcDbDictionary
280
     1
281
     1
  3
ADSK_XREC_LAYER_RECONCILED
360
228A
  0
DICTIONARY
  5
228B
330
7C3
100
AcDbDictionary
280
     1
281
     1
  3
ADSK_XREC_LAYER_RECONCILED
360
228C
  0
DICTIONARY
  5
228D
330
7C4
100
AcDbDictionary
280
     1
281
     1
  3
ADSK_XREC_LAYER_RECONCILED
360
228E
  0
DICTIONARY
  5
228F
330
7C5
100
AcDbDictionary
280
     1
281
     1
  3
ADSK_XREC_LAYER_RECONCILED
360
2290
  0
DICTIONARY
  5
2291
330
1264
100
AcDbDictionary
280
     1
281
     1
  3
ADSK_XREC_LAYER_RECONCILED
360
2292
  0
DICTIONARY
  5
2293
330
2276
100
AcDbDictionary
280
     1
281
     1
  3
ADSK_XREC_LAYER_RECONCILED
360
2294
  0
DICTIONARY
  5
41C9
330
41C8
100
AcDbDictionary
280
     1
281
     1
  0
DICTIONARY
  5
C9
330
1F
100
AcDbDictionary
280
     1
281
     1
  3
ACAD_SORTENTS
360
97C
  0
DICTIONARY
  5
BCD
330
BBF
100
AcDbDictionary
280
     1
281
     1
  0
DICTIONARY
  5
179B
330
176D
100
AcDbDictionary
280
     1
281
     1
  0
DICTIONARY
  5
17BE
330
17BD
100
AcDbDictionary
280
     1
281
     1
  0
DICTIONARY
  5
17C3
330
17C2
100
AcDbDictionary
280
     1
281
     1
  0
DICTIONARY
  5
17FE
330
17CB
100
AcDbDictionary
280
     1
281
     1
  0
DICTIONARY
  5
3A21
330
3A08
100
AcDbDictionary
280
     1
281
     1
  3
ACAD_SORTENTS
360
3A22
  0
DICTIONARY
  5
5330
330
5313
100
AcDbDictionary
280
     1
281
     1
  3
ACAD_SORTENTS
360
5331
  0
DICTIONARY
  5
567B
102
{ACAD_REACTORS
330
C
102
}
330
C
100
AcDbDictionary
281
     1
  3
DIMARCSYM
350
567C
  3
DIMLTEX1
350
567E
  3
DIMLTEX2
350
567F
  3
DIMLTYPE
350
567D
  0
DICTIONARY
  5
247
102
{ACAD_REACTORS
330
C
102
}
330
C
100
AcDbDictionary
281
     1
  0
DICTIONARY
  5
D
102
{ACAD_REACTORS
330
C
102
}
330
C
100
AcDbDictionary
281
     1
  0
DICTIONARY
  5
1A
102
{ACAD_REACTORS
330
C
102
}
330
C
100
AcDbDictionary
281
     1
  3
Model
350
22
  3
ﾚｲｱｳﾄ1
350
1E
  3
ﾚｲｱｳﾄ2
350
26
  0
DICTIONARY
  5
232
102
{ACAD_REACTORS
330
C
102
}
330
C
100
AcDbDictionary
281
     1
  3
ByBlock
350
234
  3
ByLayer
350
233
  3
Global
350
235
  0
DICTIONARY
  5
2102
102
{ACAD_REACTORS
330
C
102
}
330
C
100
AcDbDictionary
281
     1
  3
Standard
350
2103
  0
DICTIONARY
  5
17
102
{ACAD_REACTORS
330
C
102
}
330
C
100
AcDbDictionary
281
     1
  3
Standard
350
18
  0
DICTIONARY
  5
19
102
{ACAD_REACTORS
330
C
102
}
330
C
100
AcDbDictionary
281
     1
  0
ACDBDICTIONARYWDFLT
  5
E
102
{ACAD_REACTORS
330
C
102
}
330
C
100
AcDbDictionary
281
     1
  3
Normal
350
F
100
AcDbDictionaryWithDefault
340
F
  0
DICTIONARY
  5
20F0
102
{ACAD_REACTORS
330
C
102
}
330
C
100
AcDbDictionary
281
     1
  3
A0
350
20F1
  3
A1
350
20F2
  3
A2
350
20F3
  3
A3
350
20F4
  3
A4
350
20F5
  3
A5
350
20F6
  3
A6
350
20F7
  3
A7
350
20F8
  3
A8
350
20F9
  3
A9
350
20FA
  3
B0
350
20FB
  3
B1
350
20FC
  3
B2
350
20FD
  3
B3
350
20FE
  3
B4
350
20FF
  3
B5
350
2100
  3
B6
350
2101
  0
DICTIONARY
  5
248
102
{ACAD_REACTORS
330
C
102
}
330
C
100
AcDbDictionary
281
     1
  3
Standard
350
249
  0
DICTIONARY
  5
236
102
{ACAD_REACTORS
330
C
102
}
330
C
100
AcDbDictionary
281
     1
  3
2dWireframe
350
23C
  3
3D Hidden
350
23E
  3
3dWireframe
350
23D
  3
Basic
350
23B
  3
Brighten
350
242
  3
ColorChange
350
246
  3
Conceptual
350
23F
  3
Dim
350
241
  3
EdgeColorOff
350
20EF
  3
Facepattern
350
245
  3
Flat
350
237
  3
FlatWithEdges
350
238
  3
Gouraud
350
239
  3
GouraudWithEdges
350
23A
  3
Hidden
350
20E7
  3
JitterOff
350
20ED
  3
Linepattern
350
244
  3
OverhangOff
350
20EE
  3
Realistic
350
240
  3
Shaded
350
20EC
  3
Shaded with edges
350
20EB
  3
Shades of Gray
350
20E8
  3
Sketchy
350
20E9
  3
Thicken
350
243
  3
Wireframe
350
20E6
  3
X-Ray
350
20EA
  0
XRECORD
  5
5679
102
{ACAD_REACTORS
330
C
102
}
330
C
100
AcDbXrecord
280
     1
 90
        1
330
249
330
3A0D
330
543B
  0
DICTIONARY
  5
34
102
{ACAD_REACTORS
330
C
102
}
330
C
100
AcDbDictionary
281
     1
  3
CANNOSCALE
350
22EE
  3
CMLEADERSTYLE
350
22ED
  3
CTABLESTYLE
350
2C0
  3
DIMASSOC
350
5677
  3
EXPORTMODELSPACE
350
3FF8
  3
EXPORTPAGESETUP
350
33A3
  3
INDEXCTL
350
35
  3
SORTENTS
350
5675
  3
XCLIPFRAME
350
5676
  0
DICTIONARY
  5
43
102
{ACAD_REACTORS
330
C
102
}
330
C
100
AcDbDictionary
281
     1
  3
AcmBOM
350
C4E
  3
AcmStdDictionary
350
15F
  3
AMDTSECTSYM_ARROWCOLOR
350
2A8
  0
DICTIONARY
  5
2B
102
{ACAD_REACTORS
330
C
102
}
330
C
100
AcDbDictionary
281
     1
  0
DICTIONARY
  5
74
102
{ACAD_REACTORS
330
C
102
}
330
C
100
AcDbDictionary
281
     1
  0
XRECORD
  5
567A
102
{ACAD_REACTORS
330
C
102
}
330
C
100
AcDbXrecord
280
     1
  1
DWGPROPS COOKIE
  2

  3

  4

  6

  7

  8
user
  9

300
AmdtFileType=84
301
=
302
=
303
=
304
=
305
=
306
=
307
=
308
=
309
=
 40
0.3376838078703704
 41
2454784.375539815
 42
2456024.576556759
  1

 90
        1
  0
DICTIONARY
  5
2298
102
{ACAD_REACTORS
330
971
102
}
330
971
100
AcDbDictionary
281
     1
  0
DICTIONARY
  5
972
102
{ACAD_REACTORS
330
971
102
}
330
971
100
AcDbDictionary
280
     1
281
     1
  0
XRECORD
  5
227E
102
{ACAD_REACTORS
330
227D
102
}
330
227D
100
AcDbXrecord
280
     1
290
     1
  0
XRECORD
  5
2280
102
{ACAD_REACTORS
330
227F
102
}
330
227F
100
AcDbXrecord
280
     1
290
     1
  0
XRECORD
  5
2282
102
{ACAD_REACTORS
330
2281
102
}
330
2281
100
AcDbXrecord
280
     1
290
     1
  0
XRECORD
  5
2284
102
{ACAD_REACTORS
330
2283
102
}
330
2283
100
AcDbXrecord
280
     1
290
     1
  0
XRECORD
  5
2286
102
{ACAD_REACTORS
330
2285
102
}
330
2285
100
AcDbXrecord
280
     1
290
     1
  0
XRECORD
  5
2288
102
{ACAD_REACTORS
330
2287
102
}
330
2287
100
AcDbXrecord
280
     1
290
     1
  0
XRECORD
  5
228A
102
{ACAD_REACTORS
330
2289
102
}
330
2289
100
AcDbXrecord
280
     1
290
     1
  0
XRECORD
  5
228C
102
{ACAD_REACTORS
330
228B
102
}
330
228B
100
AcDbXrecord
280
     1
290
     1
  0
XRECORD
  5
228E
102
{ACAD_REACTORS
330
228D
102
}
330
228D
100
AcDbXrecord
280
     1
290
     1
  0
XRECORD
  5
2290
102
{ACAD_REACTORS
330
228F
102
}
330
228F
100
AcDbXrecord
280
     1
290
     1
  0
XRECORD
  5
2292
102
{ACAD_REACTORS
330
2291
102
}
330
2291
100
AcDbXrecord
280
     1
290
     1
  0
XRECORD
  5
2294
102
{ACAD_REACTORS
330
2293
102
}
330
2293
100
AcDbXrecord
280
     1
290
     1
  0
SORTENTSTABLE
  5
97C
102
{ACAD_REACTORS
330
C9
102
}
330
C9
100
AcDbSortentsTable
330
1F
331
5374
  5
537A
331
5256
  5
525C
331
543B
  5
543C
331
537C
  5
5382
331
525E
  5
5264
331
5384
  5
538A
331
492A
  5
4A78
331
4972
  5
4A79
331
489B
  5
4910
331
51F7
  5
51FE
331
539C
  5
492A
331
5335
  5
533B
331
51FF
  5
5230
331
533D
  5
5343
331
5345
  5
5374
331
522F
  5
5254
331
4903
  5
4916
331
4A72
  5
4A92
331
490B
  5
491F
331
4A7A
  5
51DF
331
4913
  5
4961
331
51DE
  5
51F3
331
491B
  5
496C
331
5375
  5
537B
331
5257
  5
525D
331
537D
  5
5383
331
525F
  5
5335
331
5385
  5
538B
331
4A82
  5
51E0
331
4973
  5
4A7A
331
51F8
  5
51FF
331
5336
  5
533C
331
5200
  5
5231
331
533E
  5
5344
331
4904
  5
4917
331
4A73
  5
4AB0
331
4914
  5
4962
331
51DF
  5
51F5
331
491C
  5
4A73
331
5230
  5
5255
331
5376
  5
537C
331
5258
  5
525E
331
537E
  5
5384
331
5386
  5
5390
331
4A83
  5
51E4
331
4974
  5
4A7D
331
497C
  5
4A7E
331
51F1
  5
51FA
331
5337
  5
533D
331
5201
  5
5232
331
533F
  5
5345
331
4905
  5
4918
331
490D
  5
492B
331
4886
  5
48A1
331
4915
  5
4963
331
51E0
  5
51F7
331
491D
  5
4A74
331
5231
  5
5256
331
536F
  5
5375
331
5377
  5
537D
331
5259
  5
525F
331
537F
  5
5385
331
5261
  5
5337
331
5387
  5
5391
331
497D
  5
4A7F
331
51F2
  5
51FB
331
51FA
  5
5200
331
5338
  5
533E
331
5340
  5
536F
331
4906
  5
4919
331
490E
  5
492C
331
4887
  5
48A2
331
4916
  5
4964
331
491E
  5
4A75
331
5232
  5
5257
331
5370
  5
5376
331
5252
  5
5258
331
5378
  5
537E
331
525A
  5
5260
331
5380
  5
5386
331
5262
  5
5338
331
488F
  5
48A8
331
497E
  5
4A80
331
48FF
  5
4911
331
5388
  5
5398
331
51F3
  5
51FC
331
51FB
  5
5201
331
5339
  5
533F
331
5341
  5
5370
331
4907
  5
491A
331
4917
  5
4965
331
491F
  5
4A76
331
5371
  5
5377
331
5253
  5
5259
331
5379
  5
537F
331
525B
  5
5261
331
5381
  5
5387
331
5263
  5
5339
331
4888
  5
48A3
331
4890
  5
48A9
331
497F
  5
4A85
331
5389
  5
5399
331
5399
  5
539C
331
51FC
  5
522D
331
533A
  5
5340
331
5342
  5
5371
331
4900
  5
4913
331
4908
  5
491B
331
4A77
  5
4EA4
331
4881
  5
489D
331
4910
  5
495E
331
4918
  5
4966
331
5372
  5
5378
331
5254
  5
525A
331
537A
  5
5380
331
525C
  5
5262
331
5382
  5
5388
331
5264
  5
533A
331
4889
  5
48A4
331
4891
  5
490D
331
4980
  5
4A86
331
538A
  5
539A
331
51F5
  5
51FD
331
51FD
  5
522E
331
539A
  5
543B
331
533B
  5
5341
331
5343
  5
5372
331
522D
  5
5252
331
4901
  5
4914
331
4A70
  5
4A87
331
4909
  5
491C
331
4A78
  5
51DD
331
4911
  5
495F
331
51E4
  5
51F8
331
4919
  5
4967
331
5373
  5
5379
331
5255
  5
525B
331
537B
  5
5381
331
525D
  5
5263
331
5383
  5
5389
331
4929
  5
4A77
331
4892
  5
490E
331
489A
  5
490F
331
538B
  5
539B
331
539B
  5
4912
331
51FE
  5
522F
331
533C
  5
5342
331
5344
  5
5373
331
522E
  5
5253
331
4902
  5
4915
331
4C40
  5
51F1
331
4A71
  5
4A88
331
490A
  5
491E
331
51DD
  5
51F2
331
4A79
  5
51DE
331
4912
  5
4960
331
491A
  5
4968
  0
SORTENTSTABLE
  5
3A22
102
{ACAD_REACTORS
330
3A21
102
}
330
3A21
100
AcDbSortentsTable
330
3A08
  0
SORTENTSTABLE
  5
5331
102
{ACAD_REACTORS
330
5330
102
}
330
5330
100
AcDbSortentsTable
330
5313
  0
XRECORD
  5
567C
102
{ACAD_REACTORS
330
567B
102
}
330
567B
100
AcDbXrecord
280
     1
 70
     1
  0
XRECORD
  5
567E
102
{ACAD_REACTORS
330
567B
102
}
330
567B
100
AcDbXrecord
280
     1
340
14
  0
XRECORD
  5
567F
102
{ACAD_REACTORS
330
567B
102
}
330
567B
100
AcDbXrecord
280
     1
340
14
  0
XRECORD
  5
567D
102
{ACAD_REACTORS
330
567B
102
}
330
567B
100
AcDbXrecord
280
     1
340
14
  0
LAYOUT
  5
22
102
{ACAD_XDICTIONARY
360
229D
102
}
102
{ACAD_REACTORS
330
1A
102
}
330
1A
100
AcDbPlotSettings
  1

  2
RICOH imagio MP 5000 RPCS
  4
A3
  6
AM_VIEW1
 40
5.873749732971191
 41
5.873747825622558
 42
5.873748779296875
 43
5.873748779296875
 44
296.9259948730469
 45
419.9466552734374
 46
-5.919815540324293
 47
-5.934667927893173
 48
0.0
 49
0.0
140
0.0
141
0.0
142
2.0
143
1.0
 70
 11940
 72
     1
 73
     1
 74
     1
  7
IMAGIO.ctb
 75
     0
147
1.920232922602835
148
-222.7636679094484
149
-167.1068861395336
100
AcDbLayout
  1
Model
 70
     1
 71
     0
 10
0.0
 20
0.0
 11
12.0
 21
9.0
 12
0.0
 22
0.0
 32
0.0
 14
0.0
 24
0.0
 34
0.0
 15
0.0
 25
0.0
 35
0.0
146
0.0
 13
0.0
 23
0.0
 33
0.0
 16
1.0
 26
0.0
 36
0.0
 17
0.0
 27
1.0
 37
0.0
 76
     0
330
1F
331
230
1001
ACAD_PSEXT
1000
RICOH imagio MP 5000 RPCS
1000
RICOH imagio MP 5000 RPCS
1000
IP_192.168.1.151
1000
RPCS Driver (Windows 2000/XP/Server 2003/2008/Vista/7)
1070
     0
  0
LAYOUT
  5
1E
102
{ACAD_XDICTIONARY
360
5680
102
}
102
{ACAD_REACTORS
330
1A
102
}
330
1A
100
AcDbPlotSettings
  1

  2
MF2730
  4

  6

 40
0.0
 41
0.0
 42
0.0
 43
0.0
 44
0.0
 45
0.0
 46
0.0
 47
0.0
 48
0.0
 49
0.0
140
0.0
141
0.0
142
1.0
143
1.0
 70
   688
 72
     0
 73
     0
 74
     5
  7
IMAGIO.ctb
 75
    16
147
1.0
148
0.0
149
0.0
100
AcDbLayout
  1
ﾚｲｱｳﾄ1
 70
     1
 71
     1
 10
0.0
 20
0.0
 11
420.0
 21
297.0
 12
0.0
 22
0.0
 32
0.0
 14
1.000000000000000E+20
 24
1.000000000000000E+20
 34
1.000000000000000E+20
 15
-1.000000000000000E+20
 25
-1.000000000000000E+20
 35
-1.000000000000000E+20
146
0.0
 13
0.0
 23
0.0
 33
0.0
 16
1.0
 26
0.0
 36
0.0
 17
0.0
 27
1.0
 37
0.0
 76
     0
330
1B
  0
LAYOUT
  5
26
102
{ACAD_XDICTIONARY
360
5683
102
}
102
{ACAD_REACTORS
330
1A
102
}
330
1A
100
AcDbPlotSettings
  1

  2
MF2730
  4

  6

 40
0.0
 41
0.0
 42
0.0
 43
0.0
 44
0.0
 45
0.0
 46
0.0
 47
0.0
 48
0.0
 49
0.0
140
0.0
141
0.0
142
1.0
143
1.0
 70
   688
 72
     0
 73
     0
 74
     5
  7
IMAGIO.ctb
 75
    16
147
1.0
148
0.0
149
0.0
100
AcDbLayout
  1
ﾚｲｱｳﾄ2
 70
     1
 71
     2
 10
0.0
 20
0.0
 11
12.0
 21
9.0
 12
0.0
 22
0.0
 32
0.0
 14
0.0
 24
0.0
 34
0.0
 15
0.0
 25
0.0
 35
0.0
146
0.0
 13
0.0
 23
0.0
 33
0.0
 16
1.0
 26
0.0
 36
0.0
 17
0.0
 27
1.0
 37
0.0
 76
     0
330
23
  0
MATERIAL
  5
234
102
{ACAD_XDICTIONARY
360
5687
102
}
102
{ACAD_REACTORS
330
232
102
}
330
232
100
AcDbMaterial
  1
ByBlock
 73
     1
 78
     1
172
     1
176
     1
270
     1
274
     1
  0
MATERIAL
  5
233
102
{ACAD_XDICTIONARY
360
5685
102
}
102
{ACAD_REACTORS
330
232
102
}
330
232
100
AcDbMaterial
  1
ByLayer
 73
     1
 78
     1
172
     1
176
     1
270
     1
274
     1
  0
MATERIAL
  5
235
102
{ACAD_XDICTIONARY
360
5689
102
}
102
{ACAD_REACTORS
330
232
102
}
330
232
100
AcDbMaterial
  1
Global
 73
     1
 78
     1
172
     1
176
     1
270
     1
274
     1
  0
MLEADERSTYLE
  5
2103
102
{ACAD_REACTORS
330
2102
102
}
330
2102
100
AcDbMLeaderStyle
170
     2
171
     1
172
     0
 90
        2
 40
0.0
 41
0.0
173
     1
 91
-1056964608
340
14
 92
       -2
290
     1
 42
2.0
291
     1
 43
0.36
  3
Standard
 44
4.0
300

342
11
174
     1
178
     6
175
     1
176
     0
 93
-1056964608
 45
4.0
292
     0
297
     0
 46
4.0
 94
-1056964608
 47
1.0
 49
1.0
140
1.0
293
     1
141
0.0
294
     1
177
     0
142
1.0
295
     0
296
     0
143
0.125
1001
ACAD_MLEADERVER
1070
     2
  0
MLINESTYLE
  5
18
102
{ACAD_REACTORS
330
17
102
}
330
17
100
AcDbMlineStyle
  2
STANDARD
 70
     0
  3

 62
   256
 51
90.0
 52
90.0
 71
     2
 49
0.5
 62
   256
  6
BYLAYER
 49
-0.5
 62
   256
  6
BYLAYER
  0
ACDBPLACEHOLDER
  5
F
102
{ACAD_REACTORS
330
E
102
}
330
E
  0
SCALE
  5
20F1
102
{ACAD_REACTORS
330
20F0
102
}
330
20F0
100
AcDbScale
 70
     0
300
1:1
140
1.0
141
1.0
290
     1
  0
SCALE
  5
20F2
102
{ACAD_REACTORS
330
20F0
102
}
330
20F0
100
AcDbScale
 70
     0
300
1:2
140
1.0
141
2.0
290
     0
  0
SCALE
  5
20F3
102
{ACAD_REACTORS
330
20F0
102
}
330
20F0
100
AcDbScale
 70
     0
300
1:4
140
1.0
141
4.0
290
     0
  0
SCALE
  5
20F4
102
{ACAD_REACTORS
330
20F0
102
}
330
20F0
100
AcDbScale
 70
     0
300
1:5
140
1.0
141
5.0
290
     0
  0
SCALE
  5
20F5
102
{ACAD_REACTORS
330
20F0
102
}
330
20F0
100
AcDbScale
 70
     0
300
1:8
140
1.0
141
8.0
290
     0
  0
SCALE
  5
20F6
102
{ACAD_REACTORS
330
20F0
102
}
330
20F0
100
AcDbScale
 70
     0
300
1:10
140
1.0
141
10.0
290
     0
  0
SCALE
  5
20F7
102
{ACAD_REACTORS
330
20F0
102
}
330
20F0
100
AcDbScale
 70
     0
300
1:16
140
1.0
141
16.0
290
     0
  0
SCALE
  5
20F8
102
{ACAD_REACTORS
330
20F0
102
}
330
20F0
100
AcDbScale
 70
     0
300
1:20
140
1.0
141
20.0
290
     0
  0
SCALE
  5
20F9
102
{ACAD_REACTORS
330
20F0
102
}
330
20F0
100
AcDbScale
 70
     0
300
1:30
140
1.0
141
30.0
290
     0
  0
SCALE
  5
20FA
102
{ACAD_REACTORS
330
20F0
102
}
330
20F0
100
AcDbScale
 70
     0
300
1:40
140
1.0
141
40.0
290
     0
  0
SCALE
  5
20FB
102
{ACAD_REACTORS
330
20F0
102
}
330
20F0
100
AcDbScale
 70
     0
300
1:50
140
1.0
141
50.0
290
     0
  0
SCALE
  5
20FC
102
{ACAD_REACTORS
330
20F0
102
}
330
20F0
100
AcDbScale
 70
     0
300
1:100
140
1.0
141
100.0
290
     0
  0
SCALE
  5
20FD
102
{ACAD_REACTORS
330
20F0
102
}
330
20F0
100
AcDbScale
 70
     0
300
2:1
140
2.0
141
1.0
290
     0
  0
SCALE
  5
20FE
102
{ACAD_REACTORS
330
20F0
102
}
330
20F0
100
AcDbScale
 70
     0
300
4:1
140
4.0
141
1.0
290
     0
  0
SCALE
  5
20FF
102
{ACAD_REACTORS
330
20F0
102
}
330
20F0
100
AcDbScale
 70
     0
300
8:1
140
8.0
141
1.0
290
     0
  0
SCALE
  5
2100
102
{ACAD_REACTORS
330
20F0
102
}
330
20F0
100
AcDbScale
 70
     0
300
10:1
140
10.0
141
1.0
290
     0
  0
SCALE
  5
2101
102
{ACAD_REACTORS
330
20F0
102
}
330
20F0
100
AcDbScale
 70
     0
300
100:1
140
100.0
141
1.0
290
     0
  0
TABLESTYLE
  5
249
102
{ACAD_XDICTIONARY
360
229F
102
}
102
{ACAD_REACTORS
330
248
102
}
330
248
100
AcDbTableStyle
  3
Standard
 70
     0
 71
     0
 40
1.5
 41
1.5
280
     0
281
     0
  7
STANDARD
140
4.5
170
     2
 62
     0
 63
     7
283
     0
274
    -2
284
     1
 64
     0
275
    -2
285
     1
 65
     0
276
    -2
286
     1
 66
     0
277
    -2
287
     1
 67
     0
278
    -2
288
     1
 68
     0
279
    -2
289
     1
 69
     0
  7
STANDARD
140
6.0
170
     5
 62
     0
 63
     7
283
     0
274
    -2
284
     1
 64
     0
275
    -2
285
     1
 65
     0
276
    -2
286
     1
 66
     0
277
    -2
287
     1
 67
     0
278
    -2
288
     1
 68
     0
279
    -2
289
     1
 69
     0
  7
STANDARD
140
4.5
170
     5
 62
     0
 63
     7
283
     0
274
    -2
284
     1
 64
     0
275
    -2
285
     1
 65
     0
276
    -2
286
     1
 66
     0
277
    -2
287
     1
 67
     0
278
    -2
288
     1
 68
     0
279
    -2
289
     1
 69
     0
  0
VISUALSTYLE
  5
23C
102
{ACAD_XDICTIONARY
360
5695
102
}
102
{ACAD_REACTORS
330
236
102
}
330
236
100
AcDbVisualStyle
  2
2dWireframe
 70
     4
 71
     0
 72
     2
 73
     0
 90
        0
 40
-0.6
 41
-30.0
 62
     5
 63
     7
 74
     1
 91
        4
 64
     7
 65
   257
 75
     1
175
     1
 42
1.0
 92
        0
 66
   257
 43
1.0
 76
     1
 77
     6
 78
     2
 67
     7
 79
     5
170
     0
171
     0
290
     0
174
     0
 93
        1
 44
0.0
173
     0
291
     0
 45
0.0
1001
ACAD
1000
AcDbSavedByObjectVersion
1070
     0
  0
VISUALSTYLE
  5
23E
102
{ACAD_XDICTIONARY
360
5699
102
}
102
{ACAD_REACTORS
330
236
102
}
330
236
100
AcDbVisualStyle
  2
3D Hidden
 70
     6
 71
     1
 72
     2
 73
     2
 90
        0
 40
-0.6
 41
-30.0
 62
     5
 63
     7
 74
     2
 91
        2
 64
     7
 65
   257
 75
     2
175
     1
 42
40.0
 92
        0
 66
   257
 43
1.0
 76
     1
 77
     6
 78
     2
 67
     7
 79
     3
170
     0
171
     0
290
     0
174
     0
 93
        1
 44
0.0
173
     0
291
     0
 45
0.0
1001
ACAD
1000
AcDbSavedByObjectVersion
1070
     0
  0
VISUALSTYLE
  5
23D
102
{ACAD_XDICTIONARY
360
5697
102
}
102
{ACAD_REACTORS
330
236
102
}
330
236
100
AcDbVisualStyle
  2
3dWireframe
 70
     5
 71
     0
 72
     2
 73
     0
 90
        0
 40
-0.6
 41
-30.0
 62
     5
 63
     7
 74
     1
 91
        4
 64
     7
 65
   257
 75
     1
175
     1
 42
1.0
 92
        0
 66
   257
 43
1.0
 76
     1
 77
     6
 78
     2
 67
     7
 79
     5
170
     0
171
     0
290
     0
174
     0
 93
        1
 44
0.0
173
     0
291
     0
 45
0.0
1001
ACAD
1000
AcDbSavedByObjectVersion
1070
     0
  0
VISUALSTYLE
  5
23B
102
{ACAD_XDICTIONARY
360
5693
102
}
102
{ACAD_REACTORS
330
236
102
}
330
236
100
AcDbVisualStyle
  2
Basic
 70
     7
 71
     1
 72
     0
 73
     1
 90
        0
 40
-0.6
 41
-30.0
 62
     5
 63
     7
 74
     0
 91
        4
 64
     7
 65
   257
 75
     1
175
     1
 42
1.0
 92
        8
 66
     7
 43
1.0
 76
     1
 77
     6
 78
     2
 67
     7
 79
     5
170
     0
171
     0
290
     0
174
     0
 93
        1
 44
0.0
173
     0
291
     1
 45
0.0
1001
ACAD
1000
AcDbSavedByObjectVersion
1070
     0
  0
VISUALSTYLE
  5
242
102
{ACAD_XDICTIONARY
360
56A1
102
}
102
{ACAD_REACTORS
330
236
102
}
330
236
100
AcDbVisualStyle
  2
Brighten
 70
    12
 71
     2
 72
     2
 73
     0
 90
        0
 40
-0.6
 41
-30.0
 62
     5
 63
     7
 74
     1
 91
        4
 64
     7
 65
   257
 75
     1
175
     1
 42
1.0
 92
        8
 66
     7
 43
1.0
 76
     1
 77
     6
 78
     2
 67
     7
 79
     5
170
     0
171
     0
290
     0
174
     0
 93
        1
 44
50.0
173
     0
291
     1
 45
0.0
1001
ACAD
1000
AcDbSavedByObjectVersion
1070
     0
  0
VISUALSTYLE
  5
246
102
{ACAD_XDICTIONARY
360
56A9
102
}
102
{ACAD_REACTORS
330
236
102
}
330
236
100
AcDbVisualStyle
  2
ColorChange
 70
    16
 71
     2
 72
     2
 73
     3
 90
        0
 40
-0.6
 41
-30.0
 62
     5
 63
     8
 74
     1
 91
        4
 64
     7
 65
   257
 75
     1
175
     1
 42
1.0
 92
        8
 66
     8
 43
1.0
 76
     1
 77
     6
 78
     2
 67
     7
 79
     5
170
     0
171
     0
290
     0
174
     0
 93
        1
 44
0.0
173
     0
291
     1
 45
0.0
1001
ACAD
1000
AcDbSavedByObjectVersion
1070
     0
  0
VISUALSTYLE
  5
23F
102
{ACAD_XDICTIONARY
360
569B
102
}
102
{ACAD_REACTORS
330
236
102
}
330
236
100
AcDbVisualStyle
  2
Conceptual
 70
     9
 71
     3
 72
     2
 73
     0
 90
        0
 40
-0.6
 41
-30.0
 62
     5
 63
     7
 74
     2
 91
        2
 64
     7
 65
   257
 75
     1
175
     1
 42
40.0
 92
        8
 66
     7
 43
1.0
 76
     1
 77
     6
 78
     2
 67
     7
 79
     3
170
     0
171
     0
290
     0
174
     0
 93
        1
 44
0.0
173
     0
291
     0
 45
0.0
1001
ACAD
1000
AcDbSavedByObjectVersion
1070
     0
  0
VISUALSTYLE
  5
241
102
{ACAD_XDICTIONARY
360
569F
102
}
102
{ACAD_REACTORS
330
236
102
}
330
236
100
AcDbVisualStyle
  2
Dim
 70
    11
 71
     2
 72
     2
 73
     0
 90
        0
 40
-0.6
 41
-30.0
 62
     5
 63
     7
 74
     1
 91
        4
 64
     7
 65
   257
 75
     1
175
     1
 42
1.0
 92
        8
 66
     7
 43
1.0
 76
     1
 77
     6
 78
     2
 67
     7
 79
     5
170
     0
171
     0
290
     0
174
     0
 93
        1
 44
-50.0
173
     0
291
     1
 45
0.0
1001
ACAD
1000
AcDbSavedByObjectVersion
1070
     0
  0
VISUALSTYLE
  5
20EF
102
{ACAD_XDICTIONARY
360
56BE
102
}
102
{ACAD_REACTORS
330
236
102
}
330
236
100
AcDbVisualStyle
  2
EdgeColorOff
 70
    22
 71
     2
 72
     2
 73
     0
 90
        0
 40
-0.6
 41
-30.0
 62
     5
 63
     7
 74
     1
 91
        4
 64
     7
 65
   257
 75
     1
175
     1
 42
1.0
 92
        8
 66
     7
 43
1.0
 76
     1
 77
     6
 78
     2
 67
     7
 79
     5
170
     0
171
     0
290
     0
174
     0
 93
        1
 44
0.0
173
     0
291
     1
 45
0.0
1001
ACAD
1000
AcDbSavedByObjectVersion
1070
     0
  0
VISUALSTYLE
  5
245
102
{ACAD_XDICTIONARY
360
56A7
102
}
102
{ACAD_REACTORS
330
236
102
}
330
236
100
AcDbVisualStyle
  2
Facepattern
 70
    15
 71
     2
 72
     2
 73
     0
 90
        0
 40
-0.6
 41
-30.0
 62
     5
 63
     7
 74
     1
 91
        4
 64
     7
 65
   257
 75
     1
175
     1
 42
1.0
 92
        8
 66
     7
 43
1.0
 76
     1
 77
     6
 78
     2
 67
     7
 79
     5
170
     0
171
     0
290
     0
174
     0
 93
        1
 44
0.0
173
     0
291
     1
 45
0.0
1001
ACAD
1000
AcDbSavedByObjectVersion
1070
     0
  0
VISUALSTYLE
  5
237
102
{ACAD_XDICTIONARY
360
568B
102
}
102
{ACAD_REACTORS
330
236
102
}
330
236
100
AcDbVisualStyle
  2
Flat
 70
     0
 71
     2
 72
     1
 73
     1
 90
        2
 40
-0.6
 41
30.0
 62
     5
 63
     7
 74
     0
 91
        4
 64
     7
 65
   257
 75
     1
175
     1
 42
1.0
 92
        8
 66
     7
 43
1.0
 76
     1
 77
     6
 78
     2
 67
     7
 79
     5
170
     0
171
     0
290
     0
174
     0
 93
       13
 44
0.0
173
     0
291
     1
 45
0.0
1001
ACAD
1000
AcDbSavedByObjectVersion
1070
     0
  0
VISUALSTYLE
  5
238
102
{ACAD_XDICTIONARY
360
568D
102
}
102
{ACAD_REACTORS
330
236
102
}
330
236
100
AcDbVisualStyle
  2
FlatWithEdges
 70
     1
 71
     2
 72
     1
 73
     1
 90
        2
 40
-0.6
 41
30.0
 62
     5
 63
     7
 74
     1
 91
        4
 64
     7
 65
   257
 75
     1
175
     1
 42
1.0
 92
        0
 66
   257
 43
1.0
 76
     1
 77
     6
 78
     2
 67
     7
 79
     5
170
     0
171
     0
290
     0
174
     0
 93
       13
 44
0.0
173
     0
291
     1
 45
0.0
1001
ACAD
1000
AcDbSavedByObjectVersion
1070
     0
  0
VISUALSTYLE
  5
239
102
{ACAD_XDICTIONARY
360
568F
102
}
102
{ACAD_REACTORS
330
236
102
}
330
236
100
AcDbVisualStyle
  2
Gouraud
 70
     2
 71
     2
 72
     2
 73
     1
 90
        2
 40
-0.6
 41
30.0
 62
     5
 63
     7
 74
     0
 91
        4
 64
     7
 65
   257
 75
     1
175
     1
 42
1.0
 92
        0
 66
     7
 43
1.0
 76
     1
 77
     6
 78
     2
 67
     7
 79
     5
170
     0
171
     0
290
     0
174
     0
 93
       13
 44
0.0
173
     0
291
     1
 45
0.0
1001
ACAD
1000
AcDbSavedByObjectVersion
1070
     0
  0
VISUALSTYLE
  5
23A
102
{ACAD_XDICTIONARY
360
5691
102
}
102
{ACAD_REACTORS
330
236
102
}
330
236
100
AcDbVisualStyle
  2
GouraudWithEdges
 70
     3
 71
     2
 72
     2
 73
     1
 90
        2
 40
-0.6
 41
30.0
 62
     5
 63
     7
 74
     1
 91
        4
 64
     7
 65
   257
 75
     1
175
     1
 42
1.0
 92
        0
 66
   257
 43
1.0
 76
     1
 77
     6
 78
     2
 67
     7
 79
     5
170
     0
171
     0
290
     0
174
     0
 93
       13
 44
0.0
173
     0
291
     1
 45
0.0
1001
ACAD
1000
AcDbSavedByObjectVersion
1070
     0
  0
VISUALSTYLE
  5
20E7
102
{ACAD_XDICTIONARY
360
56AE
102
}
102
{ACAD_REACTORS
330
236
102
}
330
236
100
AcDbVisualStyle
  2
Hidden
 70
     6
 71
     1
 72
     2
 73
     2
 90
        0
 40
-0.6
 41
-30.0
 62
     5
 63
     7
 74
     2
 91
        2
 64
     7
 65
   257
 75
     2
175
     1
 42
40.0
 92
        0
 66
   257
 43
1.0
 76
     1
 77
     6
 78
     2
 67
     7
 79
     3
170
     0
171
     0
290
     0
174
     0
 93
        1
 44
0.0
173
     0
291
     0
 45
0.0
1001
ACAD
1000
AcDbSavedByObjectVersion
1070
     0
  0
VISUALSTYLE
  5
20ED
102
{ACAD_XDICTIONARY
360
56BA
102
}
102
{ACAD_REACTORS
330
236
102
}
330
236
100
AcDbVisualStyle
  2
JitterOff
 70
    20
 71
     2
 72
     2
 73
     0
 90
        0
 40
-0.6
 41
-30.0
 62
     5
 63
     7
 74
     1
 91
        4
 64
     7
 65
   257
 75
     1
175
     1
 42
1.0
 92
       10
 66
     7
 43
1.0
 76
     1
 77
     6
 78
     2
 67
     7
 79
     5
170
     0
171
     0
290
     0
174
     0
 93
        1
 44
0.0
173
     0
291
     1
 45
0.0
1001
ACAD
1000
AcDbSavedByObjectVersion
1070
     0
  0
VISUALSTYLE
  5
244
102
{ACAD_XDICTIONARY
360
56A5
102
}
102
{ACAD_REACTORS
330
236
102
}
330
236
100
AcDbVisualStyle
  2
Linepattern
 70
    14
 71
     2
 72
     2
 73
     0
 90
        0
 40
-0.6
 41
-30.0
 62
     5
 63
     7
 74
     1
 91
        4
 64
     7
 65
   257
 75
     7
175
     7
 42
1.0
 92
        8
 66
     7
 43
1.0
 76
     1
 77
     6
 78
     2
 67
     7
 79
     5
170
     0
171
     0
290
     0
174
     0
 93
        1
 44
0.0
173
     0
291
     1
 45
0.0
1001
ACAD
1000
AcDbSavedByObjectVersion
1070
     0
  0
VISUALSTYLE
  5
20EE
102
{ACAD_XDICTIONARY
360
56BC
102
}
102
{ACAD_REACTORS
330
236
102
}
330
236
100
AcDbVisualStyle
  2
OverhangOff
 70
    21
 71
     2
 72
     2
 73
     0
 90
        0
 40
-0.6
 41
-30.0
 62
     5
 63
     7
 74
     1
 91
        4
 64
     7
 65
   257
 75
     1
175
     1
 42
1.0
 92
        9
 66
     7
 43
1.0
 76
     1
 77
     6
 78
     2
 67
     7
 79
     5
170
     0
171
     0
290
     0
174
     0
 93
        1
 44
0.0
173
     0
291
     1
 45
0.0
1001
ACAD
1000
AcDbSavedByObjectVersion
1070
     0
  0
VISUALSTYLE
  5
240
102
{ACAD_XDICTIONARY
360
569D
102
}
102
{ACAD_REACTORS
330
236
102
}
330
236
100
AcDbVisualStyle
  2
Realistic
 70
     8
 71
     2
 72
     2
 73
     0
 90
        0
 40
-0.6
 41
-30.0
 62
     5
 63
     7
 74
     1
 91
        0
 64
     7
 65
   257
 75
     1
175
     1
 42
1.0
 92
        8
 66
     8
 43
1.0
 76
     1
 77
     6
 78
     2
 67
     7
 79
     5
170
     0
171
     0
290
     0
174
     0
 93
       13
 44
0.0
173
     0
291
     0
 45
0.0
1001
ACAD
1000
AcDbSavedByObjectVersion
1070
     0
  0
VISUALSTYLE
  5
20EC
102
{ACAD_XDICTIONARY
360
56B8
102
}
102
{ACAD_REACTORS
330
236
102
}
330
236
100
AcDbVisualStyle
  2
Shaded
 70
    27
 71
     2
 72
     2
 73
     1
 90
        2
 40
-0.6
 41
30.0
 62
     5
 63
     7
 74
     0
 91
        4
 64
     7
 65
   257
 75
     1
175
     1
 42
1.0
 92
        8
 66
   257
 43
1.0
 76
     1
 77
     6
 78
     2
 67
     8
 79
     3
170
     0
171
     0
290
     0
174
     0
 93
        5
 44
0.0
173
     0
291
     0
 45
0.0
1001
ACAD
1000
AcDbSavedByObjectVersion
1070
     0
  0
VISUALSTYLE
  5
20EB
102
{ACAD_XDICTIONARY
360
56B6
102
}
102
{ACAD_REACTORS
330
236
102
}
330
236
100
AcDbVisualStyle
  2
Shaded with edges
 70
    26
 71
     2
 72
     2
 73
     1
 90
        2
 40
-0.6
 41
30.0
 62
     5
 63
     7
 74
     1
 91
       10
 64
     7
 65
   257
 75
     2
175
     1
 42
1.0
 92
        8
 66
   257
 43
1.0
 76
     1
 77
     6
 78
     2
 67
     7
 79
     3
170
     0
171
     0
290
     0
174
     0
 93
        5
 44
0.0
173
     0
291
     0
 45
0.0
1001
ACAD
1000
AcDbSavedByObjectVersion
1070
     0
  0
VISUALSTYLE
  5
20E8
102
{ACAD_XDICTIONARY
360
56B0
102
}
102
{ACAD_REACTORS
330
236
102
}
330
236
100
AcDbVisualStyle
  2
Shades of Gray
 70
    23
 71
     2
 72
     2
 73
     3
 90
        0
 40
-0.6
 41
-30.0
 62
     5
 63
     7
 74
     2
 91
        2
 64
     7
 65
     7
 75
     1
175
     1
 42
40.0
 92
        8
 66
     7
 43
1.0
 76
     1
 77
     6
 78
     2
 67
     7
 79
     3
170
     0
171
     0
290
     0
174
     0
 93
        1
 44
0.0
173
     0
291
     0
 45
0.0
1001
ACAD
1000
AcDbSavedByObjectVersion
1070
     0
  0
VISUALSTYLE
  5
20E9
102
{ACAD_XDICTIONARY
360
56B2
102
}
102
{ACAD_REACTORS
330
236
102
}
330
236
100
AcDbVisualStyle
  2
Sketchy
 70
    24
 71
     1
 72
     2
 73
     2
 90
        0
 40
-0.6
 41
-30.0
 62
     5
 63
     7
 74
     2
 91
        2
 64
     7
 65
     7
 75
     1
175
     1
 42
40.0
 92
       11
 66
     7
 43
1.0
 76
     1
 77
     6
 78
     2
 67
     7
 79
     6
170
     0
171
     0
290
     0
174
     0
 93
        1
 44
0.0
173
     0
291
     0
 45
0.0
1001
ACAD
1000
AcDbSavedByObjectVersion
1070
     0
  0
VISUALSTYLE
  5
243
102
{ACAD_XDICTIONARY
360
56A3
102
}
102
{ACAD_REACTORS
330
236
102
}
330
236
100
AcDbVisualStyle
  2
Thicken
 70
    13
 71
     2
 72
     2
 73
     0
 90
        0
 40
-0.6
 41
-30.0
 62
     5
 63
     7
 74
     1
 91
        4
 64
     7
 65
   257
 75
     1
175
     1
 42
1.0
 92
       12
 66
     7
 43
1.0
 76
     1
 77
     6
 78
     2
 67
     7
 79
     5
170
     0
171
     0
290
     0
174
     0
 93
        1
 44
0.0
173
     0
291
     1
 45
0.0
1001
ACAD
1000
AcDbSavedByObjectVersion
1070
     0
  0
VISUALSTYLE
  5
20E6
102
{ACAD_XDICTIONARY
360
56AC
102
}
102
{ACAD_REACTORS
330
236
102
}
330
236
100
AcDbVisualStyle
  2
Wireframe
 70
     5
 71
     0
 72
     2
 73
     0
 90
        0
 40
-0.6
 41
-30.0
 62
     5
 63
     7
 74
     1
 91
        4
 64
     7
 65
   257
 75
     1
175
     1
 42
1.0
 92
        0
 66
   257
 43
1.0
 76
     1
 77
     6
 78
     2
 67
     7
 79
     3
170
     0
171
     0
290
     0
174
     0
 93
        1
 44
0.0
173
     0
291
     0
 45
0.0
1001
ACAD
1000
AcDbSavedByObjectVersion
1070
     0
  0
VISUALSTYLE
  5
20EA
102
{ACAD_XDICTIONARY
360
56B4
102
}
102
{ACAD_REACTORS
330
236
102
}
330
236
100
AcDbVisualStyle
  2
X-Ray
 70
    25
 71
     2
 72
     2
 73
     1
 90
        1
 40
0.5
 41
-30.0
 62
     5
 63
     7
 74
     1
 91
        0
 64
     7
 65
   257
 75
     1
175
     1
 42
1.0
 92
        8
 66
     7
 43
1.0
 76
     1
 77
     6
 78
     2
 67
     7
 79
     3
170
     0
171
     0
290
     0
174
     0
 93
       13
 44
0.0
173
     0
291
     0
 45
0.0
1001
ACAD
1000
AcDbSavedByObjectVersion
1070
     0
  0
DICTIONARYVAR
  5
22EE
102
{ACAD_REACTORS
330
34
102
}
330
34
100
DictionaryVariables
280
     0
  1
2:1
  0
DICTIONARYVAR
  5
22ED
102
{ACAD_REACTORS
330
34
102
}
330
34
100
DictionaryVariables
280
     0
  1
STANDARD
  0
DICTIONARYVAR
  5
2C0
102
{ACAD_REACTORS
330
34
102
}
330
34
100
DictionaryVariables
280
     0
  1
STANDARD
  0
DICTIONARYVAR
  5
5677
102
{ACAD_REACTORS
330
34
102
}
330
34
100
DictionaryVariables
280
     0
  1
2
  0
DICTIONARYVAR
  5
3FF8
102
{ACAD_REACTORS
330
34
102
}
330
34
100
DictionaryVariables
280
     0
  1
1
  0
DICTIONARYVAR
  5
33A3
102
{ACAD_REACTORS
330
34
102
}
330
34
100
DictionaryVariables
280
     0
  1
1
  0
DICTIONARYVAR
  5
35
102
{ACAD_REACTORS
330
34
102
}
330
34
100
DictionaryVariables
280
     0
  1
0
  0
DICTIONARYVAR
  5
5675
102
{ACAD_REACTORS
330
34
102
}
330
34
100
DictionaryVariables
280
     0
  1
127
  0
DICTIONARYVAR
  5
5676
102
{ACAD_REACTORS
330
34
102
}
330
34
100
DictionaryVariables
280
     0
  1
0
  0
DICTIONARY
  5
C4E
102
{ACAD_REACTORS
330
43
102
}
330
43
100
AcDbDictionary
281
     1
  0
DICTIONARY
  5
15F
102
{ACAD_REACTORS
330
43
102
}
330
43
100
AcDbDictionary
281
     1
  0
XRECORD
  5
2A8
102
{ACAD_REACTORS
330
43
102
}
330
43
100
AcDbXrecord
280
     1
 90
-1023410169
  0
DICTIONARY
  5
229D
330
22
100
AcDbDictionary
280
     1
281
     1
  3
ACAD_XREC_ROUNDTRIP
360
5682
  3
AcPublish_PlotSettingsOverride
360
33AC
  3
ADSK_XREC_LAYOUTTHUMBNAIL
360
229E
  0
DICTIONARY
  5
5680
330
1E
100
AcDbDictionary
280
     1
281
     1
  3
ACAD_XREC_ROUNDTRIP
360
5681
  0
DICTIONARY
  5
5683
330
26
100
AcDbDictionary
280
     1
281
     1
  3
ACAD_XREC_ROUNDTRIP
360
5684
  0
DICTIONARY
  5
5687
330
234
100
AcDbDictionary
280
     1
281
     1
  3
ACAD_XREC_ROUNDTRIP
360
5688
  0
DICTIONARY
  5
5685
330
233
100
AcDbDictionary
280
     1
281
     1
  3
ACAD_XREC_ROUNDTRIP
360
5686
  0
DICTIONARY
  5
5689
330
235
100
AcDbDictionary
280
     1
281
     1
  3
ACAD_XREC_ROUNDTRIP
360
568A
  0
DICTIONARY
  5
229F
330
249
100
AcDbDictionary
280
     1
281
     1
  3
ACAD_ROUNDTRIP_2008_TABLESTYLE_CELLSTYLEMAP
360
5678
  3
ACAD_XREC_ROUNDTRIP
360
56AB
  0
DICTIONARY
  5
5695
330
23C
100
AcDbDictionary
280
     1
281
     1
  3
ACAD_XREC_ROUNDTRIP
360
5696
  0
DICTIONARY
  5
5699
330
23E
100
AcDbDictionary
280
     1
281
     1
  3
ACAD_XREC_ROUNDTRIP
360
569A
  0
DICTIONARY
  5
5697
330
23D
100
AcDbDictionary
280
     1
281
     1
  3
ACAD_XREC_ROUNDTRIP
360
5698
  0
DICTIONARY
  5
5693
330
23B
100
AcDbDictionary
280
     1
281
     1
  3
ACAD_XREC_ROUNDTRIP
360
5694
  0
DICTIONARY
  5
56A1
330
242
100
AcDbDictionary
280
     1
281
     1
  3
ACAD_XREC_ROUNDTRIP
360
56A2
  0
DICTIONARY
  5
56A9
330
246
100
AcDbDictionary
280
     1
281
     1
  3
ACAD_XREC_ROUNDTRIP
360
56AA
  0
DICTIONARY
  5
569B
330
23F
100
AcDbDictionary
280
     1
281
     1
  3
ACAD_XREC_ROUNDTRIP
360
569C
  0
DICTIONARY
  5
569F
330
241
100
AcDbDictionary
280
     1
281
     1
  3
ACAD_XREC_ROUNDTRIP
360
56A0
  0
DICTIONARY
  5
56BE
330
20EF
100
AcDbDictionary
280
     1
281
     1
  3
ACAD_XREC_ROUNDTRIP
360
56BF
  0
DICTIONARY
  5
56A7
330
245
100
AcDbDictionary
280
     1
281
     1
  3
ACAD_XREC_ROUNDTRIP
360
56A8
  0
DICTIONARY
  5
568B
330
237
100
AcDbDictionary
280
     1
281
     1
  3
ACAD_XREC_ROUNDTRIP
360
568C
  0
DICTIONARY
  5
568D
330
238
100
AcDbDictionary
280
     1
281
     1
  3
ACAD_XREC_ROUNDTRIP
360
568E
  0
DICTIONARY
  5
568F
330
239
100
AcDbDictionary
280
     1
281
     1
  3
ACAD_XREC_ROUNDTRIP
360
5690
  0
DICTIONARY
  5
5691
330
23A
100
AcDbDictionary
280
     1
281
     1
  3
ACAD_XREC_ROUNDTRIP
360
5692
  0
DICTIONARY
  5
56AE
330
20E7
100
AcDbDictionary
280
     1
281
     1
  3
ACAD_XREC_ROUNDTRIP
360
56AF
  0
DICTIONARY
  5
56BA
330
20ED
100
AcDbDictionary
280
     1
281
     1
  3
ACAD_XREC_ROUNDTRIP
360
56BB
  0
DICTIONARY
  5
56A5
330
244
100
AcDbDictionary
280
     1
281
     1
  3
ACAD_XREC_ROUNDTRIP
360
56A6
  0
DICTIONARY
  5
56BC
330
20EE
100
AcDbDictionary
280
     1
281
     1
  3
ACAD_XREC_ROUNDTRIP
360
56BD
  0
DICTIONARY
  5
569D
330
240
100
AcDbDictionary
280
     1
281
     1
  3
ACAD_XREC_ROUNDTRIP
360
569E
  0
DICTIONARY
  5
56B8
330
20EC
100
AcDbDictionary
280
     1
281
     1
  3
ACAD_XREC_ROUNDTRIP
360
56B9
  0
DICTIONARY
  5
56B6
330
20EB
100
AcDbDictionary
280
     1
281
     1
  3
ACAD_XREC_ROUNDTRIP
360
56B7
  0
DICTIONARY
  5
56B0
330
20E8
100
AcDbDictionary
280
     1
281
     1
  3
ACAD_XREC_ROUNDTRIP
360
56B1
  0
DICTIONARY
  5
56B2
330
20E9
100
AcDbDictionary
280
     1
281
     1
  3
ACAD_XREC_ROUNDTRIP
360
56B3
  0
DICTIONARY
  5
56A3
330
243
100
AcDbDictionary
280
     1
281
     1
  3
ACAD_XREC_ROUNDTRIP
360
56A4
  0
DICTIONARY
  5
56AC
330
20E6
100
AcDbDictionary
280
     1
281
     1
  3
ACAD_XREC_ROUNDTRIP
360
56AD
  0
DICTIONARY
  5
56B4
330
20EA
100
AcDbDictionary
280
     1
281
     1
  3
ACAD_XREC_ROUNDTRIP
360
56B5
  0
XRECORD
  5
5682
102
{ACAD_REACTORS
330
229D
102
}
330
229D
100
AcDbXrecord
280
     1
102
SHADEPLOT
 70
     0
102
SHADEPLOTRESLEVEL
 70
     2
102
SHADEPLOTCUSTOMDPI
 70
   300
  0
PLOTSETTINGS
  5
33AC
102
{ACAD_XDICTIONARY
360
56C0
102
}
102
{ACAD_REACTORS
330
229D
102
}
330
229D
100
AcDbPlotSettings
  1

  2
DWG To PDF.pc3
  4
ISO_full_bleed_A3_(420.00_x_297.00_MM)
  6
AM_VIEW1
 40
0.7937499880790711
 41
0.7937499880790711
 42
0.79376220703125
 43
0.79376220703125
 44
420.0
 45
297.0
 46
-0.8231684030010342
 47
-0.7994011620120887
 48
0.0
 49
0.0
140
0.0
141
0.0
142
2.0
143
1.0
 70
 11940
 72
     1
 73
     0
 74
     1
  7
IMAGIO.ctb
 75
     0
147
1.920232922602835
148
-222.7669116555651
149
-167.109179697394
1001
ACAD_PSEXT
1000
DWG To PDF.pc3
1000
DWG To PDF
1000
ファイル
1000

1070
     0
  0
XRECORD
  5
229E
102
{ACAD_REACTORS
330
229D
102
}
330
229D
100
AcDbXrecord
280
     1
310
28000000000100008D0000000100080000000000008D0000000000000000000000010000000000000000000000000000FFFFFF000000000000000000000000000000000000000000000000000000000000000000330000006600000099000000CC000000FF00000000330000333300006633000099330000CC330000FF3300
310
0000660000336600006666000099660000CC660000FF66000000990000339900006699000099990000CC990000FF99000000CC000033CC000066CC000099CC0000CCCC0000FFCC000000FF000033FF000066FF000099FF0000CCFF0000FFFF000000003300330033006600330099003300CC003300FF003300003333003333
310
33006633330099333300CC333300FF33330000663300336633006666330099663300CC663300FF66330000993300339933006699330099993300CC993300FF99330000CC330033CC330066CC330099CC3300CCCC3300FFCC330000FF330033FF330066FF330099FF3300CCFF3300FFFF330000006600330066006600660099
310
006600CC006600FF00660000336600333366006633660099336600CC336600FF33660000666600336666006666660099666600CC666600FF66660000996600339966006699660099996600CC996600FF99660000CC660033CC660066CC660099CC6600CCCC6600FFCC660000FF660033FF660066FF660099FF6600CCFF6600
310
FFFF660000009900330099006600990099009900CC009900FF00990000339900333399006633990099339900CC339900FF33990000669900336699006666990099669900CC669900FF66990000999900339999006699990099999900CC999900FF99990000CC990033CC990066CC990099CC9900CCCC9900FFCC990000FF99
310
0033FF990066FF990099FF9900CCFF9900FFFF99000000CC003300CC006600CC009900CC00CC00CC00FF00CC000033CC003333CC006633CC009933CC00CC33CC00FF33CC000066CC003366CC006666CC009966CC00CC66CC00FF66CC000099CC003399CC006699CC009999CC00CC99CC00FF99CC0000CCCC0033CCCC0066CC
310
CC0099CCCC00CCCCCC00FFCCCC0000FFCC0033FFCC0066FFCC0099FFCC00CCFFCC00FFFFCC000000FF003300FF006600FF009900FF00CC00FF00FF00FF000033FF003333FF006633FF009933FF00CC33FF00FF33FF000066FF003366FF006666FF009966FF00CC66FF00FF66FF000099FF003399FF006699FF009999FF00CC
310
99FF00FF99FF0000CCFF0033CCFF0066CCFF0099CCFF00CCCCFF00FFCCFF0000FFFF0033FFFF0066FFFF0099FFFF00CCFFFF00FFFFFF00000000000D0D0D001A1A1A00282828003535350043434300505050005D5D5D006B6B6B00787878008686860093939300A1A1A100AEAEAE00BBBBBB00C9C9C900D6D6D600E4E4E400
310
F1F1F100FFFFFF000000000000000000000000000000000000000000000000000000000000000000000000000000000000000000000000000000000000000000000000000000000000000000000000000000000000000000000000000000000000000000000000000000000000000000000000000000000000000000000000
310
00000000000000000000000000000000000000000000000000000000000000000000000000000000000000000000000000000000000000000000000000000000000000000000000000000000000000000000000000000000000000000000000000000000000000000000000000000000000000000000000000000000000000
310
00000000000000000000000000000000000000000000000000000000000000000000000000000000000000000000000000000000000000000000000000000000000000000000000000000000000000000000000000000000000000000000000000000000000000000000000000000000000000000000000000000000000000
310
00000000000000000000000000000000000000000000000000000000000000000000000000000000000000000000000000000000000000000000000000000000000000000000000000000000000000000000000000000000000000000000000000000000000000000000000000000000000000000000000000000000000000
310
00000000000000000000000000000000000000000000000000000000000000000000000000000000000000000000000000000000000000000000000000000000000000000000000000000000000000000000000000000000000000000000000000000000000000000000000000000000000000000000000000000000000000
310
00000000000000000000000000000000000000000000000000000000000000000000000000000000000000000000000000000000000000000000000000000000000000000000000000000000000000000000000000000000000000000000000000000000000000000000000000000000000000000000000000000000000000
310
00000000000000000000000000000000000000000000000000000000000000000000000000000000000000000000000000000000000000000000000000000000000000000000000000000000000000000000000000000000000000000000000000000000000000000000000000000000000000000000000000000000000000
310
00000000000000000000000000000000000000000000000000000000000000000000000000000000000000000000000000000000000000000000000000000000000000000000000000000000000000000000000000000000000000000000000000000000000000000000000000000000000000000000000000000000000000
310
00000000000000000000000000000000000000000000000000000000000000000000000000000000000000000000000000000000000000000000000000000000000000000000000000000000000000000000000000000000000000000000000000000000000000000000000000000000000000000000000000000000000000
310
00000000000000000000000000000000000000000000000000000000000000000000000000000000000000000000000000000000000000000000000000000000000000000000000000000000000000000000000000000000000000000000000000000000000000000000000000000000000000000000000000000000000000
310
00000000000000000000000000000000000000000000000000000000000000000000000000000000000000000000000000000000000000000000000000000000000000000000000000000000000000000000000000000000000000000000000000000000000000000000000000000000000000000000000000000000000000
310
00000000000000000000000000000000000000000000000000000000000000000000000000000000000000000000000000000000000000000000000000000000000000000000000000000000000000000000000000000000000000000000000000000000000000000000000000000000000000000000000000000000000000
310
00000000000000000000000000000000000000000000000000000000000000000000000000000000000000000000000000000000000000000000000000000000000000000000000000000000000000000000000000000000000000000000000000000000000000000000000000000000000000000000000000000000000000
310
00000000000000000000000000000000000000000000000000000000000000000000000000000000000000000000000000000000000000000000000000000000000000000000000000000000000000000000000000000000000000000000000000000000000000000000000000000000000000000000000000000000000000
310
00000000000000000000000000000000000000000000000000000000000000000000000000000000000000000000000000000000000000000000000000000000000000000000000000000000000000000000000000000000000000000000000000000000000000000000000000000000000000000000000000000000000000
310
00000000000000000000000000000000000000000000000000000000000000000000000000000000000000000000000000000000000000000000000000000000000000000000000000000000000000000000000000000000000000000000000000000000000000000000000000000000000000000000000000000000000000
310
00000000000000000000000000000000000000000000000000000000000000000000000000000000000000000000000000000000000000000000000000000000000000000000000000000000000000000000000000000000000000000000000000000000000000000000000000000000000000000000000000000000000000
310
00000000000000000000000000000000000000000000000000000000000000000000000000000000000000000000000000000000000000000000000000000000000000000000000000000000000000000000000000000000000000000000000000000000000000000000000000000000000000000000000000000000000000
310
00000000000000000000000000000000000000000000000000000000000000000000000000000000000000000000000000000000000000000000000000000000000000000000000000000000000000000000000000000000000000000000000000000000000000000000000000000000000000000000000000000000000000
310
00000000000000000000000000000000000000000000000000000000000000000000000000000000000000000000000000000000000000000000000000000000000000000000000000000000000000000000000000000000000000000000000000000000000000000000000000000000000000000000000000000000000000
310
00000000000000000000000000000000000000000000000000000000000000000000000000000000000000000000000000000000000000000000000000000000000000000000000000000000000000000000000000000000000000000000000000000000000000000000000000000000000000000000000000000000000000
310
00000000000000000000000000000000000000000000000000000000000000000000000000000000000000000000000000000000000000000000000000000000000000000000000000000000000000000000000000000000000000000000000000000000000000000000000000000000000000000000000000000000000000
310
00000000000000000000000000000000000000000000000000000000000000000000000000000000000000000000000000000000000000000000000000000000000000000000000000000000000000000000000000000000000000000000000000000000000000000000000000000000000000000000000000000000000000
310
00000000000000000000000000000000000000000000000000000000000000000000000000000000000000000000000000000000000000000000000000000000000000000000000000000000000000000000000000000000000000000000000000000000000000000000000000000000000000000000000000000000000000
310
00000000000000000000000000000000000000000000000000000000000000000000000000000000000000000000000000000000000000000000000000000000000000000000000000000000000000000000000000000000000000000000000000000000000000000000000000000000000000000000000000000000000000
310
00000000000000000000000000000000000000000000000000000000000000000000000000000000000000000000000000000000000000000000000000000000000000000000000000000000000000000000000000000000000000000000000000000000000000000000000000000000000000000000000000000000000000
310
00000000000000000000000000000000000000000000000000000000000000000000000000000000000000000000000000000000000000000000000000000000000000000000000000000000000000000000000000000000000000000000000000000000000000000000000000000000000000000000000000000000000000
310
00000000000000000000000000000000000000000000000000000000000000000000000000000000000000000000000000000000000000000000000000000000000000000000000000000000000000000000000000000000000000000000000000000000000000000000000000000000000000000000000000000000000000
310
00000000000000000000000000000000000000000000000000000000000000000000000000000000000000000000000000000000000000000000000000000000000000000000000000000000000000000000000000000000000000000000000000000000000000000000000000000000000000000000000000000000000000
310
00000000000000000000000000000000000000000000000000000000000000000000000000000000000000000000000000000000000000000000000000000000000000000000000000000000000000000000000000000000000000000000000000000000000000000000000000000000000000000000000000000000000000
310
00000000000000000000000000000000000000000000000000000000000000000000000000000000000000000000000000000000000000000000000000000000000000000000000000000000000000000000000000000000000000000000000000000000000000000000000000000000000000000000000000000000000000
310
00000000000000000000000000000000000000000000000000000000000000000000000000000000000000000000000000000000000000000000000000000000000000000000000000000000000000000000000000000000000000000000000000000000000000000000000000000000000000000000000000000000000000
310
00000000000000000000000000000000000000000000000000000000000000000000000000000000000000000000000000000000000000000000000000000000000000000000000000000000000000000000000000000000000000000000000000000000000000000000000000000000000000000000000000000000000000
310
00000000000000000000000000000000000000000000000000000000000000000000000000000000000000000000000000000000000000000000000000000000000000000000000000000000000000000000000000000000000000000000000000000000000000000000000000000000000000000000000000000000000000
310
00000000000000000000000000000000000000000000000000000000000000000000000000000000000000000000000000000000000000000000000000000000000000000000000000000000000000000000000000000000000000000000000000000000000000000000000000000000000000000000000000000000000000
310
00000000000000000000000000000000000000000000000000000000000000000000000000000000000000000000000000000000000000000000000000000000000000000000000000000000000000000000000000000000000000000000000000000000000000000000000000000000000000000000000000000000000000
310
00000000000000000000000000000000000000000000000000000000000000000000000000000000000000000000000000000000000000000000000000000000000000000000000000000000000000000000000000000000000000000000000000000000000000000000000000000000000000000000000000000000000000
310
00000000000000000000000000000000000000000000000000000000000000000000000000000000000000000000000000000000000000000000000000000000000000000000000000000000000000000000000000000000000000000000000000000000000000000000000000000000000000000000000000000000000000
310
00000000000000000000000000000000000000000000000000000000000000000000000000000000000000000000000000000000000000000000000000000000000000000000000000000000000000000000000000000000000000000000000000000000000000000000000000000000000000000000000000000000000000
310
00000000000000000000000000000000000000000000000000000000000000000000000000000000000000000000000000000000000000000000000000000000000000000000000000000000000000000000000000000000000000000000000000000000000000000000000000000000000000000000000000000000000000
310
00000000000000000000000000000000000000000000000000000000000000000000000000000000000000000000000000000000000000000000000000000000000000000000000000000000000000000000000000000000000000000000000000000000000000000000000000000000000000000000000000000000000000
310
00000000000000000000000000000000000000000000000000000000000000000000000000000000000000000000000000000000000000000000000000000000000000000000000000000000000000000000000000000000000000000000000000000000000000000000000000000000000000000000000000000000000000
310
00000000000000000000000000000000000000000000000000000000000000000000000000000000000000000000000000000000000000000000000000000000000000000000000000000000000000000000000000000000000000000000000000000000000000000000000000000000000000000000000000000000000000
310
00000000000000000000000000000000000000000000000000000000000000000000000000000000000000000000000000000000000000000000000000000000000000000000000000000000000000000000000000000000000000000000000000000000000000000000000000000000000000000000000000000000000000
310
00000000000000000000000000000000000000000000000000000000000000000000000000000000000000000000000000000000000000000000000000000000000000000000000000000000000000000000000000000000000000000000000000000000000000000000000000000000000000000000000000000000000000
310
00000000000000000000000000000000000000000000000000000000000000000000000000000000000000000000000000000000000000000000000000000000000000000000000000000000000000000000000000000000000000000000000000000000000000000000000000000000000000000000000000000000000000
310
00000000000000000000000000000000000000000000000000000000000000000000000000000000000000000000000000000000000000000000000000000000000000000000000000000000000000000000000000000000000000000000000000000000000000000000000000000000000000000000000000000000000000
310
00000000000000000000000000000000000000000000000000000000000000000000000000000000000000000000000000000000000000000000000000000000000000000000000000000000000000000000000000000000000000000000000000000000000000000000000000000000000000000000000000000000000000
310
00000000000000000000000000000000000000000000000000000000000000000000000000000000000000000000000000000000000000000000000000000000000000000000000000000000000000000000000000000000000000000000000000000000000000000000000000000000000000000000000000000000000000
310
00000000000000000000000000000000000000000000000000000000000000000000000000000000000000000000000000000000000000000000000000000000000000000000000000000000000000000000000000000000000000000000000000000000000000000000000000000000000000000000000000000000000000
310
00000000000000000000000000000000000000000000000000000000000000000000000000000000000000000000000000000000000000000000000000000000000000000000000000000000000000000000000000000000000000000000000000000000000000000000000000000000000000000000000000000000000000
310
00000000000000000000000000000000000000000000000000000000000000000000000000000000000000000000000000000000000000000000000000000000000000000000000000000000000000000000000000000000000000000000000000000000000000000000000000000000000000000000000000000000000000
310
00000000000000000000000000000000000000000000000000000000000000000000000000000000000000000000000000000000000000000000000000000000000000000000000000000000000000000000000000000000000000000000000000000000000000000000000000000000000000000000000000000000000000
310
00000000000000000000000000000000000000000000000000000000000000000000000000000000000000000000000000000000000000000000000000000000000000000000000000000000000000000000000000000000000000000000000000000000000000000000000000000000000000000000000000000000000000
310
00000000000000000000000000000000000000000000000000000000000000000000000000000000000000000000000000000000000000000000000000000000000000000000000000000000000000000000000000000000000000000000000000000000000000000000000000000000000000000000000000000000000000
310
00000000000000000000000000000000000000000000000000000000000000000000000000000000000000000000000000000000000000000000000000000000000000000000000000000000000000000000000000000000000000000000000000000000000000000000000000000000000000000000000000000000000000
310
00000000000000000000000000000000000000000000000000000000000000000000000000000000000000000000000000000000000000000000000000000000000000000000000000000000000000000000000000000000000000000000000000000000000000000000000000000000000000000000000000000000000000
310
00000000000000000000000000000000000000000000000000000000000000000000000000000000000000000000000000000000000000000000000000000000000000000000000000000000000000000000000000000000000000000000000000000000000000000000000000000000000000000000000000000000000000
310
0000000000000000000000000000000000002D000000000000000000000000000000000000000000000000000000000000000000000000000000000000000000000000000000000000000000000000000000000000000000000000000000000000000000000000000000000000000000000000000000000000000000000000
310
00000000000000000000000000000000000000000000000000000000000000000000000000000000000000000000000000000000000000000000000000000000000000000000000000000000000000000000000000000000000000000000000000000000000000000000000000000000000000000000000000000000000000
310
00000000000000000000000000000000000000002D00000000000000000000000000000000000000000000000000000000000000000000000000000000000000000000000000000000000000000000000000000000000000000000000000000000000000000000000000000000000000000000000000000000000000000000
310
000000000000000000000000000000000000000000000000000000000000000000000000000000000000000000000000000000000000000000000000000000000000000000000000000000000000000000000000000000000000000000000000000000F5F5F5F5F5F5F5F5F5F5F5F5F5F5F5F5F50000000000000000000000
310
000000000000000000000000000000000000000000002D0000000000000000000000000000000000000000000000000000000000000000000000000000000000000000000000000000000000000000000000000000000000000000000000000000000000000000000000000000000000000000000000000000000000000000
310
00000000000000000000000000000000000000000000000000000000000000000000000000000000000000000000000000000000000000000000000000000000000000000000000000000000000000000000000000000000000000000000000000000000F50000000000000000000000000000000000F50000000000000000
310
00000000000000000000000000000000000000000000F5F52DF5F500000000000000000000000000000000000000000000000000000000000000000000000000000000000000000000000000000000000000000000000000000000000000000000000000000000000000000000000000000000000000000000000000000000
310
0000000000000000000000000000000000000000000000000000000000000000000000000000000000000000000000000000000000000000000000000000000000000000000000000000000000000000000000000000000000000000000000000000000000F5F5000000000000000000000000000000000000F50000000000
310
00000000000000000000000000000000000000000000F5F5F5F52DF5F5F5F5000000000000000000000000000000000000000000000000000000000000000000000000000000000000000000000000000000000000000000000000000000000000000000000000000000000000000000000000000000000000000000000000
310
00000000000000000000000000000000000000000000000000000000000000000000000000000000000000000000000000000000000000000000000000000000000000000000000000000000000000000000000000000000000000000000000000000000F5F5F5F500000000000000000000000000000000000000F5000000
310
00000000000000000000000000000000000000000000F5F5F50000002D000000F5F5F50000000000000000000000000000000000000000000000000000000000000000000000000000000000000000000000000000000000000000000000000000000000000000000000000000000000000000000000000000000000000000
310
00000000000000000000000000000000000000000000000000000000000000000000000000000000000000000000000000000000000000000000000000000000000000000000000000000000000000000000000000002D0000000000000000000000000000F5F50000F5F5000000000000000000000000000000000000F500
310
00000000000000000000000000000000000000000000F5F5F500000000002D0000000000F5F5F500000000000000000000000000000000000000000000000000000000000000000000000000000000000000000000000000000000000000000000000000000000000000000000000000000000000000000000000000000000
310
00000000000000000000000000000000000000000000000000000000000000000000000000000000000000000000000000000000000000000000000000000000000000000000000000000000000000000000F5F5F5F5F5F52DF5F5F5F5F5F5F5F5F5F5F5F5F5F5F5F5F5F5F5F50000000000000000000000000000000000F5
310
F5000000000000000000000000000000000000000000F5F5F5000000000000002D00000000000000F5F5F5000000000000000000000000000000000000000000000000000000000000000000000000000000000000000000000000000000000000000000000000000000000000000000000000000000000000000000000000
310
00000000000000000000000000000000000000000000000000000000000000000000000000000000000000000000000000000000000000000000000000000000000000000000000000000000000000000000F5F50000000000002D000000000000000000000000F500F5F50000F500F5000000000000000000000000000000
310
00F5F500000000000000000000000000000000000000F5F500F500000000000000002D0000000000000000F500F5F50000000000000000000000000000000000000000000000000000000000000000000000000000000000000000000000000000000000000000000000000000000000000000000000000000000000000000
310
0000000000000000000000000000000000000000000000000000000000000000000000000000000000000000000000000000000000000000000000000000000000000000000000000000000000000000000000F50000F5F5F5F5F5F5F5F5F5F5F5F5F5F5F5F5000000F500F5F50000F500F5F5F5F5F5F5F5F5F5F5F5F5F5F5
310
F5F5F5F5F5000000000000000000000000000000000000F50000F50000000000000000002D000000000000000000F5F500F50000000000000000000000000000000000000000000000000000000000000000000000000000000000000000000000000000000000000000000000000000000000000000000000000000000000
310
00000000000000000000000000000000000000000000000000000000000000000000000000000000000000000000000000000000000000000000000000000000000000000000000000000000000000000000000000F500F50000000000002D0000F5F50000F500F5000000F500F5F50000F500F50000000000000000000000
310
0000000000F5F5000000000000000000000000000000000000F50000F500000000000000F5F52DF5F50000000000000000F500F5000000000000000000000000000000000000000000000000000000000000000000000000000000000000000000000000000000000000000000000000000000000000000000000000000000
310
000000000000000000000000000000000000000000000000000000000000000000000000000000000000000000000000000000000000000000000000000000000000000000000000000000000000000000000000000000F5F5000000000000002D00F5F5F5F5F5F5F5F5000000F500F5F50000F500F5000000000000000000
310
00000000000000F5F5000000000000000000000000000000000000F500F5000000000000F5F500F52DF5F5F5F500000000000000F5F500000000000000000000000000000000000000000000000000000000000000000000000000000000000000000000000000000000000000000000000000000000000000000000000000
310
0000000000000000000000000000000000000000000000000000000000000000000000000000000000000000000000000000000000000000000000000000000000000000000000000000000000000000000000000000000000F5F5000000000000002D0000F500F500F500F5000000F500F5F50000F5F50000000000000000
310
000000000000000000F5F5000000000000000000000000000000000000F500F5000000000000F5F5F5002D0000F500F5000000000000F5F50000000000000000000000000000000000000000000000000000000000000000000000000000000000000000000000000000000000000000000000000000000000000000000000
310
00000000000000000000000000000000000000000000000000000000000000000000000000000000000000000000000000000000000000000000000000000000000000000000000000000000000000000000000000000000000000F5F5000000000000002D000000F5F500F500F5000000F500F5F50000F5F5000000000000
310
0000000000000000000000F5F5000000000000000000000000000000000000F500F50000000000F5F50000002D000000F5F500000000000000F5000000000000000000000000000000000000000000000000000000000000000000000000000000000000000000000000000000000000000000000000000000000000000000
310
000000000000000000000000000000000000000000000000000000000000000000000000000000000000000000000000000000000000000000000000000000000000000000000000000000000000000000000000000000000000000000F5F5000000000000002D000000F500F50000F5000000F500F5F50000F5F500000000
310
00000000000000000000000000F5F5000000000000000000000000000000000000F5F50000000000F500F50000002D00000000F5F5000000000000F500000000000000000000000000000000000000000000000000000000000000000000000000000000000000000000000000000000000000000000000000000000000000
310
0000000000000000000000000000000000000000000000000000000000000000000000000000000000000000000000000000000000000000000000000000000000000000000000000000000000000000000000000000000000000000000000F5F5000000000000002D00000000F5F50000F5000000F500F5F50000F5000000
310
00000000000000000000000000000000F5000000000000000000000000000000000000F5F50000000000F5F5000000002D00000000F500F50000000000F50000000000000000000000000000000000000000000000000000000000000000000000000000000000000000000000000000000000000000000000000000000000
310
00000000000000000000000000000000000000000000000000000000000000000000000000000000000000000000000000000000000000000000000000000000000000000000000000000000000000000000000000000000000000000000002D2DF5F52D2D2D2D2D2D2D2D2D2D2D2D2D2D2D2DF52D2D2DF52DF5F52D2DF52D
310
2D2D2D2D2D2D2D2D2D2D2D2D2D2D2D2D2D2DF52D2D0000000000000000000000000000002D2D2D2D2D2D2D2D2DF52D2D2D2D2D2D2D2D2D2DF52D2D2D2D2D2D2D2D2D00000000000000000000000000000000000000000000000000000000000000000000000000000000000000000000000000000000000000000000000000
310
000000000000000000000000000000000000000000000000000000000000000000000000000000000000000000000000000000000000000000000000000000000000000000000000000000000000000000000000000000000000000000000000000000F5F5000000000000002D0000000000000000F5000000F500F5F50000
310
F500000000000000000000000000000000000000F5000000000000000000000000000000000000F5F50000000000F5F5000000002D0000000000F5F50000000000F500000000000000000000000000000000000000000000000000000000000000000000000000000000000000000000000000000000000000000000000000
310
0000000000000000000000000000000000000000000000000000000000000000000000000000000000000000000000000000000000000000000000000000000000000000000000000000000000000000000000000000000000000000000000000000000000F5F5000000000000002D0000000000000000F5000000F500F5F5
310
0000F5F5000000000000000000000000000000000000F5000000000000000000000000000000000000F5F50000000000F5F5000000002D00000000F5F5000000000000F50000000000000000000000000000000000000000000000000000000000000000000000000000000000000000000000000000000000000000000000
310
00000000000000000000000000000000000000000000000000000000000000000000000000000000000000000000000000000000000000000000000000000000000000000000000000000000000000000000000000000000000000000000000000000000000000F5F5000000000000002D0000000000000000F5000000F500
310
F5F50000F5F50000000000000000000000000000000000F5F5000000000000000000000000000000000000F5F5000000000000F5F50000002D00000000F5F5000000000000F5000000000000000000000000000000000000000000000000000000000000000000000000000000000000000000000000000000000000000000
310
000000000000000000000000000000000000000000000000000000000000000000000000000000000000000000000000000000000000000000000000000000000000000000000000000000000000000000000000000000000000000000000000000000000000000000F5F5000000000000002D0000000000000000F5000000
310
F500F5F50000F5F50000000000000000000000000000000000F5F5000000000000000000000000000000000000F500F50000000000F5F50000002D00000000F500000000000000F500000000000000000000000000000000000000000000000000000000000000000000000000000000000000000000000000000000000000
310
0000000000000000000000000000000000000000000000000000000000000000000000000000000000000000000000000000000000000000000000000000000000000000000000000000000000000000000000000000000000000000000000000000000000000000000000F5F5000000000000002D0000000000000000F500
310
0000F500F5F50000F5F50000000000000000000000000000000000F5F5000000000000000000000000000000000000F500F5000000000000F5F5F5F52D00F5F5F5F5000000000000F5F50000000000000000000000000000000000000000000000000000000000000000000000000000000000000000000000000000000000
310
00000000000000000000000000000000000000000000000000000000000000000000000000000000000000000000000000000000000000000000000000000000000000000000000000000000000000000000000000000000000000000000000000000000000000000000000000F5F5000000000000002D0000000000000000
310
F5000000F500F5F50000F500F500000000000000000000000000000000F5F5000000000000000000000000000000000000F50000F50000000000F50000002DF50000F500000000000000F5F5000000000000000000000000000000000000000000000000000000000000000000000000000000000000000000000000000000
310
000000000000000000000000000000000000000000000000000000000000000000000000000000000000000000000000000000000000000000000000000000000000000000000000000000000000000000000000000000000000000000000000000000000000000000000000000000F5F5000000000000002D000000000000
310
0000F5000000F500F5F50000F500F500000000000000000000000000000000F5F5000000000000000000000000000000000000F50000F5000000000000F5F5F52DF5F5F500000000000000F500F500000000000000000000000000000000000000000000000000000000000000000000000000000000000000000000000000
310
0000000000000000000000000000000000000000000000000000000000000000000000000000000000000000000000000000000000000000000000000000000000000000000000000000000000000000000000000000000000000000000000000000000000000000000000000000000000F5F5000000000000002D00000000
310
000000F5F5000000F500F5F50000F500F5F5F5F5F5F5F5F5F5F5F5F5F5F5F5F5F5F5F5000000000000000000000000000000000000F5000000F500000000000000002D000000000000000000F50000F50000000000000000000000000000000000000000000000000000000000000000000000000000000000000000000000
310
00000000000000000000000000000000000000000000000000000000000000000000000000000000000000000000000000000000000000000000000000000000000000000000000000000000000000000000000000000000000000000000000000000000000000000000000000000000000000F5F5F5F5F5F5F5F5F5F5F5F5
310
F5F5F5F5F50000F5F5F5F500F5F50000F500F500000000000000000000000000000000F5F500000000000000000000000000000000000000F5F500F500000000000000002D0000000000000000F500F5F500000000000000000000000000000000000000000000000000000000000000000000000000000000000000000000
310
000000000000000000000000000000000000000000000000000000000000000000000000000000000000000000000000000000000000000000000000000000000000000000000000000000000000000000000000000000000000000000000000000000000000000000000000000000000000000000F500000000000000002D
310
0000000000000000F5F5000000F5F5F5F5F5F5F50000000000000000000000000000000000F5F5000000000000000000000000000000000000000000F5F5F5000000000000002D00000000000000F5F5F500000000000000000000000000000000000000000000000000000000000000000000000000000000000000000000
310
0000000000000000000000000000000000000000000000000000000000000000000000000000000000000000000000000000000000000000000000000000000000000000000000000000000000000000000000000000000000000000000000000000000000000000000000000000000000000000000000F500000000000000
310
002D0000000000000000F5000000000000F50000F5F5000000000000000000000000000000000000F500000000000000000000000000000000000000000000F5F5F50000000000002D000000000000F5F5F5000000000000000000000000000000000000000000000000000000000000000000000000000000000000000000
310
00000000000000000000000000000000000000000000000000000000000000000000000000000000000000000000000000000000000000000000000000000000000000000000000000000000000000000000000000000000000000000000000000000000000000000000000000000000000000000000000000F50000000000
310
0000002D0000000000000000F5000000000000F5F5F5F500000000000000000000000000000000000000F500000000000000000000000000000000000000000000F50000F5F5F50000002D00000000F5F50000F500000000000000000000000000000000000000000000000000000000000000000000000000000000000000
310
000000000000000000000000000000000000000000000000000000000000000000000000000000000000000000000000000000000000000000000000000000000000000000000000000000000000000000000000000000000000000000000000000000000000000000000000000000000000000000000000000000F5000000
310
00000000002D0000000000000000F5000000000000000000F5F50000000000000000000000000000000000F5F500000000000000000000000000000000000000000000F500000000F5F5F5F52DF5F5F5F500000000F50000000000000000000000000000000000000000000000000000000000000000000000000000000000
310
0000000000000000000000000000000000000000000000000000000000000000000000000000000000000000000000000000000000000000000000000000000000000000000000000000000000000000000000000000000000000000000000000000000000000000000000000000000000000000000000000000000000F5F5
310
F5F5F5F5F5F5F5F5F5F5F5F5F5F5F5F5F500000000000000000000F50000000000000000000000000000000000F50000000000000000000000000000000000000000000000F5F5F5F5F5F5F5F5F5F5F5F5F5F5F5F5F5F5F5000000000000000000000000000000000000000000000000000000000000000000000000000000
310
00000000000000000000000000000000000000000000000000000000000000000000000000000000000000000000000000000000000000000000000000000000000000000000000000000000000000000000000000000000000000000000000000000000000000000000000000000000000000000000000000000000000000
310
F5F5F5F5F5F5F5F5F5F5F5F5F5F5F5F5F5F5F50000000000000000000000F5F5F5F5F5F5F5F5F5F5F5F5F5F5F5F5F5000000000000000000000000000000000000000000000000F5F5F5F5F5F5F5F5F5F5F5F5F5F5F5F5F5F5F500000000000000000000000000000000000000000000000000000000000000000000000000
310
00000000000000000000000000000000000000000000000000000000000000000000000000000000000000000000000000000000000000000000000000000000000000000000000000000000000000000000000000000000000000000000000000000000000000000000000000000000000000000000000000000000000000
310
0000F500000000000000002D00000000000000F5F500000000000000000000000000000000000000000000000000000000000000000000000000000000000000000000000000000000F5F5000000000000002D0000000000000000F50000000000000000000000000000000000000000000000000000000000000000000000
310
00000000000000000000000000000000000000000000000000000000000000000000000000000000000000000000000000000000000000000000000000000000000000000000000000000000000000000000000000000000000000000000000000000000000000000000000000000000000000000000000000000000000000
310
00000000F500000000000000002D00000000000000F5F500000000000000000000000000000000000000000000000000000000000000000000000000000000000000000000000000000000F5F5000000000000002D0000000000000000F5000000000000000000000000000000000000000000000000000000000000000000
310
00000000000000000000000000000000000000000000000000000000000000000000000000000000000000000000000000000000000000000000000000000000000000000000000000000000000000000000000000000000000000000000000000000000000000000000000000000000000000000000000000000000000000
310
000000000000F500000000000000002D00000000000000F5F500000000000000000000000000000000000000000000000000000000000000000000000000000000000000000000000000000000F5F5000000000000002D0000000000000000F500000000000000000000000000000000000000000000000000000000000000
310
00000000000000000000000000000000000000000000000000000000000000000000000000000000000000000000000000000000000000000000000000000000000000000000000000000000000000000000000000000000000000000000000000000000000000000000000000000000000000000000000000000000000000
310
0000000000000000F500000000000000002D00000000000000F5F500000000000000000000000000000000000000000000000000000000000000000000000000000000000000000000000000000000F5F5000000000000002D0000000000000000F50000000000000000000000000000000000000000000000000000000000
310
00000000000000000000000000000000000000000000000000000000000000000000000000000000000000000000000000000000000000000000000000000000000000000000000000000000000000000000000000000000000000000000000000000000000000000000000000000000000000000000000000000000000000
310
00000000000000000000F500000000000000002D00000000000000F5F500000000000000000000000000000000000000000000000000000000000000000000000000000000000000000000000000000000F5F5000000000000002D0000000000000000F5000000000000000000000000000000000000000000000000000000
310
00000000000000000000000000000000000000000000000000000000000000000000000000000000000000000000000000000000000000000000000000000000000000000000000000000000000000000000000000000000000000000000000000000000000000000000000000000000000000000000000000000000000000
310
000000000000000000000000F500000000000000002D00000000000000F5F500000000000000000000000000000000000000000000000000000000000000000000000000000000000000000000000000000000F5F5000000000000002D0000000000000000F500000000000000000000000000000000000000000000000000
310
00000000000000000000000000000000000000000000000000000000000000000000000000000000000000000000000000000000000000000000000000000000000000000000000000000000000000000000000000000000000000000000000000000000000000000000000000000000000000000000000000000000000000
310
0000000000000000000000000000F500000000000000002D00000000000000F5F500000000000000000000000000000000000000000000000000000000000000000000000000000000000000000000000000000000F5F5000000000000002D0000000000000000F50000000000000000000000000000000000000000000000
310
00000000000000000000000000000000000000000000000000000000000000000000000000000000000000000000000000000000000000000000000000000000000000000000000000000000000000000000000000000000000000000000000000000000000000000000000000000000000000000000000000000000000000
310
00000000000000000000000000000000F5F5000000000000002D00000000000000F5F500000000000000000000000000000000000000000000000000000000000000000000000000000000000000000000000000000000F5F5000000000000002D00000000000000F5F5000000000000000000000000000000000000000000
310
00000000000000000000000000000000000000000000000000000000000000000000000000000000000000000000000000000000000000000000000000000000000000000000000000000000000000000000000000000000000000000000000000000000000000000000000000000000000000000000000000000000000000
310
000000000000000000000000000000000000F5F5000000000000002D00000000000000F5F500000000000000000000000000000000000000000000000000000000000000000000000000000000000000000000000000000000F5F5000000000000002D00000000000000F5F500000000000000000000000000000000000000
310
00000000000000000000000000000000000000000000000000000000000000000000000000000000000000000000000000000000000000000000000000000000000000000000000000000000000000000000000000000000000000000000000000000000000000000000000000000000000000000000000000000000000000
310
0000000000000000000000000000000000000000F5F5000000000000002D00000000000000F5F500000000000000000000000000000000000000000000000000000000000000000000000000000000000000000000000000000000F5F5000000000000002D00000000000000F5F50000000000000000000000000000000000
310
00000000000000000000000000000000000000000000000000000000000000000000000000000000000000000000000000000000000000000000000000000000000000000000000000000000000000000000000000000000000000000000000000000000000000000000000000000000000000000000000000000000000000
310
00000000000000000000000000000000000000000000F5F5000000000000002D00000000000000F5F500000000000000000000000000000000000000000000000000000000000000000000000000000000000000000000000000000000F5F5000000000000002D00000000000000F5F5000000000000000000000000000000
310
00000000000000000000000000000000000000000000000000000000000000000000000000000000000000000000000000000000000000000000000000000000000000000000000000000000000000000000000000000000000000000000000000000000000000000000000000000000000000000000000000000000000000
310
000000000000000000000000000000000000000000000000F5F5000000000000002D00000000000000F5F500000000000000000000000000000000000000000000000000000000000000000000000000000000000000000000000000000000F5F5000000000000002D00000000000000F5F500000000000000000000000000
310
00000000000000000000000000000000000000000000000000000000000000000000000000000000000000000000000000000000000000000000000000000000000000000000000000000000000000000000000000000000000000000000000000000000000000000000000000000000000000000000000000000000000000
310
0000000000000000000000000000000000000000000000000000F5F5F5F5F5F5F5F5F5F5F5F5F5F5F5F5F5F5F500000000000000000000000000000000000000000000000000000000000000000000000000000000000000000000000000000000F5F5F5F5F5F5F5F5F5F5F5F5F5F5F5F5F5F5F50000000000000000000000
310
00000000000000000000000000000000000000000000000000000000000000000000000000000000000000000000000000000000000000000000000000000000000000000000000000000000000000000000000000000000000000000000000000000000000000000000000000000000000000000000000000000000000000
310
0000000000000000000000000000000000000000000000000000000000F5000000000000002D00000000000000F5000000000000000000000000000000000000000000000000000000000000000000000000000000000000000000000000000000000000F5000000000000002D00000000000000F5F5000000000000000000
310
00000000000000000000000000000000000000000000000000000000000000000000000000000000000000000000000000000000000000000000000000000000000000000000000000000000000000000000000000000000000000000000000000000000000000000000000000000000000000000000000000000000000000
310
00000000000000000000000000000000000000000000000000000000000000F5F5F5F5F5F5F5F5F5F5F5F5F5F5F5F5F5000000000000000000000000000000000000000000000000000000000000000000000000000000000000000000000000000000000000F5F5F5F5F5F5F5F5F5F5F5F5F5F5F5F5F50000000000000000
310
00000000000000000000000000000000000000000000000000000000000000000000000000000000000000000000000000000000000000000000000000000000000000000000000000000000000000000000000000000000000000000000000000000000000000000000000000000000000000000000000000000000000000
310
00000000000000000000000000000000000000000000000000000000000000000000000000000000002D000000000000000000000000000000000000000000000000000000000000000000000000000000000000000000000000000000000000000000000000000000000000000000002D0000000000000000000000000000
310
00000000000000000000000000000000000000000000000000000000000000000000000000000000000000000000000000000000000000000000000000000000000000000000000000000000000000000000000000000000000000000000000000000000000000000000000000000000000000000000000000000000000000
310
000000000000000000000000000000000000000000000000000000000000000000000000000000000000002D000000000000000000000000000000000000000000000000000000000000000000000000000000000000000000000000000000000000000000000000000000000000000000002D000000000000000000000000
310
00000000000000000000000000000000000000000000000000000000000000000000000000000000000000000000000000000000000000000000000000000000000000000000000000000000000000000000000000000000000000000000000000000000000000000000000000000000000000000000000000000000000000
310
0000000000000000000000000000000000000000000000000000000000000000000000000000000000000000002D000000000000000000000000000000000000000000000000000000000000000000000000000000000000000000000000000000000000000000000000000000000000000000002D00000000000000000000
310
00000000000000000000000000000000000000000000000000000000000000000000000000000000000000000000000000000000000000000000000000000000000000000000000000000000000000000000000000000000000000000000000000000000000000000000000000000000000000000000000000000000000000
310
00000000000000000000000000000000000000000000000000000000000000000000000000000000000000000000000000000000000000000000000000000000000000000000000000000000000000000000000000000000000000000000000000000000000000000000000000000000000000000000000000000000000000
310
00000000000000000000000000000000000000000000000000000000000000000000000000000000000000000000000000000000000000000000000000000000000000000000000000000000000000000000000000000000000000000000000000000000000000000000000000000000000000000000000000000000000000
310
00000000000000000000000000000000000000000000000000000000000000000000000000000000000000000000000000000000000000000000000000000000000000000000000000000000000000000000000000000000000000000000000000000000000000000000000000000000000000000000000000000000000000
310
00000000000000000000000000000000000000000000000000000000000000000000000000000000000000000000000000000000000000000000000000000000000000000000000000000000000000000000000000000000000000000000000000000000000000000000000000000000000000000000000000000000000000
310
00000000000000000000000000000000000000000000000000000000000000000000000000000000000000000000000000000000000000000000000000000000000000000000000000000000000000000000000000000000000000000000000000000000000000000000000000000000000000000000000000000000000000
310
00000000000000000000000000000000000000000000000000000000000000000000000000000000000000000000000000000000000000000000000000000000000000000000000000000000000000000000000000000000000000000000000000000000000000000000000000000000000000000000000000000000000000
310
00000000000000000000000000000000000000000000000000000000000000000000000000000000000000000000000000000000000000000000000000000000000000000000000000000000000000000000000000000000000000000000000000000000000000000000000000000000000000000000000000000000000000
310
00000000000000000000000000000000000000000000000000000000000000000000000000000000000000000000000000000000000000000000000000000000000000000000000000000000000000000000000000000000000000000000000000000000000000000000000000000000000000000000000000000000000000
310
00000000000000000000000000000000000000000000000000000000000000000000000000000000000000000000000000000000000000000000000000000000000000000000000000000000000000000000000000000000000000000000000000000000000000000000000000000000000000000000000000000000000000
310
00000000000000000000000000000000000000000000000000000000000000000000000000000000000000000000000000000000000000000000000000000000000000000000000000000000000000000000000000000000000000000000000000000000000000000000000000000000000000000000000000000000000000
310
00000000000000000000000000000000000000000000000000000000000000000000000000000000000000000000000000000000000000000000000000000000000000000000000000000000000000000000000000000000000000000000000000000000000000000000000000000000000000000000000000000000000000
310
00000000000000000000000000000000000000000000000000000000000000000000000000000000000000000000000000000000000000000000000000000000000000000000000000000000000000000000000000000000000000000000000000000000000000000000000000000000000000000000000000000000000000
310
00000000000000000000000000000000000000000000000000000000000000000000000000000000000000000000000000000000000000000000000000000000000000000000000000000000000000000000000000000000000000000000000000000000000000000000000000000000000000000000000000000000000000
310
00000000000000000000000000000000000000000000000000000000000000000000000000000000000000000000000000000000000000000000000000000000000000000000000000000000000000000000000000000000000000000000000000000000000000000000000000000000000000000000000000000000000000
310
00000000000000000000000000000000000000000000000000000000000000000000000000000000000000000000000000000000000000000000000000000000000000000000000000000000000000000000000000000000000000000000000000000000000000000000000000000000000000000000000000000000000000
310
00000000000000000000000000000000000000000000000000000000000000000000000000000000000000000000000000000000000000000000000000000000000000000000000000000000000000000000000000000000000000000000000000000000000000000000000000000000000000000000000000000000000000
310
00000000000000000000000000000000000000000000000000000000000000000000000000000000000000000000000000000000000000000000000000000000000000000000000000000000000000000000000000000000000000000000000000000000000000000000000000000000000000000000000000000000000000
310
00000000000000000000000000000000000000000000000000000000000000000000000000000000000000000000000000000000000000000000000000000000000000000000000000000000000000000000000000000000000000000000000000000000000000000000000000000000000000000000000000000000000000
310
00000000000000000000000000000000000000000000000000000000000000000000000000000000000000000000000000000000000000000000000000000000000000000000000000000000000000000000000000000000000000000000000000000000000000000000000000000000000000000000000000000000000000
310
00000000000000000000000000000000000000000000000000000000000000000000000000000000000000000000000000000000000000000000000000000000000000000000000000000000000000000000000000000000000000000000000000000000000000000000000000000000000000000000000000000000000000
310
00000000000000000000000000000000000000000000000000000000000000000000000000000000000000000000000000000000000000000000000000000000000000000000000000000000000000000000000000000000000000000000000000000000000000000000000000000000000000000000000000000000000000
310
00000000000000000000000000000000000000000000000000000000000000000000000000000000000000000000000000000000000000000000000000000000000000000000000000000000000000000000000000000000000000000000000000000000000000000000000000000000000000000000000000000000000000
310
00000000000000000000000000000000000000000000000000000000000000000000000000000000000000000000000000000000000000000000000000000000000000000000000000000000000000000000000000000000000000000000000000000000000000000000000000000000000000000000000000000000000000
310
00000000000000000000000000000000000000000000000000000000000000000000000000000000000000000000000000000000000000000000000000000000000000000000000000000000000000000000000000000000000000000000000000000000000000000000000000000000000000000000000000000000000000
310
000000000000000000000000000000000000000000000000000000000000000000000000000000000000000000000000000000000000000000000000000000000000000000000000000000000000000000000000000000000000F5F5F5F5F5F5F5F5F5F5F5F5F5F5F5F5F5F5F5F5F500000000000000000000000000000000
310
00000000000000000000000000000000000000000000000000000000000000000000000000000000000000000000000000000000000000000000000000000000000000000000000000000000000000000000000000000000000000000000000000000000000000000000000000000000000000000000000000000000000000
310
0000000000000000000000000000000000000000000000000000000000000000000000000000000000000000000000000000000000000000000000000000000000000000000000000000000000000000000000000000000000F5F5F5F500F500000000000000000000000000000000F5F50000000000000000000000000000
310
00000000000000000000000000000000000000000000000000000000000000000000000000000000000000000000000000000000000000000000000000000000000000000000000000000000000000000000000000000000000000000000000000000000000000000000000000000000000000000000000000000000000000
310
0000000000000000000000000000000000000000000000000000000000000000000000000000000000000000000000000000000000000000000000000000000000000000000000000000002D0000000000000000000000000000F5F5F5F5F5F50000000000000000000000000000000000F5F5000000000000000000000000
310
00000000000000000000000000000000000000000000000000000000000000000000000000000000000000000000000000000000000000000000000000000000000000000000000000000000000000000000000000000000000000000000000000000000000000000000000000000000000000000000000000000000000000
310
000000000000000000000000000000000000000000000000000000000000000000000000000000000000000000000000000000000000000000000000000000000000000000F5F5F5F5F5F5F5F5F5F5F5F5F5F5F5F5F5F5F5F5F5F5F5F5F50000F5F50000000000000000000000000000000000F5F500000000000000000000
310
00000000000000000000000000000000000000000000000000000000000000000000000000000000000000000000000000000000000000000000000000000000000000000000000000000000000000000000000000000000000000000000000000000000000000000000000000000000000000000000000000000000000000
310
0000000000000000000000000000000000000000000000000000000000000000000000000000000000000000000000000000000000000000000000000000000000000000000000F50000F5F5F5F5F5F5F5F5F5F50000F500F5000000F500F5F50000F5F5000000000000000000000000000000000000F50000000000000000
310
00000000000000000000000000000000000000000000000000000000000000000000000000000000000000000000000000000000000000000000000000000000000000000000000000000000000000000000000000000000000000000000000000000000000000000000000000000000000000000000000000000000000000
310
00000000000000000000000000000000000000000000000000000000000000000000000000000000000000000000000000000000000000000000000000000000000000000000000000F500F5F5F500F5F5F5F5F5F5F5F500F500F5000000F500F5F50000F5F5000000000000000000000000000000000000F5000000000000
310
00000000000000000000000000000000000000000000000000000000000000000000000000000000000000000000000000000000000000000000000000000000000000000000000000000000000000000000000000000000000000000000000000000000000000000000000000000000000000000000000000000000000000
310
000000000000000000000000000000000000000000000000000000000000000000000000000000000000000000000000000000000000000000000000000000000000000000000000000000F5F5F500F5F50000F50000F5F5F5F5F500F5000000F500F5F50000F5F5000000000000000000000000000000000000F500000000
310
00000000000000000000000000000000000000000000000000000000000000000000000000000000000000000000000000000000000000000000000000000000000000000000000000000000000000000000000000000000000000000000000000000000000000000000000000000000000000000000000000000000000000
310
0000000000000000000000000000000000000000000000000000000000000000000000000000000000000000000000000000000000000000000000000000000000000000000000000000000000F5F5F5F50000F5F5F5F5F500F5F500F5F5F5000000F500F5F50000F5F5000000000000000000000000000000000000F50000
310
00000000000000000000000000000000000000000000000000000000000000000000000000000000000000000000000000000000000000000000000000000000000000000000000000000000000000000000000000000000000000000000000000000000000000000000000000000000000000000000000000000000000000
310
00000000000000000000000000000000000000000000000000000000000000000000000000000000000000000000000000000000000000000000000000000000000000000000000000000000000000F5F5F500F5F500002D00F5F50000F5F5F500000000F500F5F50000F5F5000000000000000000000000000000000000F5
310
00000000000000000000000000000000000000000000000000000000000000000000000000000000000000000000000000000000000000000000000000000000000000000000000000000000000000000000000000000000000000000000000000000000000000000000000000000000000000000000000000000000000000
310
000000000000000000000000000000000000000000000000000000000000000000000000000000000000000000000000000000000000000000000000000000000000000000000000000000000000000000F5F500F5F50000002D000000F5F5F5F5F5F5000000F500F5F50000F5F50000000000000000000000000000000000
310
F5F50000000000000000000000000000000000000000000000000000000000000000000000000000000000000000000000000000000000000000000000000000000000000000000000000000000000000000000000000000000000000000000000000000000000000000000000000000000000000000000000000000000000
310
00000000000000000000000000000000000000000000000000000000000000000000000000000000000000000000000000000000000000000000000000000000000000000000000000000000000000000000F5F5F500F5000000002D00000000F500F5F5F5000000F500F5F50000F5F5000000000000000000000000000000
310
0000F5F5000000000000000000000000000000000000000000000000000000000000000000000000000000000000000000000000000000000000000000000000000000000000000000000000000000000000000000000000000000000000000000000000000000000000000000000000000000000000000000000000000000
310
000000000000000000000000000000000000000000000000000000000000000000000000000000000000000000000000000000000000000000000000000000000000000000000000000000000000000000000000F5F5F5F5F5000000002D00000000F500F5F5F5000000F500F5F50000F500F5000000000000000000000000
310
00000000F5F5000000000000000000000000000000000000000000000000F5F5F5F5F5F5F50000F5F5F5F5F5F5F5F50000000000000000000000000000000000000000000000000000000000000000000000000000000000000000000000000000000000000000000000000000000000000000000000000000000000000000
310
0000000000000000000000000000000000000000000000000000000000000000000000000000000000000000000000000000000000000000000000000000000000000000000000000000000000000000000000002D2DF5F52DF52D2D2D2D2D2D2D2D2D2DF5F5F5F5F52D2D2DF52D2D2D2D2D2D2D2D2D2D2D2D2D2D2D2D2D2D
310
2D2D2D2D2D2D2D2D2D2D00000000000000000000000000000000000000000000F5F5F5F5F5F5F50000F5F500F5F5F5F5F5000000000000000000000000000000000000000000000000000000000000000000000000000000000000000000000000000000000000000000000000000000000000000000000000000000000000
310
00000000000000000000000000000000000000000000000000000000000000000000000000000000000000000000000000000000000000000000000000000000000000000000000000000000000000000000000000000000F5F5F5F5F5000000002D00000000F5F5F5F5F5000000F500F5F50000F500F50000000000000000
310
00000000000000F500F5000000000000000000000000000000000000000000000000000000000000000000000000000000000000000000000000000000000000000000000000000000000000000000000000000000000000000000000000000000000000000000000000000000000000000000000000000000000000000000
310
000000000000000000000000000000000000000000000000000000000000000000000000000000000000000000000000000000000000000000000000000000000000000000000000000000000000000000000000000000000000F5F5F5F5F5000000002D00000000F500F5F5F5000000F500F5F50000F5F500000000000000
310
00000000000000000000F5F500000000000000000000000000000000000000000000000000000000000000000000000000000000000000000000000000000000000000000000000000000000000000000000000000000000000000000000000000000000000000000000000000000000000000000000000000000000000000
310
0000000000000000000000000000000000000000000000000000000000000000000000000000000000000000000000000000000000000000000000000000000000000000000000000000000000000000000000000000000000000000F500F500F5000000002D000000F5F500F5F5F5000000F500F5F50000F5F50000000000
310
000000000000000000000000F5F50000000000000000000000000000000000000000000000000000000000000000000000000000000000000000000000000000000000000000000000000000000000000000000000000000000000000000000000000000000000000000000000000000000000000000000000000000000000
310
0000000000000000000000000000000000000000000000000000000000000000000000000000000000000000000000000000000000000000000000000000000000000000000000000000000000000000000000000000000000000000000000F5F500F5F50000002D000000F5F5F500F5F5000000F500F5F50000F5F5000000
310
000000000000000000000000000000F5000000000000000000000000000000000000000000000000000000000000000000000000000000000000000000000000000000000000000000000000000000000000000000000000000000000000000000000000000000000000000000000000000000000000000000000000000000
310
00000000000000000000000000000000000000000000000000000000000000000000000000000000000000000000000000000000000000000000000000000000000000000000000000000000000000000000000000000000000000000000000000F500F500F5F5F5002DF5F5F5F500F5F5F5F5000000F500F5F50000F5F500
310
0000000000000000000000000000000000F500000000000000000000000000000000000000000000000000000000000000000000000000000000000000000000000000000000000000000000000000000000000000000000000000000000000000000000000000000000000000000000000000000000000000000000000000
310
000000000000000000000000000000000000000000000000000000000000000000000000000000000000000000000000000000000000000000000000000000000000000000000000000000000000000000000000000000000000000000000000000000F5F5F50000F5F5F5F5F5F50000F500F500F5000000F500F5F50000F5
310
F5000000000000000000000000000000000000F50000000000000000000000000000000000000000000000000000000000000000000000000000000000000000000000000000000000000000000000000000000000000000000000000000000000000000000000000000000000000000000000000000000000000000000000
310
0000000000000000000000000000000000000000000000000000000000000000000000000000000000000000000000000000000000000000000000000000000000000000000000000000000000000000000000000000000000000000000000000000000000F5F5F5F5F50000002D0000F5F500F5F500F5000000F500F5F500
310
00F5F5000000000000000000000000000000000000F5000000000000000000000000000000000000000000000000000000000000000000000000000000000000000000000000000000000000000000000000000000000000000000000000000000000000000000000000000000000000000000000000000000000000000000
310
00000000000000000000000000000000000000000000000000000000000000000000000000000000000000000000000000000000000000000000000000000000000000000000000000000000000000000000000000000000000000000000000000000000000000F500F5F500F5F5F5F5F5F5F5F5F500F500F5000000F500F5
310
F50000F5F5000000000000000000000000000000000000F500000000000000000000000000000000000000000000000000000000000000000000000000000000000000000000000000000000000000000000000000000000000000000000000000000000000000000000000000000000000000000000000000000000000000
310
000000000000000000000000000000000000000000000000000000000000000000000000000000000000000000000000000000000000000000000000000000000000000000000000000000000000000000000000000000000000000000000000000000000000000000F5F5F5F5F5F5F5F5F5F5F5F5F5F5F5F5F5F5F5F5F5F5
310
00F5F50000F5F5000000000000000000000000000000000000F50000000000000000000000000000000000000000000000000000000000000000000000000000000000000000000000000000000000000000000000000000000000000000000000000000000000000000000000000000000000000000000000000000000000
310
000000000000000000000000000000000000000000000000000000000000000000000000000000000000000000000000000000000000000000000000000000000000000000000000000000000000000000000000000000000000000000000000000000000000000000000000000000000000002D0000000000000000000000
310
0000F5F5F5F5F5F5F50000000000000000000000000000000000F5F5000000000000000000000000000000000000000000000000000000000000000000000000000000000000000000000000000000000000000000000000000000000000000000000000000000000000000000000000000000000000000000000000000000
310
0000000000000000000000000000000000000000000000000000000000000000000000000000000000000000000000000000000000000000000000000000000000000000000000000000000000000000000000000000000000000000000000000000000000000000000000000000000000000000002D000000000000000000
310
000000000000F5F5F5F5F50000000000000000000000000000000000F5F500000000000000000000000000000000000000000000000000000000000000000000000000000000000000000000000000000000000000000000000000000000000000000000000000000000000000000000000000000000000000000000000000
310
00000000000000000000000000000000000000000000000000000000000000000000000000000000000000000000000000000000000000000000000000000000000000000000000000000000000000000000000000000000000000000000000000000000000000000000000000000000000000000000000000000000000000
310
0000000000000000000000F500F500000000000000000000000000000000F5F50000000000000000000000000000000000000000000000000000000000000000000000000000000000000000000000000000000000000000000000000000000000000000000000000000000000000000000000000000000000000000000000
310
00000000000000000000000000000000000000000000000000000000000000000000000000000000000000000000000000000000000000000000000000000000000000000000000000000000000000000000000000000000000000000000000000000000000000000000000000000000000000000000000000000000000000
310
00000000000000000000000000F5F5F5F5F5F5F5F5F5F5F5F5F5F5F5F5F5F5F5F5F5000000000000000000000000000000000000000000000000000000000000000000000000000000000000000000000000000000000000000000000000000000000000000000000000000000000000000000000000000000000000000000
310
00000000000000000000000000000000000000000000000000000000000000000000000000000000000000000000000000000000000000000000000000000000000000000000000000000000000000000000000000000000000000000000000000000000000000000000000000000000000000000000000000000000000000
310
00000000000000000000000000000000000000000000000000000000000000000000000000000000000000000000000000000000000000000000000000000000000000000000000000000000000000000000000000000000000000000000000000000000000000000000000000000000000000000000000000000000000000
310
00000000000000000000000000000000000000000000000000000000000000000000000000000000000000000000000000000000000000000000000000000000000000000000000000000000000000000000000000000000000000000000000000000000000000000000000000000000000000000000000000000000000000
310
00000000000000000000000000000000000000000000000000000000000000000000000000000000000000000000000000000000000000000000000000000000000000000000000000000000000000000000000000000000000000000000000000000000000000000000000000000000000000000000000000000000000000
310
00000000000000000000000000000000000000000000000000000000000000000000000000000000000000000000000000000000000000000000000000000000000000000000000000000000000000000000000000000000000000000000000000000000000000000000000000000000000000000000000000000000000000
310
00000000000000000000000000000000000000000000000000000000000000000000000000000000000000000000000000000000000000000000000000000000000000000000000000000000000000000000000000000000000000000000000000000000000000000000000000000000000000000000000000000000000000
310
00000000000000000000000000000000000000000000000000000000000000000000000000000000000000000000000000000000000000000000000000000000000000000000000000000000000000000000000000000000000000000000000000000000000000000000000000000000000000000000000000000000000000
310
00000000000000000000000000000000000000000000000000000000000000000000000000000000000000000000000000000000000000000000000000000000000000000000000000000000000000000000000000000000000000000000000000000000000000000000000000000000000000000000000000000000000000
310
00000000000000000000000000000000000000000000000000000000000000000000000000000000000000000000000000000000000000000000000000000000000000000000000000000000000000000000000000000000000000000000000000000000000000000000000000000000000000000000000000000000000000
310
00000000000000000000000000000000000000000000000000000000000000000000000000000000000000000000000000000000000000000000000000000000000000000000000000000000000000000000000000000000000000000000000000000000000000000000000000000000000000000000000000000000000000
310
00000000000000000000000000000000000000000000000000000000000000000000000000000000000000000000000000000000000000000000000000000000000000000000000000000000000000000000000000000000000000000000000000000000000000000000000000000000000000000000000000000000000000
310
00000000000000000000000000000000000000000000000000000000000000000000000000000000000000000000000000000000000000000000000000000000000000000000000000000000000000000000000000000000000000000000000000000000000000000000000000000000000000000000000000000000000000
310
00000000000000000000000000000000000000000000000000000000000000000000000000000000000000000000000000000000000000000000000000000000000000000000000000000000000000000000000000000000000000000000000000000000000000000000000000000000000000000000000000000000000000
310
00000000000000000000000000000000000000000000000000000000000000000000000000000000000000000000000000000000000000000000000000000000000000000000000000000000000000000000000000000000000000000000000000000000000000000000000000000000000000000000000000000000000000
310
00000000000000000000000000000000000000000000000000000000000000000000000000000000000000000000000000000000000000000000000000000000000000000000000000000000000000000000000000000000000000000000000000000000000000000000000000000000000000000000000000000000000000
310
00000000000000000000000000000000000000000000000000000000000000000000000000000000000000000000000000000000000000000000000000000000000000000000000000000000000000000000000000000000000000000000000000000000000000000000000000000000000000000000000000000000000000
310
00000000000000000000000000000000000000000000000000000000000000000000000000000000000000000000000000000000000000000000000000000000000000000000000000000000000000000000000000000000000000000000000000000000000000000000000000000000000000000000000000000000000000
310
00000000000000000000000000000000000000000000000000000000000000000000000000000000000000000000000000000000000000000000000000000000000000000000000000000000000000000000000000000000000000000000000000000000000000000000000000000000000000000000000000000000000000
310
00000000000000000000000000000000000000000000000000000000000000000000000000000000000000000000000000000000000000000000000000000000000000000000000000000000000000000000000000000000000000000000000000000000000000000000000000000000000000000000000000000000000000
310
00000000000000000000000000000000000000000000000000000000000000000000000000000000000000000000000000000000000000000000000000000000000000000000000000000000000000000000000000000000000000000000000000000000000000000000000000000000000000000000000000000000000000
310
00000000000000000000000000000000000000000000000000000000000000000000000000000000000000000000000000000000000000000000000000000000000000000000000000000000000000000000000000000000000000000000000000000000000000000000000000000000000000000000000000000000000000
310
00000000000000000000000000000000000000000000000000000000000000000000000000000000000000000000000000000000000000000000000000000000000000000000000000000000000000000000000000000000000000000000000000000000000000000000000000000000000000000000000000000000000000
310
00000000000000000000000000000000000000000000000000000000000000000000000000000000000000000000000000000000000000000000000000000000000000000000000000000000000000000000000000000000000000000000000000000000000000000000000000000000000000000000000000000000000000
310
00000000000000000000000000000000000000000000000000000000000000000000000000000000000000000000000000000000000000000000000000000000000000000000000000000000000000000000000000000000000000000000000000000000000000000000000000000000000000000000000000000000000000
310
00000000000000000000000000000000000000000000000000000000000000000000000000000000000000000000000000000000000000000000000000000000000000000000000000000000000000000000000000000000000000000000000000000000000000000000000000000000000000000000000000000000000000
310
00000000000000000000000000000000000000000000000000000000000000000000000000000000000000000000000000000000000000000000000000000000000000000000000000000000000000000000000000000000000000000000000000000000000000000000000000000000000000000000000000000000000000
310
00000000000000000000000000000000000000000000000000000000000000000000000000000000000000000000000000000000000000000000000000000000000000000000000000000000000000000000000000000000000000000000000000000000000000000000000000000000000000000000000000000000000000
310
00000000000000000000000000000000000000000000000000000000000000000000000000000000000000000000000000000000000000000000000000000000000000000000000000000000000000000000000000000000000000000000000000000000000000000000000000000000000000000000000000000000000000
310
00000000000000000000000000000000000000000000000000000000000000000000000000000000000000000000000000000000000000000000000000000000000000000000000000000000000000000000000000000000000000000000000000000000000000000000000000000000000000000000000000000000000000
310
00000000000000000000000000000000000000000000000000000000000000000000000000000000000000000000000000000000000000000000000000000000000000000000000000000000000000000000000000000000000000000000000000000000000000000000000000000000000000000000000000000000000000
310
00000000000000000000000000000000000000000000000000000000000000000000000000000000000000000000000000000000000000000000000000000000000000000000000000000000000000000000000000000000000000000000000000000000000000000000000000000000000000000000000000000000000000
310
00000000000000000000000000000000000000000000000000000000000000000000000000000000000000000000000000000000000000000000000000000000000000000000000000000000000000000000000000000000000000000000000000000000000000000000000000000000000000000000000000000000000000
310
00000000000000000000000000000000000000000000000000000000000000000000000000000000000000000000000000000000000000000000000000000000000000000000000000000000000000000000000000000000000000000000000000000000000000000000000000000000000000000000000000000000000000
310
00000000000000000000000000000000000000000000000000000000000000000000000000000000000000000000000000000000000000000000000000000000000000000000000000000000000000000000000000000000000000000000000000000000000000000000000000000000000000000000000000000000000000
310
00000000000000000000000000000000000000000000000000000000000000000000000000000000000000000000000000000000000000000000000000000000000000000000000000000000000000000000000000000000000000000000000000000000000000000000000000000000000000000000000000000000000000
310
00000000000000000000000000000000000000000000000000000000000000000000000000000000000000000000000000000000000000000000000000000000000000000000000000000000000000000000000000000000000000000000000000000000000000000000000000000000000000000000000000000000000000
310
00000000000000000000000000000000000000000000000000000000000000000000000000000000000000000000000000000000000000000000000000000000000000000000000000000000000000000000000000000000000000000000000000000000000000000000000000000000000000000000000000000000000000
310
00000000000000000000000000000000000000000000000000000000000000000000000000000000000000000000000000000000000000000000000000000000000000000000000000000000000000000000000000000000000000000000000000000000000000000000000000000000000000000000000000000000000000
310
00000000000000000000000000000000000000000000000000000000000000000000000000000000000000000000000000000000000000000000000000000000000000000000000000000000000000000000000000000000000000000000000000000000000000000000000000000000000000000000000000000000000000
310
00000000000000000000000000000000000000000000000000000000000000000000000000000000000000000000000000000000000000000000000000000000000000000000000000000000000000000000000000000000000000000000000000000000000000000000000000000000000000000000000000000000000000
310
00000000000000000000000000000000000000000000000000000000000000000000000000000000000000000000000000000000000000000000000000000000000000000000000000000000000000000000000000000000000000000000000000000000000000000000000000000000000000000000000000000000000000
310
00000000000000000000000000000000000000000000000000000000000000000000000000000000000000000000000000000000000000000000000000000000000000000000000000000000000000000000000000000000000000000000000000000000000000000000000000000000000000000000000000000000000000
310
00000000000000000000000000000000000000000000000000000000000000000000000000000000000000000000000000000000000000000000000000000000000000000000000000000000000000000000000000000000000000000000000000000000000000000000000000000000000000000000000000000000000000
310
00000000000000000000000000000000000000000000000000000000000000000000000000000000000000000000000000000000000000000000000000000000000000000000000000000000000000000000000000000000000000000000000000000000000000000000000000000000000000000000000000000000000000
310
00000000000000000000000000000000000000000000000000000000000000000000000000000000000000000000000000000000000000000000000000000000000000000000000000000000000000000000000000000000000000000000000000000000000000000000000000000000000000000000000000000000000000
310
00000000000000000000000000000000000000000000000000000000000000000000000000000000000000000000000000000000000000000000000000000000000000000000000000000000000000000000000000000000000000000000000000000000000000000000000000000000000000000000000000000000000000
310
00000000000000000000000000000000000000000000000000000000000000000000000000000000000000000000000000000000000000000000000000000000000000000000000000000000000000000000000000000000000000000000000000000000000000000000000000000000000000000000000000000000000000
310
00000000000000000000000000000000000000000000000000000000000000000000000000000000000000000000000000000000000000000000000000000000000000000000000000000000000000000000000000000000000000000000000000000000000000000000000000000000000000000000000000000000000000
310
00000000000000000000000000000000000000000000000000000000000000000000000000000000000000000000000000000000000000000000000000000000000000000000000000000000000000000000000000000000000000000000000000000000000000000000000000000000000000000000000000000000000000
310
00000000000000000000000000000000000000000000000000000000000000000000000000000000000000000000000000000000000000000000000000000000000000000000000000000000000000000000000000000000000000000000000000000000000000000000000000000000000000000000000000000000000000
310
00000000000000000000000000000000000000000000000000000000000000000000000000000000000000000000000000000000000000000000000000000000000000000000000000000000
  0
XRECORD
  5
5681
102
{ACAD_REACTORS
330
5680
102
}
330
5680
100
AcDbXrecord
280
     1
102
SHADEPLOT
 70
     0
102
SHADEPLOTRESLEVEL
 70
     2
102
SHADEPLOTCUSTOMDPI
 70
   300
  0
XRECORD
  5
5684
102
{ACAD_REACTORS
330
5683
102
}
330
5683
100
AcDbXrecord
280
     1
102
SHADEPLOT
 70
     0
102
SHADEPLOTRESLEVEL
 70
     2
102
SHADEPLOTCUSTOMDPI
 70
   300
  0
XRECORD
  5
5688
102
{ACAD_REACTORS
330
5687
102
}
330
5687
100
AcDbXrecord
280
     1
102
MATERIAL
148
0.0
149
0.0
149
0.0
 93
        0
 94
       63
282
     0
 72
     1
 77
     1
171
     1
175
     1
179
     1
273
     0
  0
XRECORD
  5
5686
102
{ACAD_REACTORS
330
5685
102
}
330
5685
100
AcDbXrecord
280
     1
102
MATERIAL
148
0.0
149
0.0
149
0.0
 93
        0
 94
       63
282
     0
 72
     1
 77
     1
171
     1
175
     1
179
     1
273
     0
  0
XRECORD
  5
568A
102
{ACAD_REACTORS
330
5689
102
}
330
5689
100
AcDbXrecord
280
     1
102
MATERIAL
148
0.0
149
0.0
149
0.0
 93
        0
 94
       63
282
     0
 72
     1
 77
     1
171
     1
175
     1
179
     1
273
     0
  0
CELLSTYLEMAP
  5
5678
102
{ACAD_REACTORS
330
229F
102
}
330
229F
100
AcDbCellStyleMap
 90
        3
300
CELLSTYLE
  1
TABLEFORMAT_BEGIN
 90
        5
170
     1
 91
        0
 92
    32768
 62
   257
 93
        1
300
CONTENTFORMAT
  1
CONTENTFORMAT_BEGIN
 90
        0
 91
        0
 92
      512
 93
        0
300

 40
0.0
140
1.0
 94
        5
 62
     0
340
11
144
6.0
309
CONTENTFORMAT_END
171
     1
301
MARGIN
  1
CELLMARGIN_BEGIN
 40
1.5
 40
1.5
 40
1.5
 40
1.5
 40
0.18
 40
0.18
309
CELLMARGIN_END
 94
        6
 95
        1
302
GRIDFORMAT
  1
GRIDFORMAT_BEGIN
 90
        0
 91
        1
 62
     0
 92
       -2
340
0
 93
        0
 40
0.045
309
GRIDFORMAT_END
 95
        2
302
GRIDFORMAT
  1
GRIDFORMAT_BEGIN
 90
        0
 91
        1
 62
     0
 92
       -2
340
0
 93
        0
 40
0.045
309
GRIDFORMAT_END
 95
        4
302
GRIDFORMAT
  1
GRIDFORMAT_BEGIN
 90
        0
 91
        1
 62
     0
 92
       -2
340
0
 93
        0
 40
0.045
309
GRIDFORMAT_END
 95
        8
302
GRIDFORMAT
  1
GRIDFORMAT_BEGIN
 90
        0
 91
        1
 62
     0
 92
       -2
340
0
 93
        0
 40
0.045
309
GRIDFORMAT_END
 95
       16
302
GRIDFORMAT
  1
GRIDFORMAT_BEGIN
 90
        0
 91
        1
 62
     0
 92
       -2
340
0
 93
        0
 40
0.045
309
GRIDFORMAT_END
 95
       32
302
GRIDFORMAT
  1
GRIDFORMAT_BEGIN
 90
        0
 91
        1
 62
     0
 92
       -2
340
0
 93
        0
 40
0.045
309
GRIDFORMAT_END
309
TABLEFORMAT_END
  1
CELLSTYLE_BEGIN
 90
        1
 91
        1
300
_TITLE
309
CELLSTYLE_END
300
CELLSTYLE
  1
TABLEFORMAT_BEGIN
 90
        5
170
     1
 91
        0
 92
        0
 62
   257
 93
        1
300
CONTENTFORMAT
  1
CONTENTFORMAT_BEGIN
 90
        0
 91
        0
 92
      512
 93
        0
300

 40
0.0
140
1.0
 94
        5
 62
     0
340
11
144
4.5
309
CONTENTFORMAT_END
171
     1
301
MARGIN
  1
CELLMARGIN_BEGIN
 40
1.5
 40
1.5
 40
1.5
 40
1.5
 40
0.18
 40
0.18
309
CELLMARGIN_END
 94
        6
 95
        1
302
GRIDFORMAT
  1
GRIDFORMAT_BEGIN
 90
        0
 91
        1
 62
     0
 92
       -2
340
0
 93
        0
 40
0.045
309
GRIDFORMAT_END
 95
        2
302
GRIDFORMAT
  1
GRIDFORMAT_BEGIN
 90
        0
 91
        1
 62
     0
 92
       -2
340
0
 93
        0
 40
0.045
309
GRIDFORMAT_END
 95
        4
302
GRIDFORMAT
  1
GRIDFORMAT_BEGIN
 90
        0
 91
        1
 62
     0
 92
       -2
340
0
 93
        0
 40
0.045
309
GRIDFORMAT_END
 95
        8
302
GRIDFORMAT
  1
GRIDFORMAT_BEGIN
 90
        0
 91
        1
 62
     0
 92
       -2
340
0
 93
        0
 40
0.045
309
GRIDFORMAT_END
 95
       16
302
GRIDFORMAT
  1
GRIDFORMAT_BEGIN
 90
        0
 91
        1
 62
     0
 92
       -2
340
0
 93
        0
 40
0.045
309
GRIDFORMAT_END
 95
       32
302
GRIDFORMAT
  1
GRIDFORMAT_BEGIN
 90
        0
 91
        1
 62
     0
 92
       -2
340
0
 93
        0
 40
0.045
309
GRIDFORMAT_END
309
TABLEFORMAT_END
  1
CELLSTYLE_BEGIN
 90
        2
 91
        1
300
_HEADER
309
CELLSTYLE_END
300
CELLSTYLE
  1
TABLEFORMAT_BEGIN
 90
        5
170
     1
 91
        0
 92
        0
 62
   257
 93
        1
300
CONTENTFORMAT
  1
CONTENTFORMAT_BEGIN
 90
        0
 91
        0
 92
      512
 93
        0
300

 40
0.0
140
1.0
 94
        2
 62
     0
340
11
144
4.5
309
CONTENTFORMAT_END
171
     1
301
MARGIN
  1
CELLMARGIN_BEGIN
 40
1.5
 40
1.5
 40
1.5
 40
1.5
 40
0.18
 40
0.18
309
CELLMARGIN_END
 94
        6
 95
        1
302
GRIDFORMAT
  1
GRIDFORMAT_BEGIN
 90
        0
 91
        1
 62
     0
 92
       -2
340
0
 93
        0
 40
0.045
309
GRIDFORMAT_END
 95
        2
302
GRIDFORMAT
  1
GRIDFORMAT_BEGIN
 90
        0
 91
        1
 62
     0
 92
       -2
340
0
 93
        0
 40
0.045
309
GRIDFORMAT_END
 95
        4
302
GRIDFORMAT
  1
GRIDFORMAT_BEGIN
 90
        0
 91
        1
 62
     0
 92
       -2
340
0
 93
        0
 40
0.045
309
GRIDFORMAT_END
 95
        8
302
GRIDFORMAT
  1
GRIDFORMAT_BEGIN
 90
        0
 91
        1
 62
     0
 92
       -2
340
0
 93
        0
 40
0.045
309
GRIDFORMAT_END
 95
       16
302
GRIDFORMAT
  1
GRIDFORMAT_BEGIN
 90
        0
 91
        1
 62
     0
 92
       -2
340
0
 93
        0
 40
0.045
309
GRIDFORMAT_END
 95
       32
302
GRIDFORMAT
  1
GRIDFORMAT_BEGIN
 90
        0
 91
        1
 62
     0
 92
       -2
340
0
 93
        0
 40
0.045
309
GRIDFORMAT_END
309
TABLEFORMAT_END
  1
CELLSTYLE_BEGIN
 90
        3
 91
        2
300
_DATA
309
CELLSTYLE_END
  0
XRECORD
  5
56AB
102
{ACAD_REACTORS
330
229F
102
}
330
229F
100
AcDbXrecord
280
     1
102
ACAD_ROUNDTRIP_PRE2007_TABLESTYLE
 90
      512
 91
        0
  1

 92
      512
 93
        0
  2

 94
      512
 95
        0
  3

  0
XRECORD
  5
5696
102
{ACAD_REACTORS
330
5695
102
}
330
5695
100
AcDbXrecord
280
     1
102
RTVSPropertyOp0
 70
     1
102
RTVSPropertyOp1
 70
     1
102
RTVSPropertyOp2
 70
     1
102
RTVSPropertyOp3
 70
     1
102
RTVSPropertyOp4
 70
     1
102
RTVSPropertyOp5
 70
     1
102
RTVSPropertyOp6
 70
     1
102
RTVSPropertyOp7
 70
     1
102
RTVSPropertyOp8
 70
     1
102
RTVSPropertyOp9
 70
     1
102
RTVSPropertyOp10
 70
     1
102
RTVSPropertyOp11
 70
     1
102
RTVSPropertyOp12
 70
     1
102
RTVSPropertyOp13
 70
     1
102
RTVSPropertyOp14
 70
     1
102
RTVSPropertyOp15
 70
     1
102
RTVSPropertyOp16
 70
     1
102
RTVSPropertyOp17
 70
     1
102
RTVSPropertyOp18
 70
     1
102
RTVSPropertyOp19
 70
     1
102
RTVSPropertyOp20
 70
     1
102
RTVSPropertyOp21
 70
     1
102
RTVSPropertyOp22
 70
     1
102
RTVSPropertyOp23
 70
     1
102
RTVSPropertyOp24
 70
     1
102
RTVSPropertyOp25
 70
     1
102
RTVSPropertyOp26
 70
     1
102
RTVSPropertyOp27
 70
     1
102
RTVSPropertyOp28
 70
     1
102
RTVSPropertyOp29
 70
     1
102
RTVSPropertyOp30
 70
     1
102
RTVSPropertyOp31
 70
     1
102
RTVSPropertyOp32
 70
     1
  0
XRECORD
  5
569A
102
{ACAD_REACTORS
330
5699
102
}
330
5699
100
AcDbXrecord
280
     1
102
RTVSPropertyOp0
 70
     1
102
RTVSPropertyOp1
 70
     1
102
RTVSPropertyOp2
 70
     1
102
RTVSPropertyOp3
 70
     1
102
RTVSPropertyOp4
 70
     1
102
RTVSPropertyOp5
 70
     1
102
RTVSPropertyOp6
 70
     1
102
RTVSPropertyOp7
 70
     1
102
RTVSPropertyOp8
 70
     1
102
RTVSPropertyOp9
 70
     1
102
RTVSPropertyOp10
 70
     1
102
RTVSPropertyOp11
 70
     1
102
RTVSPropertyOp12
 70
     1
102
RTVSPropertyOp13
 70
     1
102
RTVSPropertyOp14
 70
     1
102
RTVSPropertyOp15
 70
     1
102
RTVSPropertyOp16
 70
     1
102
RTVSPropertyOp17
 70
     1
102
RTVSPropertyOp18
 70
     1
102
RTVSPropertyOp19
 70
     1
102
RTVSPropertyOp20
 70
     1
102
RTVSPropertyOp21
 70
     1
102
RTVSPropertyOp22
 70
     1
102
RTVSPropertyOp23
 70
     1
102
RTVSPropertyOp24
 70
     1
102
RTVSPropertyOp25
 70
     1
102
RTVSPropertyOp26
 70
     1
102
RTVSPropertyOp27
 70
     1
102
RTVSPropertyOp28
 70
     1
102
RTVSPropertyOp29
 70
     1
102
RTVSPropertyOp30
 70
     1
102
RTVSPropertyOp31
 70
     1
102
RTVSPropertyOp32
 70
     1
  0
XRECORD
  5
5698
102
{ACAD_REACTORS
330
5697
102
}
330
5697
100
AcDbXrecord
280
     1
102
RTVSPropertyOp0
 70
     1
102
RTVSPropertyOp1
 70
     1
102
RTVSPropertyOp2
 70
     1
102
RTVSPropertyOp3
 70
     1
102
RTVSPropertyOp4
 70
     1
102
RTVSPropertyOp5
 70
     1
102
RTVSPropertyOp6
 70
     1
102
RTVSPropertyOp7
 70
     1
102
RTVSPropertyOp8
 70
     1
102
RTVSPropertyOp9
 70
     1
102
RTVSPropertyOp10
 70
     1
102
RTVSPropertyOp11
 70
     1
102
RTVSPropertyOp12
 70
     1
102
RTVSPropertyOp13
 70
     1
102
RTVSPropertyOp14
 70
     1
102
RTVSPropertyOp15
 70
     1
102
RTVSPropertyOp16
 70
     1
102
RTVSPropertyOp17
 70
     1
102
RTVSPropertyOp18
 70
     1
102
RTVSPropertyOp19
 70
     1
102
RTVSPropertyOp20
 70
     1
102
RTVSPropertyOp21
 70
     1
102
RTVSPropertyOp22
 70
     1
102
RTVSPropertyOp23
 70
     1
102
RTVSPropertyOp24
 70
     1
102
RTVSPropertyOp25
 70
     1
102
RTVSPropertyOp26
 70
     1
102
RTVSPropertyOp27
 70
     1
102
RTVSPropertyOp28
 70
     1
102
RTVSPropertyOp29
 70
     1
102
RTVSPropertyOp30
 70
     1
102
RTVSPropertyOp31
 70
     1
102
RTVSPropertyOp32
 70
     1
  0
XRECORD
  5
5694
102
{ACAD_REACTORS
330
5693
102
}
330
5693
100
AcDbXrecord
280
     1
102
RTVSPropertyOp0
 70
     1
102
RTVSPropertyOp1
 70
     1
102
RTVSPropertyOp2
 70
     1
102
RTVSPropertyOp3
 70
     1
102
RTVSPropertyOp4
 70
     1
102
RTVSPropertyOp5
 70
     1
102
RTVSPropertyOp6
 70
     1
102
RTVSPropertyOp7
 70
     1
102
RTVSPropertyOp8
 70
     1
102
RTVSPropertyOp9
 70
     1
102
RTVSPropertyOp10
 70
     1
102
RTVSPropertyOp11
 70
     1
102
RTVSPropertyOp12
 70
     1
102
RTVSPropertyOp13
 70
     1
102
RTVSPropertyOp14
 70
     1
102
RTVSPropertyOp15
 70
     1
102
RTVSPropertyOp16
 70
     1
102
RTVSPropertyOp17
 70
     1
102
RTVSPropertyOp18
 70
     1
102
RTVSPropertyOp19
 70
     1
102
RTVSPropertyOp20
 70
     1
102
RTVSPropertyOp21
 70
     1
102
RTVSPropertyOp22
 70
     1
102
RTVSPropertyOp23
 70
     1
102
RTVSPropertyOp24
 70
     1
102
RTVSPropertyOp25
 70
     1
102
RTVSPropertyOp26
 70
     1
102
RTVSPropertyOp27
 70
     1
102
RTVSPropertyOp28
 70
     1
102
RTVSPropertyOp29
 70
     1
102
RTVSPropertyOp30
 70
     1
102
RTVSPropertyOp31
 70
     1
102
RTVSPropertyOp32
 70
     1
  0
XRECORD
  5
56A2
102
{ACAD_REACTORS
330
56A1
102
}
330
56A1
100
AcDbXrecord
280
     1
102
RTVSPropertyOp0
 70
     1
102
RTVSPropertyOp1
 70
     1
102
RTVSPropertyOp2
 70
     1
102
RTVSPropertyOp3
 70
     1
102
RTVSPropertyOp4
 70
     1
102
RTVSPropertyOp5
 70
     1
102
RTVSPropertyOp6
 70
     1
102
RTVSPropertyOp7
 70
     1
102
RTVSPropertyOp8
 70
     1
102
RTVSPropertyOp9
 70
     1
102
RTVSPropertyOp10
 70
     1
102
RTVSPropertyOp11
 70
     1
102
RTVSPropertyOp12
 70
     1
102
RTVSPropertyOp13
 70
     1
102
RTVSPropertyOp14
 70
     1
102
RTVSPropertyOp15
 70
     1
102
RTVSPropertyOp16
 70
     1
102
RTVSPropertyOp17
 70
     1
102
RTVSPropertyOp18
 70
     1
102
RTVSPropertyOp19
 70
     1
102
RTVSPropertyOp20
 70
     1
102
RTVSPropertyOp21
 70
     1
102
RTVSPropertyOp22
 70
     1
102
RTVSPropertyOp23
 70
     1
102
RTVSPropertyOp24
 70
     1
102
RTVSPropertyOp25
 70
     1
102
RTVSPropertyOp26
 70
     1
102
RTVSPropertyOp27
 70
     1
102
RTVSPropertyOp28
 70
     1
102
RTVSPropertyOp29
 70
     1
102
RTVSPropertyOp30
 70
     1
102
RTVSPropertyOp31
 70
     1
102
RTVSPropertyOp32
 70
     1
  0
XRECORD
  5
56AA
102
{ACAD_REACTORS
330
56A9
102
}
330
56A9
100
AcDbXrecord
280
     1
102
RTVSPropertyOp0
 70
     1
102
RTVSPropertyOp1
 70
     1
102
RTVSPropertyOp2
 70
     1
102
RTVSPropertyOp3
 70
     1
102
RTVSPropertyOp4
 70
     1
102
RTVSPropertyOp5
 70
     1
102
RTVSPropertyOp6
 70
     1
102
RTVSPropertyOp7
 70
     1
102
RTVSPropertyOp8
 70
     1
102
RTVSPropertyOp9
 70
     1
102
RTVSPropertyOp10
 70
     1
102
RTVSPropertyOp11
 70
     1
102
RTVSPropertyOp12
 70
     1
102
RTVSPropertyOp13
 70
     1
102
RTVSPropertyOp14
 70
     1
102
RTVSPropertyOp15
 70
     1
102
RTVSPropertyOp16
 70
     1
102
RTVSPropertyOp17
 70
     1
102
RTVSPropertyOp18
 70
     1
102
RTVSPropertyOp19
 70
     1
102
RTVSPropertyOp20
 70
     1
102
RTVSPropertyOp21
 70
     1
102
RTVSPropertyOp22
 70
     1
102
RTVSPropertyOp23
 70
     1
102
RTVSPropertyOp24
 70
     1
102
RTVSPropertyOp25
 70
     1
102
RTVSPropertyOp26
 70
     1
102
RTVSPropertyOp27
 70
     1
102
RTVSPropertyOp28
 70
     1
102
RTVSPropertyOp29
 70
     1
102
RTVSPropertyOp30
 70
     1
102
RTVSPropertyOp31
 70
     1
102
RTVSPropertyOp32
 70
     1
  0
XRECORD
  5
569C
102
{ACAD_REACTORS
330
569B
102
}
330
569B
100
AcDbXrecord
280
     1
102
RTVSPropertyOp0
 70
     1
102
RTVSPropertyOp1
 70
     1
102
RTVSPropertyOp2
 70
     1
102
RTVSPropertyOp3
 70
     1
102
RTVSPropertyOp4
 70
     1
102
RTVSPropertyOp5
 70
     1
102
RTVSPropertyOp6
 70
     1
102
RTVSPropertyOp7
 70
     1
102
RTVSPropertyOp8
 70
     1
102
RTVSPropertyOp9
 70
     1
102
RTVSPropertyOp10
 70
     1
102
RTVSPropertyOp11
 70
     1
102
RTVSPropertyOp12
 70
     1
102
RTVSPropertyOp13
 70
     1
102
RTVSPropertyOp14
 70
     1
102
RTVSPropertyOp15
 70
     1
102
RTVSPropertyOp16
 70
     1
102
RTVSPropertyOp17
 70
     1
102
RTVSPropertyOp18
 70
     1
102
RTVSPropertyOp19
 70
     1
102
RTVSPropertyOp20
 70
     1
102
RTVSPropertyOp21
 70
     1
102
RTVSPropertyOp22
 70
     1
102
RTVSPropertyOp23
 70
     1
102
RTVSPropertyOp24
 70
     1
102
RTVSPropertyOp25
 70
     1
102
RTVSPropertyOp26
 70
     1
102
RTVSPropertyOp27
 70
     1
102
RTVSPropertyOp28
 70
     1
102
RTVSPropertyOp29
 70
     1
102
RTVSPropertyOp30
 70
     1
102
RTVSPropertyOp31
 70
     1
102
RTVSPropertyOp32
 70
     1
  0
XRECORD
  5
56A0
102
{ACAD_REACTORS
330
569F
102
}
330
569F
100
AcDbXrecord
280
     1
102
RTVSPropertyOp0
 70
     1
102
RTVSPropertyOp1
 70
     1
102
RTVSPropertyOp2
 70
     1
102
RTVSPropertyOp3
 70
     1
102
RTVSPropertyOp4
 70
     1
102
RTVSPropertyOp5
 70
     1
102
RTVSPropertyOp6
 70
     1
102
RTVSPropertyOp7
 70
     1
102
RTVSPropertyOp8
 70
     1
102
RTVSPropertyOp9
 70
     1
102
RTVSPropertyOp10
 70
     1
102
RTVSPropertyOp11
 70
     1
102
RTVSPropertyOp12
 70
     1
102
RTVSPropertyOp13
 70
     1
102
RTVSPropertyOp14
 70
     1
102
RTVSPropertyOp15
 70
     1
102
RTVSPropertyOp16
 70
     1
102
RTVSPropertyOp17
 70
     1
102
RTVSPropertyOp18
 70
     1
102
RTVSPropertyOp19
 70
     1
102
RTVSPropertyOp20
 70
     1
102
RTVSPropertyOp21
 70
     1
102
RTVSPropertyOp22
 70
     1
102
RTVSPropertyOp23
 70
     1
102
RTVSPropertyOp24
 70
     1
102
RTVSPropertyOp25
 70
     1
102
RTVSPropertyOp26
 70
     1
102
RTVSPropertyOp27
 70
     1
102
RTVSPropertyOp28
 70
     1
102
RTVSPropertyOp29
 70
     1
102
RTVSPropertyOp30
 70
     1
102
RTVSPropertyOp31
 70
     1
102
RTVSPropertyOp32
 70
     1
  0
XRECORD
  5
56BF
102
{ACAD_REACTORS
330
56BE
102
}
330
56BE
100
AcDbXrecord
280
     1
102
RTVSPropertyOp0
 70
     0
102
RTVSPropertyOp1
 70
     0
102
RTVSPropertyOp2
 70
     0
102
RTVSPropertyOp3
 70
     0
102
RTVSPropertyOp4
 70
     0
102
RTVSPropertyOp5
 70
     0
102
RTVSPropertyOp6
 70
     0
102
RTVSPropertyOp7
 70
     0
102
RTVSPropertyOp8
 70
     0
102
RTVSPropertyOp9
 70
     0
102
RTVSPropertyOp10
 70
     0
102
RTVSPropertyOp11
 70
     0
102
RTVSPropertyOp12
 70
     0
102
RTVSPropertyOp13
 70
     0
102
RTVSPropertyOp14
 70
     2
102
RTVSPropertyOp15
 70
     0
102
RTVSPropertyOp16
 70
     0
102
RTVSPropertyOp17
 70
     0
102
RTVSPropertyOp18
 70
     0
102
RTVSPropertyOp19
 70
     0
102
RTVSPropertyOp20
 70
     0
102
RTVSPropertyOp21
 70
     0
102
RTVSPropertyOp22
 70
     0
102
RTVSPropertyOp23
 70
     0
102
RTVSPropertyOp24
 70
     0
102
RTVSPropertyOp25
 70
     0
102
RTVSPropertyOp26
 70
     0
102
RTVSPropertyOp27
 70
     0
102
RTVSPropertyOp28
 70
     0
102
RTVSPropertyOp29
 70
     0
102
RTVSPropertyOp30
 70
     0
102
RTVSPropertyOp31
 70
     0
102
RTVSPropertyOp32
 70
     0
  0
XRECORD
  5
56A8
102
{ACAD_REACTORS
330
56A7
102
}
330
56A7
100
AcDbXrecord
280
     1
102
RTVSPropertyOp0
 70
     1
102
RTVSPropertyOp1
 70
     1
102
RTVSPropertyOp2
 70
     1
102
RTVSPropertyOp3
 70
     1
102
RTVSPropertyOp4
 70
     1
102
RTVSPropertyOp5
 70
     1
102
RTVSPropertyOp6
 70
     1
102
RTVSPropertyOp7
 70
     1
102
RTVSPropertyOp8
 70
     1
102
RTVSPropertyOp9
 70
     1
102
RTVSPropertyOp10
 70
     1
102
RTVSPropertyOp11
 70
     1
102
RTVSPropertyOp12
 70
     1
102
RTVSPropertyOp13
 70
     1
102
RTVSPropertyOp14
 70
     1
102
RTVSPropertyOp15
 70
     1
102
RTVSPropertyOp16
 70
     1
102
RTVSPropertyOp17
 70
     1
102
RTVSPropertyOp18
 70
     1
102
RTVSPropertyOp19
 70
     1
102
RTVSPropertyOp20
 70
     1
102
RTVSPropertyOp21
 70
     1
102
RTVSPropertyOp22
 70
     1
102
RTVSPropertyOp23
 70
     1
102
RTVSPropertyOp24
 70
     1
102
RTVSPropertyOp25
 70
     1
102
RTVSPropertyOp26
 70
     1
102
RTVSPropertyOp27
 70
     1
102
RTVSPropertyOp28
 70
     1
102
RTVSPropertyOp29
 70
     1
102
RTVSPropertyOp30
 70
     1
102
RTVSPropertyOp31
 70
     1
102
RTVSPropertyOp32
 70
     1
  0
XRECORD
  5
568C
102
{ACAD_REACTORS
330
568B
102
}
330
568B
100
AcDbXrecord
280
     1
102
RTVSPropertyOp0
 70
     1
102
RTVSPropertyOp1
 70
     1
102
RTVSPropertyOp2
 70
     1
102
RTVSPropertyOp3
 70
     1
102
RTVSPropertyOp4
 70
     1
102
RTVSPropertyOp5
 70
     1
102
RTVSPropertyOp6
 70
     1
102
RTVSPropertyOp7
 70
     1
102
RTVSPropertyOp8
 70
     1
102
RTVSPropertyOp9
 70
     1
102
RTVSPropertyOp10
 70
     1
102
RTVSPropertyOp11
 70
     1
102
RTVSPropertyOp12
 70
     1
102
RTVSPropertyOp13
 70
     1
102
RTVSPropertyOp14
 70
     1
102
RTVSPropertyOp15
 70
     1
102
RTVSPropertyOp16
 70
     1
102
RTVSPropertyOp17
 70
     1
102
RTVSPropertyOp18
 70
     1
102
RTVSPropertyOp19
 70
     1
102
RTVSPropertyOp20
 70
     1
102
RTVSPropertyOp21
 70
     1
102
RTVSPropertyOp22
 70
     1
102
RTVSPropertyOp23
 70
     1
102
RTVSPropertyOp24
 70
     1
102
RTVSPropertyOp25
 70
     1
102
RTVSPropertyOp26
 70
     1
102
RTVSPropertyOp27
 70
     1
102
RTVSPropertyOp28
 70
     1
102
RTVSPropertyOp29
 70
     1
102
RTVSPropertyOp30
 70
     1
102
RTVSPropertyOp31
 70
     1
102
RTVSPropertyOp32
 70
     1
  0
XRECORD
  5
568E
102
{ACAD_REACTORS
330
568D
102
}
330
568D
100
AcDbXrecord
280
     1
102
RTVSPropertyOp0
 70
     1
102
RTVSPropertyOp1
 70
     1
102
RTVSPropertyOp2
 70
     1
102
RTVSPropertyOp3
 70
     1
102
RTVSPropertyOp4
 70
     1
102
RTVSPropertyOp5
 70
     1
102
RTVSPropertyOp6
 70
     1
102
RTVSPropertyOp7
 70
     1
102
RTVSPropertyOp8
 70
     1
102
RTVSPropertyOp9
 70
     1
102
RTVSPropertyOp10
 70
     1
102
RTVSPropertyOp11
 70
     1
102
RTVSPropertyOp12
 70
     1
102
RTVSPropertyOp13
 70
     1
102
RTVSPropertyOp14
 70
     1
102
RTVSPropertyOp15
 70
     1
102
RTVSPropertyOp16
 70
     1
102
RTVSPropertyOp17
 70
     1
102
RTVSPropertyOp18
 70
     1
102
RTVSPropertyOp19
 70
     1
102
RTVSPropertyOp20
 70
     1
102
RTVSPropertyOp21
 70
     1
102
RTVSPropertyOp22
 70
     1
102
RTVSPropertyOp23
 70
     1
102
RTVSPropertyOp24
 70
     1
102
RTVSPropertyOp25
 70
     1
102
RTVSPropertyOp26
 70
     1
102
RTVSPropertyOp27
 70
     1
102
RTVSPropertyOp28
 70
     1
102
RTVSPropertyOp29
 70
     1
102
RTVSPropertyOp30
 70
     1
102
RTVSPropertyOp31
 70
     1
102
RTVSPropertyOp32
 70
     1
  0
XRECORD
  5
5690
102
{ACAD_REACTORS
330
568F
102
}
330
568F
100
AcDbXrecord
280
     1
102
RTVSPropertyOp0
 70
     1
102
RTVSPropertyOp1
 70
     1
102
RTVSPropertyOp2
 70
     1
102
RTVSPropertyOp3
 70
     1
102
RTVSPropertyOp4
 70
     1
102
RTVSPropertyOp5
 70
     1
102
RTVSPropertyOp6
 70
     1
102
RTVSPropertyOp7
 70
     1
102
RTVSPropertyOp8
 70
     1
102
RTVSPropertyOp9
 70
     1
102
RTVSPropertyOp10
 70
     1
102
RTVSPropertyOp11
 70
     1
102
RTVSPropertyOp12
 70
     1
102
RTVSPropertyOp13
 70
     1
102
RTVSPropertyOp14
 70
     1
102
RTVSPropertyOp15
 70
     1
102
RTVSPropertyOp16
 70
     1
102
RTVSPropertyOp17
 70
     1
102
RTVSPropertyOp18
 70
     1
102
RTVSPropertyOp19
 70
     1
102
RTVSPropertyOp20
 70
     1
102
RTVSPropertyOp21
 70
     1
102
RTVSPropertyOp22
 70
     1
102
RTVSPropertyOp23
 70
     1
102
RTVSPropertyOp24
 70
     1
102
RTVSPropertyOp25
 70
     1
102
RTVSPropertyOp26
 70
     1
102
RTVSPropertyOp27
 70
     1
102
RTVSPropertyOp28
 70
     1
102
RTVSPropertyOp29
 70
     1
102
RTVSPropertyOp30
 70
     1
102
RTVSPropertyOp31
 70
     1
102
RTVSPropertyOp32
 70
     1
  0
XRECORD
  5
5692
102
{ACAD_REACTORS
330
5691
102
}
330
5691
100
AcDbXrecord
280
     1
102
RTVSPropertyOp0
 70
     1
102
RTVSPropertyOp1
 70
     1
102
RTVSPropertyOp2
 70
     1
102
RTVSPropertyOp3
 70
     1
102
RTVSPropertyOp4
 70
     1
102
RTVSPropertyOp5
 70
     1
102
RTVSPropertyOp6
 70
     1
102
RTVSPropertyOp7
 70
     1
102
RTVSPropertyOp8
 70
     1
102
RTVSPropertyOp9
 70
     1
102
RTVSPropertyOp10
 70
     1
102
RTVSPropertyOp11
 70
     1
102
RTVSPropertyOp12
 70
     1
102
RTVSPropertyOp13
 70
     1
102
RTVSPropertyOp14
 70
     1
102
RTVSPropertyOp15
 70
     1
102
RTVSPropertyOp16
 70
     1
102
RTVSPropertyOp17
 70
     1
102
RTVSPropertyOp18
 70
     1
102
RTVSPropertyOp19
 70
     1
102
RTVSPropertyOp20
 70
     1
102
RTVSPropertyOp21
 70
     1
102
RTVSPropertyOp22
 70
     1
102
RTVSPropertyOp23
 70
     1
102
RTVSPropertyOp24
 70
     1
102
RTVSPropertyOp25
 70
     1
102
RTVSPropertyOp26
 70
     1
102
RTVSPropertyOp27
 70
     1
102
RTVSPropertyOp28
 70
     1
102
RTVSPropertyOp29
 70
     1
102
RTVSPropertyOp30
 70
     1
102
RTVSPropertyOp31
 70
     1
102
RTVSPropertyOp32
 70
     1
  0
XRECORD
  5
56AF
102
{ACAD_REACTORS
330
56AE
102
}
330
56AE
100
AcDbXrecord
280
     1
102
RTVSPropertyOp0
 70
     1
102
RTVSPropertyOp1
 70
     1
102
RTVSPropertyOp2
 70
     1
102
RTVSPropertyOp3
 70
     1
102
RTVSPropertyOp4
 70
     1
102
RTVSPropertyOp5
 70
     1
102
RTVSPropertyOp6
 70
     1
102
RTVSPropertyOp7
 70
     1
102
RTVSPropertyOp8
 70
     1
102
RTVSPropertyOp9
 70
     1
102
RTVSPropertyOp10
 70
     1
102
RTVSPropertyOp11
 70
     1
102
RTVSPropertyOp12
 70
     1
102
RTVSPropertyOp13
 70
     1
102
RTVSPropertyOp14
 70
     1
102
RTVSPropertyOp15
 70
     1
102
RTVSPropertyOp16
 70
     1
102
RTVSPropertyOp17
 70
     1
102
RTVSPropertyOp18
 70
     1
102
RTVSPropertyOp19
 70
     1
102
RTVSPropertyOp20
 70
     1
102
RTVSPropertyOp21
 70
     1
102
RTVSPropertyOp22
 70
     1
102
RTVSPropertyOp23
 70
     1
102
RTVSPropertyOp24
 70
     1
102
RTVSPropertyOp25
 70
     1
102
RTVSPropertyOp26
 70
     1
102
RTVSPropertyOp27
 70
     1
102
RTVSPropertyOp28
 70
     1
102
RTVSPropertyOp29
 70
     1
102
RTVSPropertyOp30
 70
     1
102
RTVSPropertyOp31
 70
     1
102
RTVSPropertyOp32
 70
     1
  0
XRECORD
  5
56BB
102
{ACAD_REACTORS
330
56BA
102
}
330
56BA
100
AcDbXrecord
280
     1
102
RTVSPropertyOp0
 70
     0
102
RTVSPropertyOp1
 70
     0
102
RTVSPropertyOp2
 70
     0
102
RTVSPropertyOp3
 70
     0
102
RTVSPropertyOp4
 70
     0
102
RTVSPropertyOp5
 70
     0
102
RTVSPropertyOp6
 70
     0
102
RTVSPropertyOp7
 70
     0
102
RTVSPropertyOp8
 70
     0
102
RTVSPropertyOp9
 70
     0
102
RTVSPropertyOp10
 70
     0
102
RTVSPropertyOp11
 70
     0
102
RTVSPropertyOp12
 70
     0
102
RTVSPropertyOp13
 70
     0
102
RTVSPropertyOp14
 70
     2
102
RTVSPropertyOp15
 70
     0
102
RTVSPropertyOp16
 70
     0
102
RTVSPropertyOp17
 70
     0
102
RTVSPropertyOp18
 70
     0
102
RTVSPropertyOp19
 70
     0
102
RTVSPropertyOp20
 70
     0
102
RTVSPropertyOp21
 70
     0
102
RTVSPropertyOp22
 70
     0
102
RTVSPropertyOp23
 70
     0
102
RTVSPropertyOp24
 70
     0
102
RTVSPropertyOp25
 70
     0
102
RTVSPropertyOp26
 70
     0
102
RTVSPropertyOp27
 70
     0
102
RTVSPropertyOp28
 70
     0
102
RTVSPropertyOp29
 70
     0
102
RTVSPropertyOp30
 70
     0
102
RTVSPropertyOp31
 70
     0
102
RTVSPropertyOp32
 70
     0
  0
XRECORD
  5
56A6
102
{ACAD_REACTORS
330
56A5
102
}
330
56A5
100
AcDbXrecord
280
     1
102
RTVSPropertyOp0
 70
     1
102
RTVSPropertyOp1
 70
     1
102
RTVSPropertyOp2
 70
     1
102
RTVSPropertyOp3
 70
     1
102
RTVSPropertyOp4
 70
     1
102
RTVSPropertyOp5
 70
     1
102
RTVSPropertyOp6
 70
     1
102
RTVSPropertyOp7
 70
     1
102
RTVSPropertyOp8
 70
     1
102
RTVSPropertyOp9
 70
     1
102
RTVSPropertyOp10
 70
     1
102
RTVSPropertyOp11
 70
     1
102
RTVSPropertyOp12
 70
     1
102
RTVSPropertyOp13
 70
     1
102
RTVSPropertyOp14
 70
     1
102
RTVSPropertyOp15
 70
     1
102
RTVSPropertyOp16
 70
     1
102
RTVSPropertyOp17
 70
     1
102
RTVSPropertyOp18
 70
     1
102
RTVSPropertyOp19
 70
     1
102
RTVSPropertyOp20
 70
     1
102
RTVSPropertyOp21
 70
     1
102
RTVSPropertyOp22
 70
     1
102
RTVSPropertyOp23
 70
     1
102
RTVSPropertyOp24
 70
     1
102
RTVSPropertyOp25
 70
     1
102
RTVSPropertyOp26
 70
     1
102
RTVSPropertyOp27
 70
     1
102
RTVSPropertyOp28
 70
     1
102
RTVSPropertyOp29
 70
     1
102
RTVSPropertyOp30
 70
     1
102
RTVSPropertyOp31
 70
     1
102
RTVSPropertyOp32
 70
     1
  0
XRECORD
  5
56BD
102
{ACAD_REACTORS
330
56BC
102
}
330
56BC
100
AcDbXrecord
280
     1
102
RTVSPropertyOp0
 70
     0
102
RTVSPropertyOp1
 70
     0
102
RTVSPropertyOp2
 70
     0
102
RTVSPropertyOp3
 70
     0
102
RTVSPropertyOp4
 70
     0
102
RTVSPropertyOp5
 70
     0
102
RTVSPropertyOp6
 70
     0
102
RTVSPropertyOp7
 70
     0
102
RTVSPropertyOp8
 70
     0
102
RTVSPropertyOp9
 70
     0
102
RTVSPropertyOp10
 70
     0
102
RTVSPropertyOp11
 70
     0
102
RTVSPropertyOp12
 70
     0
102
RTVSPropertyOp13
 70
     0
102
RTVSPropertyOp14
 70
     2
102
RTVSPropertyOp15
 70
     0
102
RTVSPropertyOp16
 70
     0
102
RTVSPropertyOp17
 70
     0
102
RTVSPropertyOp18
 70
     0
102
RTVSPropertyOp19
 70
     0
102
RTVSPropertyOp20
 70
     0
102
RTVSPropertyOp21
 70
     0
102
RTVSPropertyOp22
 70
     0
102
RTVSPropertyOp23
 70
     0
102
RTVSPropertyOp24
 70
     0
102
RTVSPropertyOp25
 70
     0
102
RTVSPropertyOp26
 70
     0
102
RTVSPropertyOp27
 70
     0
102
RTVSPropertyOp28
 70
     0
102
RTVSPropertyOp29
 70
     0
102
RTVSPropertyOp30
 70
     0
102
RTVSPropertyOp31
 70
     0
102
RTVSPropertyOp32
 70
     0
  0
XRECORD
  5
569E
102
{ACAD_REACTORS
330
569D
102
}
330
569D
100
AcDbXrecord
280
     1
102
RTVSPropertyOp0
 70
     1
102
RTVSPropertyOp1
 70
     1
102
RTVSPropertyOp2
 70
     1
102
RTVSPropertyOp3
 70
     1
102
RTVSPropertyOp4
 70
     1
102
RTVSPropertyOp5
 70
     1
102
RTVSPropertyOp6
 70
     1
102
RTVSPropertyOp7
 70
     1
102
RTVSPropertyOp8
 70
     1
102
RTVSPropertyOp9
 70
     1
102
RTVSPropertyOp10
 70
     1
102
RTVSPropertyOp11
 70
     1
102
RTVSPropertyOp12
 70
     1
102
RTVSPropertyOp13
 70
     1
102
RTVSPropertyOp14
 70
     1
102
RTVSPropertyOp15
 70
     1
102
RTVSPropertyOp16
 70
     1
102
RTVSPropertyOp17
 70
     1
102
RTVSPropertyOp18
 70
     1
102
RTVSPropertyOp19
 70
     1
102
RTVSPropertyOp20
 70
     1
102
RTVSPropertyOp21
 70
     1
102
RTVSPropertyOp22
 70
     1
102
RTVSPropertyOp23
 70
     1
102
RTVSPropertyOp24
 70
     1
102
RTVSPropertyOp25
 70
     1
102
RTVSPropertyOp26
 70
     1
102
RTVSPropertyOp27
 70
     1
102
RTVSPropertyOp28
 70
     1
102
RTVSPropertyOp29
 70
     1
102
RTVSPropertyOp30
 70
     1
102
RTVSPropertyOp31
 70
     1
102
RTVSPropertyOp32
 70
     1
  0
XRECORD
  5
56B9
102
{ACAD_REACTORS
330
56B8
102
}
330
56B8
100
AcDbXrecord
280
     1
102
RTVSPropertyOp0
 70
     1
102
RTVSPropertyOp1
 70
     1
102
RTVSPropertyOp2
 70
     1
102
RTVSPropertyOp3
 70
     1
102
RTVSPropertyOp4
 70
     1
102
RTVSPropertyOp5
 70
     1
102
RTVSPropertyOp6
 70
     1
102
RTVSPropertyOp7
 70
     1
102
RTVSPropertyOp8
 70
     1
102
RTVSPropertyOp9
 70
     1
102
RTVSPropertyOp10
 70
     1
102
RTVSPropertyOp11
 70
     1
102
RTVSPropertyOp12
 70
     1
102
RTVSPropertyOp13
 70
     1
102
RTVSPropertyOp14
 70
     1
102
RTVSPropertyOp15
 70
     1
102
RTVSPropertyOp16
 70
     1
102
RTVSPropertyOp17
 70
     1
102
RTVSPropertyOp18
 70
     1
102
RTVSPropertyOp19
 70
     1
102
RTVSPropertyOp20
 70
     1
102
RTVSPropertyOp21
 70
     1
102
RTVSPropertyOp22
 70
     1
102
RTVSPropertyOp23
 70
     1
102
RTVSPropertyOp24
 70
     1
102
RTVSPropertyOp25
 70
     1
102
RTVSPropertyOp26
 70
     1
102
RTVSPropertyOp27
 70
     1
102
RTVSPropertyOp28
 70
     1
102
RTVSPropertyOp29
 70
     1
102
RTVSPropertyOp30
 70
     1
102
RTVSPropertyOp31
 70
     1
102
RTVSPropertyOp32
 70
     1
  0
XRECORD
  5
56B7
102
{ACAD_REACTORS
330
56B6
102
}
330
56B6
100
AcDbXrecord
280
     1
102
RTVSPropertyOp0
 70
     1
102
RTVSPropertyOp1
 70
     1
102
RTVSPropertyOp2
 70
     1
102
RTVSPropertyOp3
 70
     1
102
RTVSPropertyOp4
 70
     1
102
RTVSPropertyOp5
 70
     1
102
RTVSPropertyOp6
 70
     1
102
RTVSPropertyOp7
 70
     1
102
RTVSPropertyOp8
 70
     1
102
RTVSPropertyOp9
 70
     1
102
RTVSPropertyOp10
 70
     1
102
RTVSPropertyOp11
 70
     1
102
RTVSPropertyOp12
 70
     1
102
RTVSPropertyOp13
 70
     1
102
RTVSPropertyOp14
 70
     1
102
RTVSPropertyOp15
 70
     1
102
RTVSPropertyOp16
 70
     1
102
RTVSPropertyOp17
 70
     1
102
RTVSPropertyOp18
 70
     1
102
RTVSPropertyOp19
 70
     1
102
RTVSPropertyOp20
 70
     1
102
RTVSPropertyOp21
 70
     1
102
RTVSPropertyOp22
 70
     1
102
RTVSPropertyOp23
 70
     1
102
RTVSPropertyOp24
 70
     1
102
RTVSPropertyOp25
 70
     1
102
RTVSPropertyOp26
 70
     1
102
RTVSPropertyOp27
 70
     1
102
RTVSPropertyOp28
 70
     1
102
RTVSPropertyOp29
 70
     1
102
RTVSPropertyOp30
 70
     1
102
RTVSPropertyOp31
 70
     1
102
RTVSPropertyOp32
 70
     1
  0
XRECORD
  5
56B1
102
{ACAD_REACTORS
330
56B0
102
}
330
56B0
100
AcDbXrecord
280
     1
102
RTVSPropertyOp0
 70
     1
102
RTVSPropertyOp1
 70
     1
102
RTVSPropertyOp2
 70
     1
102
RTVSPropertyOp3
 70
     1
102
RTVSPropertyOp4
 70
     1
102
RTVSPropertyOp5
 70
     1
102
RTVSPropertyOp6
 70
     1
102
RTVSPropertyOp7
 70
     1
102
RTVSPropertyOp8
 70
     1
102
RTVSPropertyOp9
 70
     1
102
RTVSPropertyOp10
 70
     1
102
RTVSPropertyOp11
 70
     1
102
RTVSPropertyOp12
 70
     1
102
RTVSPropertyOp13
 70
     1
102
RTVSPropertyOp14
 70
     1
102
RTVSPropertyOp15
 70
     1
102
RTVSPropertyOp16
 70
     1
102
RTVSPropertyOp17
 70
     1
102
RTVSPropertyOp18
 70
     1
102
RTVSPropertyOp19
 70
     1
102
RTVSPropertyOp20
 70
     1
102
RTVSPropertyOp21
 70
     1
102
RTVSPropertyOp22
 70
     1
102
RTVSPropertyOp23
 70
     1
102
RTVSPropertyOp24
 70
     1
102
RTVSPropertyOp25
 70
     1
102
RTVSPropertyOp26
 70
     1
102
RTVSPropertyOp27
 70
     1
102
RTVSPropertyOp28
 70
     1
102
RTVSPropertyOp29
 70
     1
102
RTVSPropertyOp30
 70
     1
102
RTVSPropertyOp31
 70
     1
102
RTVSPropertyOp32
 70
     1
  0
XRECORD
  5
56B3
102
{ACAD_REACTORS
330
56B2
102
}
330
56B2
100
AcDbXrecord
280
     1
102
RTVSPropertyOp0
 70
     1
102
RTVSPropertyOp1
 70
     1
102
RTVSPropertyOp2
 70
     1
102
RTVSPropertyOp3
 70
     1
102
RTVSPropertyOp4
 70
     1
102
RTVSPropertyOp5
 70
     1
102
RTVSPropertyOp6
 70
     1
102
RTVSPropertyOp7
 70
     1
102
RTVSPropertyOp8
 70
     1
102
RTVSPropertyOp9
 70
     1
102
RTVSPropertyOp10
 70
     1
102
RTVSPropertyOp11
 70
     1
102
RTVSPropertyOp12
 70
     1
102
RTVSPropertyOp13
 70
     1
102
RTVSPropertyOp14
 70
     1
102
RTVSPropertyOp15
 70
     1
102
RTVSPropertyOp16
 70
     1
102
RTVSPropertyOp17
 70
     1
102
RTVSPropertyOp18
 70
     1
102
RTVSPropertyOp19
 70
     1
102
RTVSPropertyOp20
 70
     1
102
RTVSPropertyOp21
 70
     1
102
RTVSPropertyOp22
 70
     1
102
RTVSPropertyOp23
 70
     1
102
RTVSPropertyOp24
 70
     1
102
RTVSPropertyOp25
 70
     1
102
RTVSPropertyOp26
 70
     1
102
RTVSPropertyOp27
 70
     1
102
RTVSPropertyOp28
 70
     1
102
RTVSPropertyOp29
 70
     1
102
RTVSPropertyOp30
 70
     1
102
RTVSPropertyOp31
 70
     1
102
RTVSPropertyOp32
 70
     1
  0
XRECORD
  5
56A4
102
{ACAD_REACTORS
330
56A3
102
}
330
56A3
100
AcDbXrecord
280
     1
102
RTVSPropertyOp0
 70
     1
102
RTVSPropertyOp1
 70
     1
102
RTVSPropertyOp2
 70
     1
102
RTVSPropertyOp3
 70
     1
102
RTVSPropertyOp4
 70
     1
102
RTVSPropertyOp5
 70
     1
102
RTVSPropertyOp6
 70
     1
102
RTVSPropertyOp7
 70
     1
102
RTVSPropertyOp8
 70
     1
102
RTVSPropertyOp9
 70
     1
102
RTVSPropertyOp10
 70
     1
102
RTVSPropertyOp11
 70
     1
102
RTVSPropertyOp12
 70
     1
102
RTVSPropertyOp13
 70
     1
102
RTVSPropertyOp14
 70
     1
102
RTVSPropertyOp15
 70
     1
102
RTVSPropertyOp16
 70
     1
102
RTVSPropertyOp17
 70
     1
102
RTVSPropertyOp18
 70
     1
102
RTVSPropertyOp19
 70
     1
102
RTVSPropertyOp20
 70
     1
102
RTVSPropertyOp21
 70
     1
102
RTVSPropertyOp22
 70
     1
102
RTVSPropertyOp23
 70
     1
102
RTVSPropertyOp24
 70
     1
102
RTVSPropertyOp25
 70
     1
102
RTVSPropertyOp26
 70
     1
102
RTVSPropertyOp27
 70
     1
102
RTVSPropertyOp28
 70
     1
102
RTVSPropertyOp29
 70
     1
102
RTVSPropertyOp30
 70
     1
102
RTVSPropertyOp31
 70
     1
102
RTVSPropertyOp32
 70
     1
  0
XRECORD
  5
56AD
102
{ACAD_REACTORS
330
56AC
102
}
330
56AC
100
AcDbXrecord
280
     1
102
RTVSPropertyOp0
 70
     1
102
RTVSPropertyOp1
 70
     1
102
RTVSPropertyOp2
 70
     1
102
RTVSPropertyOp3
 70
     1
102
RTVSPropertyOp4
 70
     1
102
RTVSPropertyOp5
 70
     1
102
RTVSPropertyOp6
 70
     1
102
RTVSPropertyOp7
 70
     1
102
RTVSPropertyOp8
 70
     1
102
RTVSPropertyOp9
 70
     1
102
RTVSPropertyOp10
 70
     1
102
RTVSPropertyOp11
 70
     1
102
RTVSPropertyOp12
 70
     1
102
RTVSPropertyOp13
 70
     1
102
RTVSPropertyOp14
 70
     1
102
RTVSPropertyOp15
 70
     1
102
RTVSPropertyOp16
 70
     1
102
RTVSPropertyOp17
 70
     1
102
RTVSPropertyOp18
 70
     1
102
RTVSPropertyOp19
 70
     1
102
RTVSPropertyOp20
 70
     1
102
RTVSPropertyOp21
 70
     1
102
RTVSPropertyOp22
 70
     1
102
RTVSPropertyOp23
 70
     1
102
RTVSPropertyOp24
 70
     1
102
RTVSPropertyOp25
 70
     1
102
RTVSPropertyOp26
 70
     1
102
RTVSPropertyOp27
 70
     1
102
RTVSPropertyOp28
 70
     1
102
RTVSPropertyOp29
 70
     1
102
RTVSPropertyOp30
 70
     1
102
RTVSPropertyOp31
 70
     1
102
RTVSPropertyOp32
 70
     1
  0
XRECORD
  5
56B5
102
{ACAD_REACTORS
330
56B4
102
}
330
56B4
100
AcDbXrecord
280
     1
102
RTVSPropertyOp0
 70
     1
102
RTVSPropertyOp1
 70
     1
102
RTVSPropertyOp2
 70
     1
102
RTVSPropertyOp3
 70
     1
102
RTVSPropertyOp4
 70
     1
102
RTVSPropertyOp5
 70
     1
102
RTVSPropertyOp6
 70
     1
102
RTVSPropertyOp7
 70
     1
102
RTVSPropertyOp8
 70
     1
102
RTVSPropertyOp9
 70
     1
102
RTVSPropertyOp10
 70
     1
102
RTVSPropertyOp11
 70
     1
102
RTVSPropertyOp12
 70
     1
102
RTVSPropertyOp13
 70
     1
102
RTVSPropertyOp14
 70
     1
102
RTVSPropertyOp15
 70
     1
102
RTVSPropertyOp16
 70
     1
102
RTVSPropertyOp17
 70
     1
102
RTVSPropertyOp18
 70
     1
102
RTVSPropertyOp19
 70
     1
102
RTVSPropertyOp20
 70
     1
102
RTVSPropertyOp21
 70
     1
102
RTVSPropertyOp22
 70
     1
102
RTVSPropertyOp23
 70
     1
102
RTVSPropertyOp24
 70
     1
102
RTVSPropertyOp25
 70
     1
102
RTVSPropertyOp26
 70
     1
102
RTVSPropertyOp27
 70
     1
102
RTVSPropertyOp28
 70
     1
102
RTVSPropertyOp29
 70
     1
102
RTVSPropertyOp30
 70
     1
102
RTVSPropertyOp31
 70
     1
102
RTVSPropertyOp32
 70
     1
  0
DICTIONARY
  5
56C0
330
33AC
100
AcDbDictionary
280
     1
281
     1
  3
ACAD_XREC_ROUNDTRIP
360
56C1
  0
XRECORD
  5
56C1
102
{ACAD_REACTORS
330
56C0
102
}
330
56C0
100
AcDbXrecord
280
     1
102
SHADEPLOT
 70
     0
102
SHADEPLOTRESLEVEL
 70
     2
102
SHADEPLOTCUSTOMDPI
 70
   300
  0
ENDSEC
  0
EOF
