  0
SECTION
  2
HEADER
  9
$ACADVER
  1
AC1015
  9
$ACADMAINTVER
 70
    20
  9
$DWGCODEPAGE
  3
ANSI_932
  9
$INSBASE
 10
0.0
 20
0.0
 30
0.0
  9
$EXTMIN
 10
228.9587854074157
 20
174.6467571161669
 30
-0.000000000000013
  9
$EXTMAX
 10
258.9597009005344
 20
206.7446880128426
 30
0.0000000000000023
  9
$LIMMIN
 10
222.770076765816
 20
167.111417654137
  9
$LIMMAX
 10
282.170076765816
 20
209.111417654137
  9
$ORTHOMODE
 70
     0
  9
$REGENMODE
 70
     1
  9
$FILLMODE
 70
     1
  9
$QTEXTMODE
 70
     0
  9
$MIRRTEXT
 70
     1
  9
$LTSCALE
 40
0.2
  9
$ATTMODE
 70
     1
  9
$TEXTSIZE
 40
1.5
  9
$TRACEWID
 40
1.0
  9
$TEXTSTYLE
  7
STANDARD
  9
$CLAYER
  8
0
  9
$CELTYPE
  6
ByLayer
  9
$CECOLOR
 62
   256
  9
$CELTSCALE
 40
1.0
  9
$DISPSILH
 70
     0
  9
$DIMSCALE
 40
1.0
  9
$DIMASZ
 40
2.5
  9
$DIMEXO
 40
1.0
  9
$DIMDLI
 40
10.0
  9
$DIMRND
 40
0.0
  9
$DIMDLE
 40
0.0
  9
$DIMEXE
 40
1.0
  9
$DIMTP
 40
0.1
  9
$DIMTM
 40
0.1
  9
$DIMTXT
 40
3.5
  9
$DIMCEN
 40
0.0
  9
$DIMTSZ
 40
0.0
  9
$DIMTOL
 70
     0
  9
$DIMLIM
 70
     0
  9
$DIMTIH
 70
     0
  9
$DIMTOH
 70
     0
  9
$DIMSE1
 70
     0
  9
$DIMSE2
 70
     0
  9
$DIMTAD
 70
     3
  9
$DIMZIN
 70
     8
  9
$DIMBLK
  1
Open30
  9
$DIMASO
 70
     1
  9
$DIMSHO
 70
     1
  9
$DIMPOST
  1

  9
$DIMAPOST
  1
"
  9
$DIMALT
 70
     0
  9
$DIMALTD
 70
     2
  9
$DIMALTF
 40
0.0393701
  9
$DIMLFAC
 40
1.0
  9
$DIMTOFL
 70
     1
  9
$DIMTVP
 40
0.0
  9
$DIMTIX
 70
     0
  9
$DIMSOXD
 70
     0
  9
$DIMSAH
 70
     0
  9
$DIMBLK1
  1
Open30
  9
$DIMBLK2
  1
Open30
  9
$DIMSTYLE
  2
AM_JIS
  9
$DIMCLRD
 70
   256
  9
$DIMCLRE
 70
   256
  9
$DIMCLRT
 70
     2
  9
$DIMTFAC
 40
0.71
  9
$DIMGAP
 40
1.5
  9
$DIMJUST
 70
     0
  9
$DIMSD1
 70
     0
  9
$DIMSD2
 70
     0
  9
$DIMTOLJ
 70
     0
  9
$DIMTZIN
 70
     8
  9
$DIMALTZ
 70
     0
  9
$DIMALTTZ
 70
     0
  9
$DIMUPT
 70
     0
  9
$DIMDEC
 70
     2
  9
$DIMTDEC
 70
     3
  9
$DIMALTU
 70
     2
  9
$DIMALTTD
 70
     4
  9
$DIMTXSTY
  7
STANDARD
  9
$DIMAUNIT
 70
     0
  9
$DIMADEC
 70
     0
  9
$DIMALTRND
 40
0.0
  9
$DIMAZIN
 70
     2
  9
$DIMDSEP
 70
    46
  9
$DIMATFIT
 70
     3
  9
$DIMFRAC
 70
     0
  9
$DIMLDRBLK
  1
Open30
  9
$DIMLUNIT
 70
     2
  9
$DIMLWD
 70
    -1
  9
$DIMLWE
 70
    -1
  9
$DIMTMOVE
 70
     0
  9
$LUNITS
 70
     2
  9
$LUPREC
 70
     2
  9
$SKETCHINC
 40
1.0
  9
$FILLETRAD
 40
1.0
  9
$AUNITS
 70
     0
  9
$AUPREC
 70
     0
  9
$MENU
  1
.
  9
$ELEVATION
 40
0.0
  9
$PELEVATION
 40
0.0
  9
$THICKNESS
 40
0.0
  9
$LIMCHECK
 70
     0
  9
$CHAMFERA
 40
1.0
  9
$CHAMFERB
 40
1.0
  9
$CHAMFERC
 40
20.0
  9
$CHAMFERD
 40
0.0
  9
$SKPOLY
 70
     0
  9
$TDCREATE
 40
2454784.375539815
  9
$TDUCREATE
 40
2454784.000539814
  9
$TDUPDATE
 40
2456127.706674838
  9
$TDUUPDATE
 40
2456127.331674838
  9
$TDINDWG
 40
0.2543657755
  9
$TDUSRTIMER
 40
0.2543656019
  9
$USRTIMER
 70
     1
  9
$ANGBASE
 50
0.0
  9
$ANGDIR
 70
     0
  9
$PDMODE
 70
     0
  9
$PDSIZE
 40
0.0
  9
$PLINEWID
 40
0.0
  9
$SPLFRAME
 70
     0
  9
$SPLINETYPE
 70
     6
  9
$SPLINESEGS
 70
     8
  9
$HANDSEED
  5
51A6
  9
$SURFTAB1
 70
     6
  9
$SURFTAB2
 70
     6
  9
$SURFTYPE
 70
     6
  9
$SURFU
 70
     6
  9
$SURFV
 70
     6
  9
$UCSBASE
  2

  9
$UCSNAME
  2

  9
$UCSORG
 10
0.0
 20
0.0
 30
0.0
  9
$UCSXDIR
 10
1.0
 20
0.0
 30
0.0
  9
$UCSYDIR
 10
0.0
 20
1.0
 30
0.0
  9
$UCSORTHOREF
  2

  9
$UCSORTHOVIEW
 70
     0
  9
$UCSORGTOP
 10
0.0
 20
0.0
 30
0.0
  9
$UCSORGBOTTOM
 10
0.0
 20
0.0
 30
0.0
  9
$UCSORGLEFT
 10
0.0
 20
0.0
 30
0.0
  9
$UCSORGRIGHT
 10
0.0
 20
0.0
 30
0.0
  9
$UCSORGFRONT
 10
0.0
 20
0.0
 30
0.0
  9
$UCSORGBACK
 10
0.0
 20
0.0
 30
0.0
  9
$PUCSBASE
  2

  9
$PUCSNAME
  2

  9
$PUCSORG
 10
0.0
 20
0.0
 30
0.0
  9
$PUCSXDIR
 10
1.0
 20
0.0
 30
0.0
  9
$PUCSYDIR
 10
0.0
 20
1.0
 30
0.0
  9
$PUCSORTHOREF
  2

  9
$PUCSORTHOVIEW
 70
     0
  9
$PUCSORGTOP
 10
0.0
 20
0.0
 30
0.0
  9
$PUCSORGBOTTOM
 10
0.0
 20
0.0
 30
0.0
  9
$PUCSORGLEFT
 10
0.0
 20
0.0
 30
0.0
  9
$PUCSORGRIGHT
 10
0.0
 20
0.0
 30
0.0
  9
$PUCSORGFRONT
 10
0.0
 20
0.0
 30
0.0
  9
$PUCSORGBACK
 10
0.0
 20
0.0
 30
0.0
  9
$USERI1
 70
     0
  9
$USERI2
 70
     0
  9
$USERI3
 70
     0
  9
$USERI4
 70
     0
  9
$USERI5
 70
     0
  9
$USERR1
 40
0.0
  9
$USERR2
 40
0.0
  9
$USERR3
 40
0.0
  9
$USERR4
 40
0.0
  9
$USERR5
 40
0.0
  9
$WORLDVIEW
 70
     1
  9
$SHADEDGE
 70
     3
  9
$SHADEDIF
 70
    70
  9
$TILEMODE
 70
     1
  9
$MAXACTVP
 70
    64
  9
$PINSBASE
 10
0.0
 20
0.0
 30
0.0
  9
$PLIMCHECK
 70
     0
  9
$PEXTMIN
 10
1.000000000000000E+20
 20
1.000000000000000E+20
 30
1.000000000000000E+20
  9
$PEXTMAX
 10
-1.000000000000000E+20
 20
-1.000000000000000E+20
 30
-1.000000000000000E+20
  9
$PLIMMIN
 10
0.0
 20
0.0
  9
$PLIMMAX
 10
420.0
 20
297.0
  9
$UNITMODE
 70
     0
  9
$VISRETAIN
 70
     1
  9
$PLINEGEN
 70
     0
  9
$PSLTSCALE
 70
     1
  9
$TREEDEPTH
 70
  3020
  9
$CMLSTYLE
  2
Standard
  9
$CMLJUST
 70
     0
  9
$CMLSCALE
 40
20.0
  9
$PROXYGRAPHICS
 70
     1
  9
$MEASUREMENT
 70
     1
  9
$CELWEIGHT
370
    -1
  9
$ENDCAPS
280
     0
  9
$JOINSTYLE
280
     0
  9
$LWDISPLAY
290
     0
  9
$INSUNITS
 70
     4
  9
$HYPERLINKBASE
  1

  9
$STYLESHEET
  1
IMAGIO.ctb
  9
$XEDIT
290
     1
  9
$CEPSNTYPE
380
     0
  9
$PSTYLEMODE
290
     1
  9
$FINGERPRINTGUID
  2
{195D72E8-7936-4A99-BEE5-8CE1A826B80A}
  9
$VERSIONGUID
  2
{E3EC9C45-D1CF-4597-9A95-5D1B0DE46025}
  9
$EXTNAMES
290
     1
  9
$PSVPSCALE
 40
0.0
  9
$OLESTARTUP
290
     0
  0
ENDSEC
  0
SECTION
  2
CLASSES
  0
CLASS
  1
ACDBDICTIONARYWDFLT
  2
AcDbDictionaryWithDefault
  3
ObjectDBX Classes
 90
        0
280
     0
281
     0
  0
CLASS
  1
ACDBPLACEHOLDER
  2
AcDbPlaceHolder
  3
ObjectDBX Classes
 90
        0
280
     0
281
     0
  0
CLASS
  1
LAYOUT
  2
AcDbLayout
  3
ObjectDBX Classes
 90
        0
280
     0
281
     0
  0
CLASS
  1
AMGSETTINGSOBJ
  2
AmgSettingsObj
  3
"AcadM|Product Description: AutoCAD Mechanical|Company: Autodesk, Inc."
 90
     1024
280
     0
281
     0
  0
CLASS
  1
ACME_DOCUMENT
  2
AcMeDbDoc
  3
AcMeServices
 90
     1024
280
     0
281
     0
  0
CLASS
  1
ACMESCOPE
  2
AcMeScope
  3
AcMeServices
 90
     1024
280
     0
281
     0
  0
CLASS
  1
ACMECOMMANDHISTORY
  2
AcMeCommandHistory
  3
AcMeServices
 90
     1024
280
     0
281
     0
  0
CLASS
  1
DICTIONARYVAR
  2
AcDbDictionaryVar
  3
ObjectDBX Classes
 90
        0
280
     0
281
     0
  0
CLASS
  1
ACIMSYSVARMAN
  2
AcImSysVarManager
  3
AcMeServices
 90
     1024
280
     0
281
     0
  0
CLASS
  1
ACIMREALSYSVAR
  2
AcImRealSysVar
  3
AcMeServices
 90
     1024
280
     0
281
     0
  0
CLASS
  1
ACIMINTSYSVAR
  2
AcImIntSysVar
  3
AcMeServices
 90
     1024
280
     0
281
     0
  0
CLASS
  1
ACMEDRAWINGMAN
  2
AcMeDrawingMan
  3
AcMeServices
 90
    33792
280
     0
281
     0
  0
CLASS
  1
ACMEVIEW
  2
AcMeView
  3
AcMeServices
 90
    33792
280
     0
281
     0
  0
CLASS
  1
ACDBENTITYCACHE
  2
AcMeEntityCache
  3
AcMeServices
 90
     1024
280
     0
281
     0
  0
CLASS
  1
GSMANAGER
  2
AcMeGSManager
  3
AcMeServices
 90
    32768
280
     0
281
     0
  0
CLASS
  1
AMDTINTERNALREACTOR
  2
AmdtInternalReactor
  3
AcMeServices
 90
     1024
280
     0
281
     0
  0
CLASS
  1
ACMESTATEMGR
  2
AcMeStateMgr
  3
AcMeServices
 90
     1024
280
     0
281
     0
  0
CLASS
  1
ACME_DATABASE
  2
AcMeDbDatabase
  3
AcMeServices
 90
     1024
280
     0
281
     0
  0
CLASS
  1
ACRFINSADJUSTERMGR
  2
AcRfInsAdjusterMgr
  3
AcMeServices
 90
     1024
280
     0
281
     0
  0
CLASS
  1
ACMDATADICTIONARY
  2
AcmDataDictionary
  3
"AcmSymBB|Product Description: AutoCAD Mechanical|Company: Autodesk, Inc."
 90
     1024
280
     0
281
     0
  0
CLASS
  1
ACMDATAENTRYBLOCK
  2
AcmDataEntryBlock
  3
AcmSymBB|Product Description: AutoCAD Mechanical|Company: Autodesk, Inc.
 90
     1024
280
     0
281
     0
  0
CLASS
  1
AMGOBJPROPCFG
  2
AmgObjPropCfg
  3
"AmgLay|Product Description: AutoCAD Mechanical|Company: Autodesk, Inc."
 90
     1025
280
     0
281
     0
  0
CLASS
  1
ACAMGFILTERDAT
  2
AcAmgFilterDat
  3
"AcadM|Product Description: AutoCAD Mechanical|Company: Autodesk, Inc."
 90
     1024
280
     0
281
     0
  0
CLASS
  1
LAYER_INDEX
  2
AcDbLayerIndex
  3
ObjectDBX Classes
 90
    32768
280
     0
281
     0
  0
CLASS
  1
IDBUFFER
  2
AcDbIdBuffer
  3
ObjectDBX Classes
 90
    32768
280
     0
281
     0
  0
CLASS
  1
ACIMSTRSYSVAR
  2
AcImStrSysVar
  3
AcMeServices
 90
     1024
280
     0
281
     0
  0
CLASS
  1
ACMSTANDARDJIS
  2
AcmStandardJIS
  3
"Amdt_StdImp|Product Description: AutoCAD Mechanical|Company: Autodesk, Inc."
 90
     1024
280
     0
281
     0
  0
CLASS
  1
ACMSURFSTANDARDJIS
  2
AcmSurfTextStdJIS
  3
"Amdt_StdImp|Product Description: AutoCAD Mechanical|Company: Autodesk, Inc."
 90
     1024
280
     0
281
     0
  0
CLASS
  1
ACMFCFSTANDARDJIS
  2
AcmFCFStdJIS
  3
"Amdt_StdImp|Product Description: AutoCAD Mechanical|Company: Autodesk, Inc."
 90
     1024
280
     0
281
     0
  0
CLASS
  1
ACMWELDSTANDARDJIS
  2
AcmWeldingStdJIS
  3
"Amdt_StdImp|Product Description: AutoCAD Mechanical|Company: Autodesk, Inc."
 90
     1024
280
     0
281
     0
  0
CLASS
  1
ACMIDSTANDARDJIS
  2
AcmIdStdJIS
  3
"Amdt_StdImp|Product Description: AutoCAD Mechanical|Company: Autodesk, Inc."
 90
     1024
280
     0
281
     0
  0
CLASS
  1
ACMDATUMSTANDARDJIS
  2
AcmDatumStdJIS
  3
"Amdt_StdImp|Product Description: AutoCAD Mechanical|Company: Autodesk, Inc."
 90
     1024
280
     0
281
     0
  0
CLASS
  1
ACMBOMSTANDARDJIS
  2
AcmBOMStdJIS
  3
"Amdt_StdImp|Product Description: AutoCAD Mechanical|Company: Autodesk, Inc."
 90
     1024
280
     0
281
     0
  0
CLASS
  1
MATERIAL
  2
AcDbMaterial
  3
ObjectDBX Classes
 90
     1153
280
     0
281
     0
  0
CLASS
  1
VISUALSTYLE
  2
AcDbVisualStyle
  3
ObjectDBX Classes
 90
     4095
280
     0
281
     0
  0
CLASS
  1
TABLESTYLE
  2
AcDbTableStyle
  3
ObjectDBX Classes
 90
     4095
280
     0
281
     0
  0
CLASS
  1
ACGREFMASTER
  2
AcGrefMaster
  3
AcAttribServices
 90
     1024
280
     0
281
     0
  0
CLASS
  1
AM_DRAWING_MGR
  2
AcDmDwgMgr
  3
AcMechDwgViewMgmt
 90
     1024
280
     0
281
     0
  0
CLASS
  1
AM_DWG_DOCUMENT
  2
AcDmDwgDocument
  3
AcMechDwgViewMgmt
 90
     1024
280
     0
281
     0
  0
CLASS
  1
AM_DWG_SHEET
  2
AcDmSheet
  3
AcMechDwgViewMgmt
 90
     1024
280
     0
281
     0
  0
CLASS
  1
AM_VIEWDIMPARMAP
  2
AcDmViewDimParMap
  3
AcMechDwgViewMgmt
 90
     1024
280
     0
281
     0
  0
CLASS
  1
AM_DWGMGR_NAME
  2
AcDmDwgMgrName
  3
AcMechDwgViewMgmt
 90
     1024
280
     0
281
     0
  0
CLASS
  1
ACGREFACADMASTER
  2
AcGrefacadMaster
  3
AcGrefServices
 90
     1024
280
     0
281
     0
  0
CLASS
  1
AMDTMENUSTATEMGR
  2
AmdtMenuStateMgr
  3
McadcomServices
 90
     1024
280
     0
281
     0
  0
CLASS
  1
AMDTMCOMMENUSTATE
  2
AmdtMcomMenuState
  3
McadcomServices
 90
     1024
280
     0
281
     0
  0
CLASS
  1
AMIMASTER
  2
AmiMaster
  3
AmiServices
 90
     1024
280
     0
281
     0
  0
CLASS
  1
MAPIAMMOUDLE
  2
MApiAmModule
  3
MApiAmServices
 90
     1024
280
     0
281
     0
  0
CLASS
  1
AMDTADMENUSTATE
  2
AmdtAdMenuState
  3
DesignerServices
 90
    32768
280
     0
281
     0
  0
CLASS
  1
ADAPPL
  2
AcAdAppl
  3
DesignerAssemblies
 90
    33792
280
     0
281
     0
  0
CLASS
  1
DEPMGR
  2
AcAdDepMgr
  3
DesignerAssemblies
 90
    33792
280
     0
281
     0
  0
CLASS
  1
PARAMMGR
  2
AcAdParamMgr
  3
DesignerAssemblies
 90
    33792
280
     0
281
     0
  0
CLASS
  1
PARAMSCOPE
  2
AcAdParamScope
  3
DesignerAssemblies
 90
    33792
280
     0
281
     0
  0
CLASS
  1
NAMEDAPPL
  2
AcAdNamedAppl
  3
DesignerAssemblies
 90
    33792
280
     0
281
     0
  0
CLASS
  1
AMDTDMMENUSTATE
  2
AmdtDmMenuState
  3
AcMechDwgViewMgmt
 90
     1024
280
     0
281
     0
  0
CLASS
  1
AMDTAMMENUSTATE
  2
AmdtAmMenuState
  3
DesignerAssemblies
 90
     1024
280
     0
281
     0
  0
CLASS
  1
ACAMPROJECT
  2
AcAmProject
  3
DesignerAssemblies
 90
     1024
280
     0
281
     0
  0
CLASS
  1
ACAMGRCOMPDEF
  2
AcAmGrCompDef
  3
DesignerAssemblies
 90
     1024
280
     0
281
     0
  0
CLASS
  1
ACCMCONTEXT
  2
AcCmContext
  3
DesignerAssemblies
 90
     1024
280
     0
281
     0
  0
CLASS
  1
ACAMCOMPDEF
  2
AcAmCompDef
  3
DesignerAssemblies
 90
     1024
280
     0
281
     0
  0
CLASS
  1
ACAMCOMPDEFMGR
  2
AcAmCompDefMgr
  3
DesignerAssemblies
 90
     1024
280
     0
281
     0
  0
CLASS
  1
AMCONTEXTMGR
  2
AcAmContextMgr
  3
DesignerAssemblies
 90
     1024
280
     0
281
     0
  0
CLASS
  1
ACAMCONTEXTMODELER
  2
AcAmContextModeler
  3
DesignerAssemblies
 90
     1024
280
     0
281
     0
  0
CLASS
  1
ACRFATTGENMGR
  2
AcRfAttGeneralMgr
  3
AcAttribServices
 90
     1024
280
     0
281
     0
  0
CLASS
  1
ACRFOBJATTMGR
  2
AcRfObjAttGroupMgr
  3
AcAttribServices
 90
     1024
280
     0
281
     0
  0
CLASS
  1
ACRFMCADAPIATTHOLDER
  2
AcRfMCADAPIAttHolder
  3
AcAttribServices
 90
     1024
280
     0
281
     0
  0
CLASS
  1
AMDTSYSATTR
  2
AmdtSystemAttribute
  3
AcAttribServices
 90
     1024
280
     0
281
     0
  0
CLASS
  1
ACAMGTITLESTD
  2
AcAmgTitleStd
  3
"AmgTitle|Product Description: AutoCAD Mechanical|Company: Autodesk, Inc."
 90
     4095
280
     0
281
     0
  0
CLASS
  1
ACMDETAILSTANDARDJIS
  2
AmdtDetailSymStdJIS
  3
"Amdt_StdImp|Product Description: AutoCAD Mechanical|Company: Autodesk, Inc."
 90
     1024
280
     0
281
     0
  0
CLASS
  1
ACMSECTIONSTANDARDJIS
  2
AmdtSectionSymStdJIS
  3
"Amdt_StdImp|Product Description: AutoCAD Mechanical|Company: Autodesk, Inc."
 90
     1024
280
     0
281
     0
  0
CLASS
  1
ACMCENTERLINESTANDARDJIS
  2
AmdtCenterLineStdJIS
  3
"Amdt_StdImp|Product Description: AutoCAD Mechanical|Company: Autodesk, Inc."
 90
     1024
280
     0
281
     0
  0
CLASS
  1
ACMTHREADLINESTANDARDJIS
  2
AmdtThreadLineStdJIS
  3
"Amdt_StdImp|Product Description: AutoCAD Mechanical|Company: Autodesk, Inc."
 90
     1024
280
     0
281
     0
  0
CLASS
  1
ACMNOTESTANDARDJIS
  2
AmdtNoteStdJIS
  3
"Amdt_StdImp|Product Description: AutoCAD Mechanical|Company: Autodesk, Inc."
 90
     1024
280
     0
281
     0
  0
CLASS
  1
AMDTNOTETEMPLATEDB
  2
AmdtNoteTemplateDB
  3
AcmSymBB|Product Description: AutoCAD Mechanical|Company: Autodesk, Inc.
 90
     1024
280
     0
281
     0
  0
CLASS
  1
ACMTAPERSTANDARDJIS
  2
AcmTaperStdJIS
  3
"Amdt_StdImp|Product Description: AutoCAD Mechanical|Company: Autodesk, Inc."
 90
     1024
280
     0
281
     0
  0
CLASS
  1
ACAMGLAYSTD
  2
AcAmgLayStd
  3
"AmgLay|Product Description: AutoCAD Mechanical|Company: Autodesk, Inc."
 90
     1024
280
     0
281
     0
  0
CLASS
  1
ACAMGDIMSTD
  2
AcAmgDimStd
  3
"AmgDim|Product Description: AutoCAD Mechanical|Company: Autodesk, Inc."
 90
     1024
280
     0
281
     0
  0
CLASS
  1
ACAMGHOLECHARTSTDJIS
  2
AcAmgHoleChartStdJIS
  3
AmgDim|Product Description: AutoCAD Mechanical|Company: Autodesk, Inc.
 90
     1024
280
     0
281
     0
  0
CLASS
  1
CATALOGSTATE
  2
AcAmCatalogState
  3
DesignerAssemblies
 90
    33792
280
     0
281
     0
  0
CLASS
  1
ACAMGRCOMPDEFSET
  2
AcAmGrCompDefSet
  3
DesignerAssemblies
 90
     1024
280
     0
281
     0
  0
CLASS
  1
AMDTBROWSERDBTAB
  2
AmdtBrowserDbTab
  3
McadcomServices
 90
     1024
280
     0
281
     0
  0
CLASS
  1
CBROWSERAPPOBJECT
  2
CBrowserAppObject
  3
McadcomServices
 90
     1024
280
     0
281
     0
  0
CLASS
  1
DM_PLACEHOLDER
  2
AcDmSelsetPlaceholder
  3
AcMechDwgViewMgmt
 90
     1024
280
     0
281
     0
  0
CLASS
  1
CAMSSTRUCTBTNSTATE
  2
StructBtnState
  3
DesignerAssemblies
 90
    33792
280
     0
281
     0
  0
CLASS
  1
EXACXREFPANELOBJECT
  2
ExAcXREFPanelObject
  3
EXAC_ESW
 90
    33793
280
     0
281
     0
  0
CLASS
  1
NPOCOLLECTION
  2
AcDbImpNonPersistentObjectsCollection
  3
ObjectDBX Classes
 90
    33921
280
     0
281
     0
  0
CLASS
  1
DIMASSOC
  2
AcDbDimAssoc
  3
"AcDbDimAssoc|Product Desc:     AcDim ARX App For Dimension|Company:          Autodesk, Inc.|WEB Address:      www.autodesk.com"
 90
    32768
280
     0
281
     0
  0
CLASS
  1
ACMPARTREF
  2
AcmPartRef
  3
"AcmSymBB|Product Description: AutoCAD Mechanical|Company: Autodesk, Inc."
 90
    36863
280
     0
281
     1
  0
CLASS
  1
ACDBLINERES
  2
AcDbLineRes
  3
AcGrefServices
 90
     1024
280
     0
281
     0
  0
CLASS
  1
NEWSTDPARTPARLIST
  2
AmgNewParListFiler
  3
"AmgParList|Product Description: AutoCAD Mechanical|Company: Autodesk, Inc."
 90
    36863
280
     0
281
     0
  0
CLASS
  1
SORTENTSTABLE
  2
AcDbSortentsTable
  3
ObjectDBX Classes
 90
        0
280
     0
281
     0
  0
CLASS
  1
ACMDATAENTRYPART
  2
AcmDataEntryPart
  3
AcmSymBB|Product Description: AutoCAD Mechanical|Company: Autodesk, Inc.
 90
    33792
280
     0
281
     0
  0
CLASS
  1
AMDTNOTE
  2
AmdtNote
  3
"AcmSymBB|Product Description: AutoCAD Mechanical|Company: Autodesk, Inc."
 90
     4095
280
     0
281
     1
  0
CLASS
  1
AMDTFORMULAUPDATEDISPATCHER
  2
AmdtFormulaUpdateDispatcher
  3
AcMeServices
 90
     1024
280
     0
281
     0
  0
CLASS
  1
ACMSTANDARDISO
  2
AcmStandardISO
  3
"Amdt_StdImp|Product Description: AutoCAD Mechanical|Company: Autodesk, Inc."
 90
     1024
280
     0
281
     0
  0
CLASS
  1
AMDTEDGESTANDARDISO13715
  2
AmdtEdgeStdISO13715
  3
"Amdt_StdImp|Product Description: AutoCAD Mechanical|Company: Autodesk, Inc."
 90
     1024
280
     0
281
     0
  0
CLASS
  1
ACMSURFSTANDARDISO
  2
AcmSurfTextStdISO
  3
"Amdt_StdImp|Product Description: AutoCAD Mechanical|Company: Autodesk, Inc."
 90
     1024
280
     0
281
     0
  0
CLASS
  1
ACMFCFSTANDARDISO
  2
AcmFCFStdISO
  3
"Amdt_StdImp|Product Description: AutoCAD Mechanical|Company: Autodesk, Inc."
 90
     1024
280
     0
281
     0
  0
CLASS
  1
ACMWELDSTANDARDISO
  2
AcmWeldingStdISO
  3
"Amdt_StdImp|Product Description: AutoCAD Mechanical|Company: Autodesk, Inc."
 90
     1024
280
     0
281
     0
  0
CLASS
  1
ACMIDSTANDARDISO
  2
AcmIdStdISO
  3
"Amdt_StdImp|Product Description: AutoCAD Mechanical|Company: Autodesk, Inc."
 90
     1024
280
     0
281
     0
  0
CLASS
  1
ACMDATUMSTANDARDISO
  2
AcmDatumStdISO
  3
"Amdt_StdImp|Product Description: AutoCAD Mechanical|Company: Autodesk, Inc."
 90
     1024
280
     0
281
     0
  0
CLASS
  1
ACMBOMSTANDARDISO
  2
AcmBOMStdISO
  3
"Amdt_StdImp|Product Description: AutoCAD Mechanical|Company: Autodesk, Inc."
 90
     1024
280
     0
281
     0
  0
CLASS
  1
ACMDETAILSTANDARDISO
  2
AmdtDetailSymStdISO
  3
"Amdt_StdImp|Product Description: AutoCAD Mechanical|Company: Autodesk, Inc."
 90
     1024
280
     0
281
     0
  0
CLASS
  1
ACMSECTIONSTANDARDISO
  2
AmdtSectionSymStdISO
  3
"Amdt_StdImp|Product Description: AutoCAD Mechanical|Company: Autodesk, Inc."
 90
     1024
280
     0
281
     0
  0
CLASS
  1
ACMCENTERLINESTANDARDISO
  2
AmdtCenterLineStdISO
  3
"Amdt_StdImp|Product Description: AutoCAD Mechanical|Company: Autodesk, Inc."
 90
     1024
280
     0
281
     0
  0
CLASS
  1
ACMTHREADLINESTANDARDISO
  2
AmdtThreadLineStdISO
  3
"Amdt_StdImp|Product Description: AutoCAD Mechanical|Company: Autodesk, Inc."
 90
     1024
280
     0
281
     0
  0
CLASS
  1
ACMNOTESTANDARDISO
  2
AmdtNoteStdISO
  3
"Amdt_StdImp|Product Description: AutoCAD Mechanical|Company: Autodesk, Inc."
 90
     1024
280
     0
281
     0
  0
CLASS
  1
ACMTAPERSTANDARDISO
  2
AcmTaperStdISO
  3
"Amdt_StdImp|Product Description: AutoCAD Mechanical|Company: Autodesk, Inc."
 90
     1024
280
     0
281
     0
  0
CLASS
  1
ACAMGHOLECHARTSTDISO
  2
AcAmgHoleChartStdISO
  3
AmgDim|Product Description: AutoCAD Mechanical|Company: Autodesk, Inc.
 90
     1024
280
     0
281
     0
  0
CLASS
  1
ACMDATAENTRY
  2
AcmDataEntry
  3
AcmSymBB|Product Description: AutoCAD Mechanical|Company: Autodesk, Inc.
 90
     1024
280
     0
281
     0
  0
CLASS
  1
ACMBOM
  2
AcmBom
  3
"AcmSymBB|Product Description: AutoCAD Mechanical|Company: Autodesk, Inc."
 90
     1024
280
     0
281
     0
  0
CLASS
  1
ACMBOMROW
  2
AcmBomRow
  3
"AcmSymBB|Product Description: AutoCAD Mechanical|Company: Autodesk, Inc."
 90
    33792
280
     0
281
     0
  0
CLASS
  1
ACMPARTLIST
  2
AcmPartList
  3
"AcmSymBB|Product Description: AutoCAD Mechanical|Company: Autodesk, Inc."
 90
    36863
280
     0
281
     1
  0
CLASS
  1
ACDBOPPOLYLINERES
  2
AcDbOpPolylineRes
  3
AcGrefServices
 90
    33792
280
     0
281
     0
  0
CLASS
  1
ACRFINSADJ
  2
AcRfInsAdjuster
  3
AcMeServices
 90
    33792
280
     0
281
     0
  0
CLASS
  1
ACMPICKOBJ
  2
AcmPickEnt
  3
"AcmSymBB|Product Description: AutoCAD Mechanical|Company: Autodesk, Inc."
 90
    33792
280
     0
281
     1
  0
CLASS
  1
ACMBALLOON
  2
AcmBalloon
  3
"AcmSymBB|Product Description: AutoCAD Mechanical|Company: Autodesk, Inc."
 90
    36863
280
     0
281
     1
  0
CLASS
  1
ACDBDIMENSIONRES
  2
AcDbDimensionRes
  3
AcmSymBB|Product Description: AutoCAD Mechanical|Company: Autodesk, Inc.
 90
     1024
280
     0
281
     0
  0
CLASS
  1
ACDBCIRCARCRES
  2
AcDbCircArcRes
  3
AcGrefServices
 90
     1024
280
     0
281
     0
  0
CLASS
  1
SCALE
  2
AcDbScale
  3
ObjectDBX Classes
 90
     1153
280
     0
281
     0
  0
CLASS
  1
MLEADERSTYLE
  2
AcDbMLeaderStyle
  3
ACDB_MLEADERSTYLE_CLASS
 90
     4095
280
     0
281
     0
  0
CLASS
  1
ACMANOOTATIONVIEWSTANDARDJIS
  2
AmdtAnViewStdJIS
  3
"Amdt_StdImp|Product Description: AutoCAD Mechanical|Company: Autodesk, Inc."
 90
     1024
280
     0
281
     0
  0
CLASS
  1
AMDTEDGESTANDARDJIS
  2
AmdtEdgeStdJIS
  3
"Amdt_StdImp|Product Description: AutoCAD Mechanical|Company: Autodesk, Inc."
 90
     1024
280
     0
281
     0
  0
CLASS
  1
ACMANOOTATIONVIEWSTANDARDISO
  2
AmdtAnViewStdISO
  3
"Amdt_StdImp|Product Description: AutoCAD Mechanical|Company: Autodesk, Inc."
 90
     1024
280
     0
281
     0
  0
CLASS
  1
CELLSTYLEMAP
  2
AcDbCellStyleMap
  3
ObjectDBX Classes
 90
     1152
280
     0
281
     0
  0
CLASS
  1
AMDTACMWBLOCKBOMENTITY
  2
AmdtAcmWblockBomEntity
  3
"AcmSymBB|Product Description: AutoCAD Mechanical|Company: Autodesk, Inc."
 90
    36863
280
     0
281
     1
  0
CLASS
  1
PLOTSETTINGS
  2
AcDbPlotSettings
  3
ObjectDBX Classes
 90
        0
280
     0
281
     0
  0
CLASS
  1
ACAD_EVALUATION_GRAPH
  2
AcDbEvalGraph
  3
ObjectDBX Classes
 90
    33921
280
     0
281
     0
  0
CLASS
  1
ACAECUSTOBJ
  2
AcAeEditorObj
  3
AcAeEditorObj
 90
    33792
280
     0
281
     0
  0
CLASS
  1
ACDB_DYNAMICBLOCKPURGEPREVENTER_VERSION
  2
AcDbDynamicBlockPurgePreventer
  3
ObjectDBX Classes
 90
    33921
280
     0
281
     0
  0
ENDSEC
  0
SECTION
  2
TABLES
  0
TABLE
  2
VPORT
  5
8
102
{ACAD_XDICTIONARY
360
CA7
102
}
330
0
100
AcDbSymbolTable
 70
     1
  0
VPORT
  5
230
330
8
100
AcDbSymbolTableRecord
100
AcDbViewportTableRecord
  2
*Active
 70
     0
 10
0.0
 20
0.0
 11
1.0
 21
1.0
 12
241.157466014267
 22
189.8551894193011
 13
0.0
 23
0.0
 14
0.5
 24
0.5
 15
2.0
 25
2.0
 16
0.0
 26
0.0
 36
1.0
 17
0.0
 27
0.0
 37
0.0
 40
51.6945623583893
 41
1.833150384193194
 42
50.0
 43
0.0
 44
0.0
 50
0.0
 51
0.0
 71
    16
 72
   100
 73
     1
 74
     3
 75
     0
 76
     0
 77
     0
 78
     0
281
     0
 65
     1
110
0.0
120
0.0
130
0.0
111
1.0
121
0.0
131
0.0
112
0.0
122
1.0
132
0.0
 79
     0
146
0.0
  0
ENDTAB
  0
TABLE
  2
LTYPE
  5
5
330
0
100
AcDbSymbolTable
 70
    17
  0
LTYPE
  5
14
330
5
100
AcDbSymbolTableRecord
100
AcDbLinetypeTableRecord
  2
ByBlock
 70
     0
  3

 72
    65
 73
     0
 40
0.0
  0
LTYPE
  5
15
330
5
100
AcDbSymbolTableRecord
100
AcDbLinetypeTableRecord
  2
ByLayer
 70
     0
  3

 72
    65
 73
     0
 40
0.0
  0
LTYPE
  5
16
330
5
100
AcDbSymbolTableRecord
100
AcDbLinetypeTableRecord
  2
Continuous
 70
     0
  3
Solid line
 72
    65
 73
     0
 40
0.0
  0
LTYPE
  5
4B
330
5
100
AcDbSymbolTableRecord
100
AcDbLinetypeTableRecord
  2
AM_ISO02W050
 70
     0
  3
__ __ __ __ __ __ __ __ __ __ __ __ __ __ __
 72
    65
 73
     2
 40
7.5
 49
6.0
 74
     0
 49
-1.5
 74
     0
  0
LTYPE
  5
4C
330
5
100
AcDbSymbolTableRecord
100
AcDbLinetypeTableRecord
  2
AM_ISO08W050
 70
     0
  3
____ . ____ . ____ . ____ . ____ . ____ . ____
 72
    65
 73
     4
 40
18.0
 49
12.0
 74
     0
 49
-1.5
 74
     0
 49
3.0
 74
     0
 49
-1.5
 74
     0
  0
LTYPE
  5
4D
330
5
100
AcDbSymbolTableRecord
100
AcDbLinetypeTableRecord
  2
AM_ISO09W050
 70
     0
  3
_____ . . _____ . . _____ . . ____ .. ____
 72
    65
 73
     6
 40
22.5
 49
12.0
 74
     0
 49
-1.5
 74
     0
 49
3.0
 74
     0
 49
-1.5
 74
     0
 49
3.0
 74
     0
 49
-1.5
 74
     0
  0
LTYPE
  5
4E
330
5
100
AcDbSymbolTableRecord
100
AcDbLinetypeTableRecord
  2
Amconstr
 70
     0
  3
_______________________
 72
    65
 73
     2
 40
9999.0
 49
9999.0
 74
     0
 49
0.0
 74
     0
  0
LTYPE
  5
4F
330
5
100
AcDbSymbolTableRecord
100
AcDbLinetypeTableRecord
  2
AM_ISO02W050x2
 70
     0
  3
 _ _ _ _ _ _ _ _ _ _ _ _
 72
    65
 73
     2
 40
3.75
 49
3.0
 74
     0
 49
-0.75
 74
     0
  0
LTYPE
  5
50
330
5
100
AcDbSymbolTableRecord
100
AcDbLinetypeTableRecord
  2
AM_ISO08W050x2
 70
     0
  3
__ . __ . __ . __ . __ . __
 72
    65
 73
     4
 40
9.0
 49
6.0
 74
     0
 49
-0.75
 74
     0
 49
1.5
 74
     0
 49
-0.75
 74
     0
  0
LTYPE
  5
53
330
5
100
AcDbSymbolTableRecord
100
AcDbLinetypeTableRecord
  2
Amzigzag
 70
     0
  3
/\/-/\/-/\/-/\/-/\/-/\/
 72
    65
 73
     2
 40
11.0001
 49
0.0001
 74
     4
 75
   135
340
52
 46
0.04
 50
0.0
 44
0.0
 45
0.0
 49
-11.0
 74
     0
  0
LTYPE
  5
169
330
5
100
AcDbSymbolTableRecord
100
AcDbLinetypeTableRecord
  2
ACJISTGB
 70
     0
  3
__ . . __ . .
 72
    65
 73
     6
 40
9.0
 49
4.0
 74
     0
 49
-1.0
 74
     0
 49
1.0
 74
     0
 49
-1.0
 74
     0
 49
1.0
 74
     0
 49
-1.0
 74
     0
  0
LTYPE
  5
16A
330
5
100
AcDbSymbolTableRecord
100
AcDbLinetypeTableRecord
  2
ACJISTGL
 70
     0
  3
_ _ _ _ _
 72
    65
 73
     2
 40
3.0
 49
2.0
 74
     0
 49
-1.0
 74
     0
  0
LTYPE
  5
27A
330
5
100
AcDbSymbolTableRecord
100
AcDbLinetypeTableRecord
  2
HIDDEN
 70
     0
  3
Hidden __ __ __ __ __ __ __ __ __ __ __ __ __ _
 72
    65
 73
     2
 40
9.524999999999998
 49
6.349999999999999
 74
     0
 49
-3.174999999999999
 74
     0
  0
LTYPE
  5
27B
330
5
100
AcDbSymbolTableRecord
100
AcDbLinetypeTableRecord
  2
PHANTOM2
 70
     0
  3
Phantom (.5x) ___ _ _ ___ _ _ ___ _ _ ___ _ _
 72
    65
 73
     6
 40
31.75
 49
15.875
 74
     0
 49
-3.174999999999999
 74
     0
 49
3.174999999999999
 74
     0
 49
-3.174999999999999
 74
     0
 49
3.174999999999999
 74
     0
 49
-3.174999999999999
 74
     0
  0
LTYPE
  5
27C
330
5
100
AcDbSymbolTableRecord
100
AcDbLinetypeTableRecord
  2
CENTER
 70
     0
  3
Center ____ _ ____ _ ____ _ ____ _ ____ _ ____
 72
    65
 73
     4
 40
50.8
 49
31.75
 74
     0
 49
-6.349999999999999
 74
     0
 49
6.349999999999999
 74
     0
 49
-6.349999999999999
 74
     0
  0
LTYPE
  5
BB2
330
5
100
AcDbSymbolTableRecord
100
AcDbLinetypeTableRecord
  2
ACISOWELD
 70
     0
  3
_ _ _ _ _
 72
    65
 73
     2
 40
2.0
 49
2.0
 74
     0
 49
-1.0
 74
     0
  0
LTYPE
  5
BB3
330
5
100
AcDbSymbolTableRecord
100
AcDbLinetypeTableRecord
  2
ACISOTGB
 70
     0
  3
__ . . __ . .
 72
    65
 73
     6
 40
9.0
 49
4.0
 74
     0
 49
-1.0
 74
     0
 49
1.0
 74
     0
 49
-1.0
 74
     0
 49
1.0
 74
     0
 49
-1.0
 74
     0
  0
LTYPE
  5
BB4
330
5
100
AcDbSymbolTableRecord
100
AcDbLinetypeTableRecord
  2
ACISOTGL
 70
     0
  3
_ _ _ _ _
 72
    65
 73
     2
 40
3.0
 49
2.0
 74
     0
 49
-1.0
 74
     0
  0
ENDTAB
  0
TABLE
  2
LAYER
  5
2
102
{ACAD_XDICTIONARY
360
971
102
}
330
0
100
AcDbSymbolTable
 70
    13
  0
LAYER
  5
10
102
{ACAD_XDICTIONARY
360
227D
102
}
330
2
100
AcDbSymbolTableRecord
100
AcDbLayerTableRecord
  2
0
 70
     0
 62
     7
  6
Continuous
370
    -3
390
F
  0
LAYER
  5
59
102
{ACAD_XDICTIONARY
360
227F
102
}
330
2
100
AcDbSymbolTableRecord
100
AcDbLayerTableRecord
  2
AM_0
 70
     0
 62
     7
  6
Continuous
370
    50
390
F
  0
LAYER
  5
5A
102
{ACAD_XDICTIONARY
360
2281
102
}
330
2
100
AcDbSymbolTableRecord
100
AcDbLayerTableRecord
  2
AM_BOR
 70
     0
 62
     7
  6
Continuous
370
    50
390
F
  0
LAYER
  5
31B
102
{ACAD_XDICTIONARY
360
2283
102
}
330
2
100
AcDbSymbolTableRecord
100
AcDbLayerTableRecord
  2
AM_5
 70
     0
 62
     3
  6
Continuous
370
    25
390
F
1001
AcAecLayerStandard
1000

1000

  0
LAYER
  5
414
330
2
100
AcDbSymbolTableRecord
100
AcDbLayerTableRecord
  2
Defpoints
 70
     0
 62
     7
  6
Continuous
290
     0
370
    -3
390
F
  0
LAYER
  5
7C0
102
{ACAD_XDICTIONARY
360
2285
102
}
330
2
100
AcDbSymbolTableRecord
100
AcDbLayerTableRecord
  2
AM_7
 70
     0
 62
     4
  6
AM_ISO08W050
370
    25
390
F
  0
LAYER
  5
7C1
102
{ACAD_XDICTIONARY
360
2287
102
}
330
2
100
AcDbSymbolTableRecord
100
AcDbLayerTableRecord
  2
AM_8
 70
     0
 62
     1
  6
Continuous
370
    25
390
F
  0
LAYER
  5
7C2
102
{ACAD_XDICTIONARY
360
2289
102
}
330
2
100
AcDbSymbolTableRecord
100
AcDbLayerTableRecord
  2
AM_4
 70
     0
 62
     3
  6
Continuous
370
    25
390
F
  0
LAYER
  5
7C3
102
{ACAD_XDICTIONARY
360
228B
102
}
330
2
100
AcDbSymbolTableRecord
100
AcDbLayerTableRecord
  2
AM_11
 70
     0
 62
     3
  6
AM_ISO09W050
370
    25
390
F
  0
LAYER
  5
7C4
102
{ACAD_XDICTIONARY
360
228D
102
}
330
2
100
AcDbSymbolTableRecord
100
AcDbLayerTableRecord
  2
AM_12
 70
     0
 62
     7
  6
Continuous
290
     0
370
    50
390
F
  0
LAYER
  5
7C5
102
{ACAD_XDICTIONARY
360
228F
102
}
330
2
100
AcDbSymbolTableRecord
100
AcDbLayerTableRecord
  2
AM_PAREF
 70
     0
 62
     4
  6
Continuous
290
     0
370
    25
390
F
  0
LAYER
  5
1264
102
{ACAD_XDICTIONARY
360
2291
102
}
330
2
100
AcDbSymbolTableRecord
100
AcDbLayerTableRecord
  2
AM_12N
 70
     0
 62
     7
  6
Continuous
290
     0
370
    50
390
F
  0
LAYER
  5
2276
102
{ACAD_XDICTIONARY
360
2293
102
}
330
2
100
AcDbSymbolTableRecord
100
AcDbLayerTableRecord
  2
AM_CL
 70
     0
 62
     1
  6
Amconstr
370
    25
390
F
1001
AcAecLayerStandard
1000

1000

  0
ENDTAB
  0
TABLE
  2
STYLE
  5
3
330
0
100
AcDbSymbolTable
 70
    10
  0
STYLE
  5
11
330
3
100
AcDbSymbolTableRecord
100
AcDbTextStyleTableRecord
  2
STANDARD
 70
     0
 40
0.0
 41
1.0
 50
0.0
 71
     0
 42
1.5
  3
ISOCP.SHX
  4
EXTFONT.SHX
  0
STYLE
  5
52
330
3
100
AcDbSymbolTableRecord
100
AcDbTextStyleTableRecord
  2

 70
     1
 40
0.0
 41
1.0
 50
0.0
 71
     0
 42
2.5
  3
ltypeshp.shx
  4

  0
STYLE
  5
161
330
3
100
AcDbSymbolTableRecord
100
AcDbTextStyleTableRecord
  2
ACJISTS
 70
     0
 40
1.0
 41
1.0
 50
0.0
 71
     0
 42
2.5
  3
isocp.shx
  4
bigfont.shx
  0
STYLE
  5
168
330
3
100
AcDbSymbolTableRecord
100
AcDbTextStyleTableRecord
  2
ACJISGDT
 70
     0
 40
0.0
 41
1.0
 50
0.0
 71
     0
 42
2.5
  3
amgdt.shx
  4

  0
STYLE
  5
7C6
330
3
100
AcDbSymbolTableRecord
100
AcDbTextStyleTableRecord
  2
ｽﾀｲﾙ1
 70
     0
 40
0.0
 41
1.0
 50
0.0
 71
     0
 42
44.62462130138407
  3

  4

1001
ACAD
1000
HGPSoeiKakugothicUB
1071
    32818
  0
STYLE
  5
BB6
330
3
100
AcDbSymbolTableRecord
100
AcDbTextStyleTableRecord
  2
ACISOTS
 70
     0
 40
1.0
 41
1.0
 50
0.0
 71
     0
 42
5.0
  3
isocp.shx
  4
extfont.shx
  0
STYLE
  5
BB7
330
3
100
AcDbSymbolTableRecord
100
AcDbTextStyleTableRecord
  2
ACISOGDT
 70
     0
 40
0.0
 41
1.0
 50
0.0
 71
     0
 42
5.0
  3
amgdt.shx
  4

  0
STYLE
  5
17C7
330
3
100
AcDbSymbolTableRecord
100
AcDbTextStyleTableRecord
  2
USER1
 70
     0
 40
0.0
 41
1.0
 50
0.0
 71
     0
 42
2.5
  3
TXT.SHX
  4

  0
STYLE
  5
17C8
330
3
100
AcDbSymbolTableRecord
100
AcDbTextStyleTableRecord
  2
USER2
 70
     0
 40
0.0
 41
1.0
 50
0.0
 71
     0
 42
2.5
  3
SIMPLEX.SHX
  4

  0
STYLE
  5
17C9
330
3
100
AcDbSymbolTableRecord
100
AcDbTextStyleTableRecord
  2
USER3
 70
     0
 40
0.0
 41
1.0
 50
0.0
 71
     0
 42
2.5
  3
ITALIC.SHX
  4

  0
ENDTAB
  0
TABLE
  2
VIEW
  5
6
330
0
100
AcDbSymbolTable
 70
     6
  0
VIEW
  5
7C
330
6
100
AcDbSymbolTableRecord
100
AcDbViewTableRecord
  2
AM_VIEW1
 70
     0
 40
21.0
 10
242.0085636079213
 20
198.611417654137
 41
38.47697368421055
 11
0.0
 21
0.0
 31
1.0
 12
0.0
 22
0.0
 32
0.0
 42
50.0
 43
0.0
 44
0.0
 50
0.0
 71
    16
281
     0
 72
     0
  0
VIEW
  5
7D
330
6
100
AcDbSymbolTableRecord
100
AcDbViewTableRecord
  2
AM_VIEW2
 70
     0
 40
21.0
 10
262.9315899237107
 20
198.611417654137
 41
38.47697368421055
 11
0.0
 21
0.0
 31
1.0
 12
0.0
 22
0.0
 32
0.0
 42
50.0
 43
0.0
 44
0.0
 50
0.0
 71
    16
281
     0
 72
     0
  0
VIEW
  5
7E
330
6
100
AcDbSymbolTableRecord
100
AcDbViewTableRecord
  2
AM_VIEW3
 70
     0
 40
21.00000000000003
 10
242.0085636079213
 20
177.611417654137
 41
38.47697368421055
 11
0.0
 21
0.0
 31
1.0
 12
0.0
 22
0.0
 32
0.0
 42
50.0
 43
0.0
 44
0.0
 50
0.0
 71
    16
281
     0
 72
     0
  0
VIEW
  5
7F
330
6
100
AcDbSymbolTableRecord
100
AcDbViewTableRecord
  2
AM_VIEW4
 70
     0
 40
21.00000000000003
 10
262.9315899237107
 20
177.611417654137
 41
38.47697368421055
 11
0.0
 21
0.0
 31
1.0
 12
0.0
 22
0.0
 32
0.0
 42
50.0
 43
0.0
 44
0.0
 50
0.0
 71
    16
281
     0
 72
     0
  0
VIEW
  5
80
330
6
100
AcDbSymbolTableRecord
100
AcDbViewTableRecord
  2
AM_VIEW5
 70
     0
 40
21.0
 10
252.470076765816
 20
188.111417654137
 41
38.47697368421052
 11
0.0
 21
0.0
 31
1.0
 12
0.0
 22
0.0
 32
0.0
 42
50.0
 43
0.0
 44
0.0
 50
0.0
 71
    16
281
     0
 72
     0
  0
VIEW
  5
81
330
6
100
AcDbSymbolTableRecord
100
AcDbViewTableRecord
  2
AM_VIEW6
 70
     0
 40
41.99958000000004
 10
252.470076765816
 20
188.111417654137
 41
76.95317782894744
 11
0.0
 21
0.0
 31
1.0
 12
0.0
 22
0.0
 32
0.0
 42
50.0
 43
0.0
 44
0.0
 50
0.0
 71
    16
281
     0
 72
     0
  0
ENDTAB
  0
TABLE
  2
UCS
  5
7
330
0
100
AcDbSymbolTable
 70
     0
  0
ENDTAB
  0
TABLE
  2
APPID
  5
9
330
0
100
AcDbSymbolTable
 70
    46
  0
APPID
  5
12
330
9
100
AcDbSymbolTableRecord
100
AcDbRegAppTableRecord
  2
ACAD
 70
     0
  0
APPID
  5
30
330
9
100
AcDbSymbolTableRecord
100
AcDbRegAppTableRecord
  2
MCAD_NO_VIS
 70
     0
  0
APPID
  5
31
330
9
100
AcDbSymbolTableRecord
100
AcDbRegAppTableRecord
  2
ACAD_TEMP_GRAPHIC
 70
     0
  0
APPID
  5
5B
330
9
100
AcDbSymbolTableRecord
100
AcDbRegAppTableRecord
  2
GENIUS_GENREC_14
 70
     0
  0
APPID
  5
5C
330
9
100
AcDbSymbolTableRecord
100
AcDbRegAppTableRecord
  2
GENIUS_GENODEF_13
 70
     0
  0
APPID
  5
5D
330
9
100
AcDbSymbolTableRecord
100
AcDbRegAppTableRecord
  2
GENIUS_GENOBJ-N-REC_13
 70
     0
  0
APPID
  5
96
330
9
100
AcDbSymbolTableRecord
100
AcDbRegAppTableRecord
  2
GENIUS_GENOBJ-N-CEN_13
 70
     0
  0
APPID
  5
C1
330
9
100
AcDbSymbolTableRecord
100
AcDbRegAppTableRecord
  2
GENIUS_GENOBJ-N-TIT_13
 70
     0
  0
APPID
  5
C2
330
9
100
AcDbSymbolTableRecord
100
AcDbRegAppTableRecord
  2
GENIUS_GENTITLE_13
 70
     0
  0
APPID
  5
C3
330
9
100
AcDbSymbolTableRecord
100
AcDbRegAppTableRecord
  2
GENIUS_GENOENT_13
 70
     0
  0
APPID
  5
C4
330
9
100
AcDbSymbolTableRecord
100
AcDbRegAppTableRecord
  2
GENIUS_GENOREF_13
 70
     0
  0
APPID
  5
C5
330
9
100
AcDbSymbolTableRecord
100
AcDbRegAppTableRecord
  2
GENIUS_GENOLIS_13
 70
     0
  0
APPID
  5
C6
330
9
100
AcDbSymbolTableRecord
100
AcDbRegAppTableRecord
  2
GENIUS_GENZVEED_13
 70
     0
  0
APPID
  5
C7
330
9
100
AcDbSymbolTableRecord
100
AcDbRegAppTableRecord
  2
GENIUS_GENSCREG_15
 70
     0
  0
APPID
  5
C8
330
9
100
AcDbSymbolTableRecord
100
AcDbRegAppTableRecord
  2
GENIUS_GENOBJ-N-SDF_13
 70
     0
  0
APPID
  5
27E
330
9
100
AcDbSymbolTableRecord
100
AcDbRegAppTableRecord
  2
AD_DRAW
 70
     0
  0
APPID
  5
281
330
9
100
AcDbSymbolTableRecord
100
AcDbRegAppTableRecord
  2
ACATTRIBSERVICES
 70
     0
  0
APPID
  5
2A0
330
9
100
AcDbSymbolTableRecord
100
AcDbRegAppTableRecord
  2
DESIGNERASSEMBLIES
 70
     0
  0
APPID
  5
2B9
330
9
100
AcDbSymbolTableRecord
100
AcDbRegAppTableRecord
  2
ACADM_DIM_EDIT
 70
     0
  0
APPID
  5
2BA
330
9
100
AcDbSymbolTableRecord
100
AcDbRegAppTableRecord
  2
AMDT_DM_ADJ
 70
     0
  0
APPID
  5
31C
330
9
100
AcDbSymbolTableRecord
100
AcDbRegAppTableRecord
  2
AcAecLayerStandard
 70
     0
  0
APPID
  5
37C
330
9
100
AcDbSymbolTableRecord
100
AcDbRegAppTableRecord
  2
ACAD_PSEXT
 70
     0
  0
APPID
  5
729
330
9
100
AcDbSymbolTableRecord
100
AcDbRegAppTableRecord
  2
GENIUS_GENDIMSH_14
 70
     0
  0
APPID
  5
72B
330
9
100
AcDbSymbolTableRecord
100
AcDbRegAppTableRecord
  2
ACAD_EXEMPT_FROM_CAD_STANDARDS
 70
     0
  0
APPID
  5
7C8
330
9
100
AcDbSymbolTableRecord
100
AcDbRegAppTableRecord
  2
GENIUS_GENOBJ-N-FIL_13
 70
     0
  0
APPID
  5
7C9
330
9
100
AcDbSymbolTableRecord
100
AcDbRegAppTableRecord
  2
GENIUS_GEFSH_13
 70
     0
  0
APPID
  5
7CA
330
9
100
AcDbSymbolTableRecord
100
AcDbRegAppTableRecord
  2
GENIUS_GENOBJ-F-SHS_13
 70
     0
  0
APPID
  5
7CB
330
9
100
AcDbSymbolTableRecord
100
AcDbRegAppTableRecord
  2
GENIUS_GENFIL_13
 70
     0
  0
APPID
  5
7CC
330
9
100
AcDbSymbolTableRecord
100
AcDbRegAppTableRecord
  2
GENIUS_GENOBJ-N-CHA_13
 70
     0
  0
APPID
  5
7CD
330
9
100
AcDbSymbolTableRecord
100
AcDbRegAppTableRecord
  2
GENIUS_GENOBJ-N-HTC_13
 70
     0
  0
APPID
  5
7CE
330
9
100
AcDbSymbolTableRecord
100
AcDbRegAppTableRecord
  2
GENIUS_GENHATCH_13
 70
     0
  0
APPID
  5
978
330
9
100
AcDbSymbolTableRecord
100
AcDbRegAppTableRecord
  2
GENIUS_GENCEN_19
 70
     0
  0
APPID
  5
CBC
330
9
100
AcDbSymbolTableRecord
100
AcDbRegAppTableRecord
  2
ACAD_DSTYLE_DIMARC_LENGTH_SYMBOL
 70
     0
  0
APPID
  5
170C
330
9
100
AcDbSymbolTableRecord
100
AcDbRegAppTableRecord
  2
GENIUS_GENOBJ-N-CRS_13
 70
     0
  0
APPID
  5
2248
330
9
100
AcDbSymbolTableRecord
100
AcDbRegAppTableRecord
  2
GENIUS_GENDTOL_13
 70
     0
  0
APPID
  5
2249
330
9
100
AcDbSymbolTableRecord
100
AcDbRegAppTableRecord
  2
ACAD_DSTYLE_DIMINSPECT
 70
     0
  0
APPID
  5
22EC
330
9
100
AcDbSymbolTableRecord
100
AcDbRegAppTableRecord
  2
ACAD_MLEADERVER
 70
     0
  0
APPID
  5
3097
330
9
100
AcDbSymbolTableRecord
100
AcDbRegAppTableRecord
  2
ACAD_DSTYLE_DIMJAG
 70
     0
  0
APPID
  5
3098
330
9
100
AcDbSymbolTableRecord
100
AcDbRegAppTableRecord
  2
ACAD_DSTYLE_DIMBREAK
 70
     0
  0
APPID
  5
30B5
330
9
100
AcDbSymbolTableRecord
100
AcDbRegAppTableRecord
  2
ACAD_DSTYLE_DIM_LINETYPE
 70
     0
  0
APPID
  5
30B6
330
9
100
AcDbSymbolTableRecord
100
AcDbRegAppTableRecord
  2
ACAD_DSTYLE_DIM_EXT1_LINETYPE
 70
     0
  0
APPID
  5
30B7
330
9
100
AcDbSymbolTableRecord
100
AcDbRegAppTableRecord
  2
ACAD_DSTYLE_DIM_EXT2_LINETYPE
 70
     0
  0
APPID
  5
369C
330
9
100
AcDbSymbolTableRecord
100
AcDbRegAppTableRecord
  2
ACAUTHENVIRON
 70
     0
  0
APPID
  5
36A0
330
9
100
AcDbSymbolTableRecord
100
AcDbRegAppTableRecord
  2
AcDbDynamicBlockTrueName
 70
     0
  0
APPID
  5
36A1
330
9
100
AcDbSymbolTableRecord
100
AcDbRegAppTableRecord
  2
AcDbDynamicBlockGUID
 70
     0
  0
APPID
  5
397C
330
9
100
AcDbSymbolTableRecord
100
AcDbRegAppTableRecord
  2
GENIUS_GENTRA_14
 70
     0
  0
ENDTAB
  0
TABLE
  2
DIMSTYLE
  5
A
330
0
100
AcDbSymbolTable
 70
    19
100
AcDbDimStyleTable
 71
     1
340
8F
  0
DIMSTYLE
105
2C1
330
A
100
AcDbSymbolTableRecord
100
AcDbDimStyleTableRecord
  2
Standard
 70
     0
340
11
  0
DIMSTYLE
105
8F
330
A
100
AcDbSymbolTableRecord
100
AcDbDimStyleTableRecord
  2
AM_JIS
 70
     0
  4
"
 41
2.5
 42
1.0
 43
10.0
 44
1.0
 47
0.1
 48
0.1
 73
     0
 74
     0
 77
     3
 78
     8
 79
     2
140
3.5
141
0.0
143
0.0393701
146
0.71
147
1.5
172
     1
176
   256
177
   256
178
     2
271
     2
272
     3
274
     4
283
     0
284
     8
340
11
341
84
342
84
343
84
344
84
371
    -1
372
    -1
1001
ACAD_DSTYLE_DIMJAG
1070
   388
1040
1.5
1001
ACAD_DSTYLE_DIMBREAK
1070
   391
1040
3.75
1001
ACAD_DSTYLE_DIMARC_LENGTH_SYMBOL
1070
   379
1070
     1
1001
ACAD_DSTYLE_DIM_LINETYPE
1070
   380
1005
14
1001
ACAD_DSTYLE_DIM_EXT1_LINETYPE
1070
   381
1005
14
1001
ACAD_DSTYLE_DIM_EXT2_LINETYPE
1070
   382
1005
14
  0
DIMSTYLE
105
90
330
A
100
AcDbSymbolTableRecord
100
AcDbDimStyleTableRecord
  2
AM_JIS$3
 70
     0
  4
"
 41
2.5
 42
1.0
 43
10.0
 44
1.0
 47
0.1
 48
0.1
 73
     0
 77
     3
 78
     8
 79
     2
140
3.5
141
0.0
143
0.0393701
146
0.71
147
1.5
176
   256
177
   256
178
     2
271
     2
272
     3
274
     4
283
     0
284
     8
288
     1
289
     0
340
11
341
84
342
84
343
84
344
84
371
    -1
372
    -1
1001
ACAD_DSTYLE_DIMBREAK
1070
   391
1040
3.75
1001
ACAD_DSTYLE_DIMJAG
1070
   388
1040
1.5
1001
ACAD_DSTYLE_DIMARC_LENGTH_SYMBOL
1070
   379
1070
     1
1001
ACAD_DSTYLE_DIM_LINETYPE
1070
   380
1005
14
1001
ACAD_DSTYLE_DIM_EXT1_LINETYPE
1070
   381
1005
14
1001
ACAD_DSTYLE_DIM_EXT2_LINETYPE
1070
   382
1005
14
  0
DIMSTYLE
105
91
330
A
100
AcDbSymbolTableRecord
100
AcDbDimStyleTableRecord
  2
AM_JIS$4
 70
     0
  4
"
 41
2.5
 42
1.0
 43
10.0
 44
1.0
 47
0.1
 48
0.1
 73
     0
 74
     0
 77
     3
 78
     8
 79
     2
140
3.5
141
0.0
143
0.0393701
146
0.71
147
1.5
172
     1
176
   256
177
   256
178
     2
271
     2
272
     3
274
     4
283
     0
284
     8
340
11
341
84
342
84
343
84
344
84
371
    -1
372
    -1
1001
ACAD_DSTYLE_DIMBREAK
1070
   391
1040
3.75
1001
ACAD_DSTYLE_DIMJAG
1070
   388
1040
1.5
1001
ACAD_DSTYLE_DIMARC_LENGTH_SYMBOL
1070
   379
1070
     1
1001
ACAD_DSTYLE_DIM_LINETYPE
1070
   380
1005
14
1001
ACAD_DSTYLE_DIM_EXT1_LINETYPE
1070
   381
1005
14
1001
ACAD_DSTYLE_DIM_EXT2_LINETYPE
1070
   382
1005
14
  0
DIMSTYLE
105
92
330
A
100
AcDbSymbolTableRecord
100
AcDbDimStyleTableRecord
  2
AM_JIS$6
 70
     0
  4
"
 41
2.5
 42
1.0
 43
10.0
 44
1.0
 47
0.1
 48
0.1
 73
     0
 74
     0
 78
     8
 79
     2
140
3.5
141
0.0
143
0.0393701
146
0.71
147
1.5
172
     1
176
   256
177
   256
178
     2
271
     2
272
     3
274
     4
283
     0
284
     8
340
11
341
84
342
84
343
84
344
84
371
    -1
372
    -1
1001
ACAD_DSTYLE_DIMBREAK
1070
   391
1040
3.75
1001
ACAD_DSTYLE_DIMJAG
1070
   388
1040
1.5
1001
ACAD_DSTYLE_DIMARC_LENGTH_SYMBOL
1070
   379
1070
     1
1001
ACAD_DSTYLE_DIM_LINETYPE
1070
   380
1005
14
1001
ACAD_DSTYLE_DIM_EXT1_LINETYPE
1070
   381
1005
14
1001
ACAD_DSTYLE_DIM_EXT2_LINETYPE
1070
   382
1005
14
  0
DIMSTYLE
105
93
330
A
100
AcDbSymbolTableRecord
100
AcDbDimStyleTableRecord
  2
AM_JIS$7
 70
     0
  4
"
 41
2.5
 42
1.0
 43
10.0
 44
1.0
 47
0.1
 48
0.1
 73
     0
 74
     0
 77
     3
 78
     8
 79
     2
140
3.5
141
0.0
143
0.0393701
146
0.71
147
1.5
172
     1
176
   256
177
   256
178
     2
271
     2
272
     3
274
     4
283
     0
284
     8
340
11
341
84
342
84
343
84
344
84
371
    -1
372
    -1
1001
ACAD_DSTYLE_DIMBREAK
1070
   391
1040
3.75
1001
ACAD_DSTYLE_DIMJAG
1070
   388
1040
1.5
1001
ACAD_DSTYLE_DIMARC_LENGTH_SYMBOL
1070
   379
1070
     1
1001
ACAD_DSTYLE_DIM_LINETYPE
1070
   380
1005
14
1001
ACAD_DSTYLE_DIM_EXT1_LINETYPE
1070
   381
1005
14
1001
ACAD_DSTYLE_DIM_EXT2_LINETYPE
1070
   382
1005
14
  0
DIMSTYLE
105
94
330
A
100
AcDbSymbolTableRecord
100
AcDbDimStyleTableRecord
  2
AM_JIS$SF
 70
     0
  4
"
 41
2.5
 42
1.0
 43
10.0
 44
1.0
 47
0.1
 48
0.1
 73
     0
 74
     0
 75
     1
 76
     1
 77
     3
 78
     8
 79
     2
140
3.5
141
0.0
143
0.0393701
146
0.71
147
1.5
172
     1
176
   256
177
   256
178
     2
271
     2
272
     3
274
     4
283
     0
284
     8
340
11
341
84
342
84
343
84
344
84
371
    -1
372
    -1
1001
ACAD_DSTYLE_DIMBREAK
1070
   391
1040
3.75
1001
ACAD_DSTYLE_DIMJAG
1070
   388
1040
1.5
1001
ACAD_DSTYLE_DIMARC_LENGTH_SYMBOL
1070
   379
1070
     1
1001
ACAD_DSTYLE_DIM_LINETYPE
1070
   380
1005
14
1001
ACAD_DSTYLE_DIM_EXT1_LINETYPE
1070
   381
1005
14
1001
ACAD_DSTYLE_DIM_EXT2_LINETYPE
1070
   382
1005
14
  0
DIMSTYLE
105
95
330
A
100
AcDbSymbolTableRecord
100
AcDbDimStyleTableRecord
  2
AM_JIS$SH
 70
     0
  4
"
 41
2.5
 42
1.0
 43
10.0
 44
1.0
 47
0.1
 48
0.1
 73
     0
 74
     0
 75
     1
 76
     1
 77
     3
 78
     8
 79
     2
140
3.5
141
0.0
143
0.0393701
144
2.0
146
0.71
147
1.5
172
     1
173
     1
176
   256
177
   256
178
     2
271
     2
272
     3
274
     4
283
     0
284
     8
340
11
341
84
342
84
343
8A
344
84
371
    -1
372
    -1
1001
ACAD_DSTYLE_DIMBREAK
1070
   391
1040
3.75
1001
ACAD_DSTYLE_DIMJAG
1070
   388
1040
1.5
1001
ACAD_DSTYLE_DIMARC_LENGTH_SYMBOL
1070
   379
1070
     1
1001
ACAD_DSTYLE_DIM_LINETYPE
1070
   380
1005
14
1001
ACAD_DSTYLE_DIM_EXT1_LINETYPE
1070
   381
1005
14
1001
ACAD_DSTYLE_DIM_EXT2_LINETYPE
1070
   382
1005
14
  0
DIMSTYLE
105
7C7
330
A
100
AcDbSymbolTableRecord
100
AcDbDimStyleTableRecord
  2
AM_JIS$0
 70
     0
  4
"
 41
2.5
 42
1.0
 43
10.0
 44
1.0
 47
0.1
 48
0.1
 73
     0
 74
     0
 77
     3
 78
     8
 79
     2
140
3.5
141
0.0
143
0.0393701
146
0.71
147
1.5
172
     1
176
   256
177
   256
178
     2
271
     2
272
     3
274
     4
283
     0
284
     8
340
11
341
84
342
84
343
84
344
84
371
    -1
372
    -1
1001
ACAD_DSTYLE_DIMBREAK
1070
   391
1040
3.75
1001
ACAD_DSTYLE_DIMJAG
1070
   388
1040
1.5
1001
ACAD_DSTYLE_DIMARC_LENGTH_SYMBOL
1070
   379
1070
     1
1001
ACAD_DSTYLE_DIM_LINETYPE
1070
   380
1005
14
1001
ACAD_DSTYLE_DIM_EXT1_LINETYPE
1070
   381
1005
14
1001
ACAD_DSTYLE_DIM_EXT2_LINETYPE
1070
   382
1005
14
  0
DIMSTYLE
105
BB8
330
A
100
AcDbSymbolTableRecord
100
AcDbDimStyleTableRecord
  2
AM_ISO
 70
     0
  4
"
 41
2.5
 42
1.0
 43
10.0
 44
1.0
 47
0.1
 48
0.1
 73
     0
 74
     0
 77
     1
 78
     8
 79
     2
140
3.5
141
0.0
143
0.0393701
146
0.71
147
1.5
172
     1
176
   256
177
   256
178
     2
271
     2
272
     3
274
     4
283
     0
284
     8
340
11
371
    -1
372
    -1
1001
ACAD_DSTYLE_DIMARC_LENGTH_SYMBOL
1070
   379
1070
     1
  0
DIMSTYLE
105
BB9
330
A
100
AcDbSymbolTableRecord
100
AcDbDimStyleTableRecord
  2
AM_ISO$3
 70
     0
  4
"
 41
2.5
 42
1.0
 43
10.0
 44
1.0
 47
0.1
 48
0.1
 73
     0
 77
     1
 78
     8
 79
     2
140
3.5
141
0.0
143
0.0393701
146
0.71
147
1.5
176
   256
177
   256
178
     2
271
     2
272
     3
274
     4
283
     0
284
     8
288
     1
289
     0
340
11
371
    -1
372
    -1
1001
ACAD_DSTYLE_DIMARC_LENGTH_SYMBOL
1070
   379
1070
     1
  0
DIMSTYLE
105
BBA
330
A
100
AcDbSymbolTableRecord
100
AcDbDimStyleTableRecord
  2
AM_ISO$4
 70
     0
  4
"
 41
2.5
 42
1.0
 43
10.0
 44
1.0
 47
0.1
 48
0.1
 73
     0
 77
     1
 78
     8
 79
     2
140
3.5
141
0.0
143
0.0393701
146
0.71
147
1.5
176
   256
177
   256
178
     2
271
     2
272
     3
274
     4
283
     0
284
     8
288
     1
289
     0
340
11
371
    -1
372
    -1
1001
ACAD_DSTYLE_DIMARC_LENGTH_SYMBOL
1070
   379
1070
     1
  0
DIMSTYLE
105
BBB
330
A
100
AcDbSymbolTableRecord
100
AcDbDimStyleTableRecord
  2
AM_ISO$6
 70
     0
  4
"
 41
2.5
 42
1.0
 43
10.0
 44
1.0
 47
0.1
 48
0.1
 73
     0
 74
     0
 78
     8
 79
     2
140
3.5
141
0.0
143
0.0393701
146
0.71
147
1.5
172
     1
176
   256
177
   256
178
     2
271
     2
272
     3
274
     4
283
     0
284
     8
340
11
371
    -1
372
    -1
1001
ACAD_DSTYLE_DIMARC_LENGTH_SYMBOL
1070
   379
1070
     1
  0
DIMSTYLE
105
BBC
330
A
100
AcDbSymbolTableRecord
100
AcDbDimStyleTableRecord
  2
AM_ISO$7
 70
     0
  4
"
 41
2.5
 42
1.0
 43
10.0
 44
1.0
 47
0.1
 48
0.1
 73
     0
 74
     0
 77
     1
 78
     8
 79
     2
140
5.0
141
0.0
143
0.0393701
146
0.71
147
1.5
172
     1
176
   256
177
   256
178
     2
271
     2
272
     3
274
     4
283
     0
284
     8
340
11
371
    -1
372
    -1
1001
ACAD_DSTYLE_DIMARC_LENGTH_SYMBOL
1070
   379
1070
     1
  0
DIMSTYLE
105
BBD
330
A
100
AcDbSymbolTableRecord
100
AcDbDimStyleTableRecord
  2
AM_ISO$SF
 70
     0
  4
"
 41
2.5
 42
1.0
 43
10.0
 44
1.0
 47
0.1
 48
0.1
 73
     0
 74
     0
 75
     1
 76
     1
 77
     1
 78
     8
 79
     2
140
3.5
141
0.0
143
0.0393701
146
0.71
147
1.5
172
     1
176
   256
177
   256
178
     2
271
     2
272
     3
274
     4
283
     0
284
     8
340
11
371
    -1
372
    -1
1001
ACAD_DSTYLE_DIMARC_LENGTH_SYMBOL
1070
   379
1070
     1
  0
DIMSTYLE
105
BBE
330
A
100
AcDbSymbolTableRecord
100
AcDbDimStyleTableRecord
  2
AM_ISO$SH
 70
     0
  4
"
 41
2.5
 42
1.0
 43
10.0
 44
1.0
 47
0.1
 48
0.1
 73
     0
 74
     0
 75
     1
 76
     1
 77
     1
 78
     8
 79
     2
140
3.5
141
0.0
143
0.0393701
144
2.0
146
0.71
147
1.5
172
     1
173
     1
176
   256
177
   256
178
     2
271
     2
272
     3
274
     4
283
     0
284
     8
340
11
343
8A
371
    -1
372
    -1
1001
ACAD_DSTYLE_DIMARC_LENGTH_SYMBOL
1070
   379
1070
     1
  0
DIMSTYLE
105
17CA
330
A
100
AcDbSymbolTableRecord
100
AcDbDimStyleTableRecord
  2
ISO-25
 70
     0
 41
2.5
 42
0.625
 43
3.75
 44
1.25
 73
     0
 74
     0
 77
     1
 78
     8
140
2.5
141
2.5
143
0.03937007874016
147
0.625
171
     3
172
     1
271
     2
272
     2
274
     3
283
     0
284
     8
340
11
  0
DIMSTYLE
105
26C6
330
A
100
AcDbSymbolTableRecord
100
AcDbDimStyleTableRecord
  2
AM_JIS$2
 70
     0
  4
"
 41
2.5
 42
1.0
 43
10.0
 44
1.0
 47
0.1
 48
0.1
 73
     0
 74
     0
 77
     3
 78
     8
 79
     2
140
3.5
141
0.0
143
0.0393701
146
0.71
147
1.5
172
     1
176
   256
177
   256
178
     2
271
     2
272
     3
274
     4
283
     0
284
     8
340
11
341
84
342
84
343
84
344
84
371
    -1
372
    -1
1001
ACAD_DSTYLE_DIMBREAK
1070
   391
1040
3.75
1001
ACAD_DSTYLE_DIMJAG
1070
   388
1040
1.5
1001
ACAD_DSTYLE_DIMARC_LENGTH_SYMBOL
1070
   379
1070
     1
1001
ACAD_DSTYLE_DIM_LINETYPE
1070
   380
1005
14
1001
ACAD_DSTYLE_DIM_EXT1_LINETYPE
1070
   381
1005
14
1001
ACAD_DSTYLE_DIM_EXT2_LINETYPE
1070
   382
1005
14
  0
DIMSTYLE
105
4C4D
330
A
100
AcDbSymbolTableRecord
100
AcDbDimStyleTableRecord
  2
AM_ANSI
 70
     0
  4
mm
 40
0.2
 41
0.1
 42
0.05
 43
0.5
 44
0.1
 47
0.1
 48
0.1
 78
     7
 79
     2
140
0.12
141
0.0
146
0.71
147
0.06
176
   256
177
   256
178
     2
274
     4
284
     7
340
11
371
    -1
372
    -1
  0
ENDTAB
  0
TABLE
  2
BLOCK_RECORD
  5
1
330
0
100
AcDbSymbolTable
 70
    17
  0
BLOCK_RECORD
  5
1F
102
{ACAD_XDICTIONARY
360
C9
102
}
330
1
100
AcDbSymbolTableRecord
100
AcDbBlockTableRecord
  2
*Model_Space
340
22
  0
BLOCK_RECORD
  5
1B
330
1
100
AcDbSymbolTableRecord
100
AcDbBlockTableRecord
  2
*Paper_Space
340
1E
  0
BLOCK_RECORD
  5
23
330
1
100
AcDbSymbolTableRecord
100
AcDbBlockTableRecord
  2
*Paper_Space0
340
26
  0
BLOCK_RECORD
  5
84
330
1
100
AcDbSymbolTableRecord
100
AcDbBlockTableRecord
  2
_Open30
340
0
102
{BLKREFS
331
4AD6
331
4AD7
331
4CBB
331
4CBC
331
4DFA
331
4DFB
102
}
  0
BLOCK_RECORD
  5
8A
330
1
100
AcDbSymbolTableRecord
100
AcDbBlockTableRecord
  2
GENAXEH
340
0
  0
BLOCK_RECORD
  5
BBF
102
{ACAD_XDICTIONARY
360
BCD
102
}
330
1
100
AcDbSymbolTableRecord
100
AcDbBlockTableRecord
  2
AA-3-BW
340
0
  0
BLOCK_RECORD
  5
176D
102
{ACAD_XDICTIONARY
360
179B
102
}
330
1
100
AcDbSymbolTableRecord
100
AcDbBlockTableRecord
  2
ASO1
340
0
  0
BLOCK_RECORD
  5
17A8
330
1
100
AcDbSymbolTableRecord
100
AcDbBlockTableRecord
  2
A$C2D292097
340
0
  0
BLOCK_RECORD
  5
17BD
102
{ACAD_XDICTIONARY
360
17BE
102
}
330
1
100
AcDbSymbolTableRecord
100
AcDbBlockTableRecord
  2
A$C676C2959
340
0
1001
ACAD
1000
DesignCenter Data
1002
{
1070
     1
1070
     4
1002
}
  0
BLOCK_RECORD
  5
17C2
102
{ACAD_XDICTIONARY
360
17C3
102
}
330
1
100
AcDbSymbolTableRecord
100
AcDbBlockTableRecord
  2
A$C1FED437B
340
0
1001
ACAD
1000
DesignCenter Data
1002
{
1070
     1
1070
     4
1002
}
  0
BLOCK_RECORD
  5
17CB
102
{ACAD_XDICTIONARY
360
369B
102
}
330
1
100
AcDbSymbolTableRecord
100
AcDbBlockTableRecord
  2
ASO-A
340
0
1001
AcDbDynamicBlockGUID
1000
{FB7BDBCE-28EF-4AAD-9215-68DCA700C6E0}
  0
BLOCK_RECORD
  5
2338
102
{ACAD_XDICTIONARY
360
2346
102
}
330
1
100
AcDbSymbolTableRecord
100
AcDbBlockTableRecord
  2
AA-4-T
340
0
  0
BLOCK_RECORD
  5
26BB
102
{ACAD_XDICTIONARY
360
26C1
102
}
330
1
100
AcDbSymbolTableRecord
100
AcDbBlockTableRecord
  2
A$C5E5C0B32
340
0
1001
ACAD
1000
DesignCenter Data
1002
{
1070
     1
1070
     4
1002
}
  0
BLOCK_RECORD
  5
33CC
102
{ACAD_XDICTIONARY
360
33CE
102
}
330
1
100
AcDbSymbolTableRecord
100
AcDbBlockTableRecord
  2
A$C092A22FE
340
0
1001
ACAD
1000
DesignCenter Data
1002
{
1070
     1
1070
     4
1002
}
  0
BLOCK_RECORD
  5
4497
330
1
100
AcDbSymbolTableRecord
100
AcDbBlockTableRecord
  2
*D13
340
0
  0
BLOCK_RECORD
  5
44A5
330
1
100
AcDbSymbolTableRecord
100
AcDbBlockTableRecord
  2
*D14
340
0
  0
BLOCK_RECORD
  5
44B1
330
1
100
AcDbSymbolTableRecord
100
AcDbBlockTableRecord
  2
*D15
340
0
  0
ENDTAB
  0
ENDSEC
  0
SECTION
  2
BLOCKS
  0
BLOCK
  5
20
330
1F
100
AcDbEntity
  8
0
100
AcDbBlockBegin
  2
*Model_Space
 70
     0
 10
0.0
 20
0.0
 30
0.0
  3
*Model_Space
  1

  0
ENDBLK
  5
21
330
1F
100
AcDbEntity
  8
0
100
AcDbBlockEnd
  0
BLOCK
  5
1C
330
1B
100
AcDbEntity
 67
     1
  8
0
100
AcDbBlockBegin
  2
*Paper_Space
 70
     0
 10
0.0
 20
0.0
 30
0.0
  3
*Paper_Space
  1

  0
ENDBLK
  5
1D
330
1B
100
AcDbEntity
 67
     1
  8
0
100
AcDbBlockEnd
  0
BLOCK
  5
24
330
23
100
AcDbEntity
 67
     1
  8
0
100
AcDbBlockBegin
  2
*Paper_Space0
 70
     0
 10
0.0
 20
0.0
 30
0.0
  3
*Paper_Space0
  1

  0
ENDBLK
  5
25
330
23
100
AcDbEntity
 67
     1
  8
0
100
AcDbBlockEnd
  0
BLOCK
  5
88
330
84
100
AcDbEntity
  8
0
100
AcDbBlockBegin
  2
_Open30
 70
     0
 10
0.0
 20
0.0
 30
0.0
  3
_Open30
  1

  0
LINE
  5
85
330
84
100
AcDbEntity
  8
0
 62
     0
370
    -2
100
AcDbLine
 10
-1.0
 20
0.26794919
 30
0.0
 11
0.0
 21
0.0
 31
0.0
  0
LINE
  5
86
330
84
100
AcDbEntity
  8
0
 62
     0
370
    -2
100
AcDbLine
 10
0.0
 20
0.0
 30
0.0
 11
-1.0
 21
-0.26794919
 31
0.0
  0
LINE
  5
87
330
84
100
AcDbEntity
  8
0
 62
     0
370
    -2
100
AcDbLine
 10
0.0
 20
0.0
 30
0.0
 11
-1.0
 21
0.0
 31
0.0
  0
ENDBLK
  5
89
330
84
100
AcDbEntity
  8
0
100
AcDbBlockEnd
  0
BLOCK
  5
8C
330
8A
100
AcDbEntity
  8
0
100
AcDbBlockBegin
  2
GENAXEH
 70
     0
 10
0.0
 20
0.0
 30
0.0
  3
GENAXEH
  1

  0
LINE
  5
8B
330
8A
100
AcDbEntity
  8
0
100
AcDbLine
 10
-1.0
 20
0.0
 30
0.0
 11
1.0
 21
0.0
 31
0.0
  0
ENDBLK
  5
8D
330
8A
100
AcDbEntity
  8
0
100
AcDbBlockEnd
  0
BLOCK
  5
BCE
330
BBF
100
AcDbEntity
  8
0
100
AcDbBlockBegin
  2
AA-3-BW
 70
     0
 10
0.0
 20
0.0
 30
0.0
  3
AA-3-BW
  1

  0
LWPOLYLINE
  5
BC0
330
BBF
100
AcDbEntity
  8
AM_BOR
 62
   231
100
AcDbPolyline
 90
        4
 70
     1
 43
0.0
 10
11.31798825946299
 20
285.680442839147
 10
11.31798825946292
 20
11.31955716085312
 10
408.7322739737486
 20
11.31955716085296
 10
408.7322739737486
 20
285.680442839147
1001
GENIUS_GENREC_14
1002
{
1000
PYDIR
1011
408.7322739737486
1021
285.680442839147
1031
0.0
1002
}
1002
{
1000
PXDIR
1011
11.31798825946292
1021
11.31955716085312
1031
0.0
1002
}
1002
{
1000
PORI
1011
11.31798825946299
1021
285.680442839147
1031
0.0
1002
}
1002
{
1000
PINS
1011
11.31798825946299
1021
285.680442839147
1031
0.0
1002
}
1002
{
1000
HVAL
1000
281
1002
}
1002
{
1000
H
1070
     2
1002
}
1002
{
1000
WVAL
1000
183
1002
}
1002
{
1000
W
1070
     2
1002
}
1002
{
1000
C
1070
     1
1002
}
1001
GENIUS_GENODEF_13
1002
{
1000
HIER
1070
     0
1002
}
1002
{
1000
MANEDIT
1070
     0
1002
}
1002
{
1000
NOSEL
1070
     0
1002
}
1002
{
1000
BEHIND
1070
     0
1002
}
1002
{
1000
REACTOR
1002
}
1001
GENIUS_GENOBJ-N-REC_13
1002
{
1000
OWNER
1000
GEN
1002
}
  0
TEXT
  5
BC1
330
BBF
100
AcDbEntity
  8
AM_BOR
 60
     1
100
AcDbText
 10
420.0428571428571
 20
296.9999999999998
 30
0.0
 40
5.0
  1
!GENTITLE-MAX
100
AcDbText
  0
LINE
  5
BC2
330
BBF
100
AcDbEntity
  8
AM_BOR
100
AcDbLine
 10
0.0000000000000799
 20
297.0
 30
0.0
 11
0.0000000000000799
 21
275.7857142857142
 31
0.0
1001
GENIUS_GENREC_14
1002
{
1000
PYDIR
1011
420.0428571428571
1021
296.9999999999998
1031
0.0
1002
}
1002
{
1000
PXDIR
1011
0.0
1021
0.0
1031
0.0
1002
}
1002
{
1000
PORI
1011
0.0000000000000799
1021
297.0
1031
0.0
1002
}
1002
{
1000
PINS
1011
0.0000000000000799
1021
297.0
1031
0.0
1002
}
1002
{
1000
HVAL
1000
297
1002
}
1002
{
1000
H
1070
     2
1002
}
1002
{
1000
WVAL
1000
210
1002
}
1002
{
1000
W
1070
     2
1002
}
1002
{
1000
C
1070
     1
1002
}
1001
GENIUS_GENODEF_13
1002
{
1000
HIER
1070
     0
1002
}
1002
{
1000
MANEDIT
1070
     0
1002
}
1002
{
1000
NOSEL
1070
     0
1002
}
1002
{
1000
BEHIND
1070
     0
1002
}
1002
{
1000
REACTOR
1002
}
1001
GENIUS_GENOBJ-N-REC_13
1002
{
1000
OWNER
1000
GEN
1002
}
  0
LINE
  5
BC3
330
BBF
100
AcDbEntity
  8
AM_BOR
100
AcDbLine
 10
0.0
 20
0.0
 30
0.0
 11
21.21428571428571
 21
0.0
 31
0.0
1001
GENIUS_GENREC_14
1002
{
1000
PYDIR
1011
420.0428571428571
1021
296.9999999999998
1031
0.0
1002
}
1002
{
1000
PXDIR
1011
0.0
1021
0.0
1031
0.0
1002
}
1002
{
1000
PORI
1011
0.0000000000000799
1021
297.0
1031
0.0
1002
}
1002
{
1000
PINS
1011
0.0000000000000799
1021
297.0
1031
0.0
1002
}
1002
{
1000
HVAL
1000
297
1002
}
1002
{
1000
H
1070
     2
1002
}
1002
{
1000
WVAL
1000
210
1002
}
1002
{
1000
W
1070
     2
1002
}
1002
{
1000
C
1070
     1
1002
}
1001
GENIUS_GENODEF_13
1002
{
1000
HIER
1070
     0
1002
}
1002
{
1000
MANEDIT
1070
     0
1002
}
1002
{
1000
NOSEL
1070
     0
1002
}
1002
{
1000
BEHIND
1070
     0
1002
}
1002
{
1000
REACTOR
1002
}
1001
GENIUS_GENOBJ-N-REC_13
1002
{
1000
OWNER
1000
GEN
1002
}
  0
LINE
  5
BC4
330
BBF
100
AcDbEntity
  8
AM_BOR
100
AcDbLine
 10
420.0428571428571
 20
-0.0000000000000799
 30
0.0
 11
420.0428571428571
 21
21.21428571428563
 31
0.0
1001
GENIUS_GENREC_14
1002
{
1000
PYDIR
1011
420.0428571428571
1021
296.9999999999998
1031
0.0
1002
}
1002
{
1000
PXDIR
1011
0.0
1021
0.0
1031
0.0
1002
}
1002
{
1000
PORI
1011
0.0000000000000799
1021
297.0
1031
0.0
1002
}
1002
{
1000
PINS
1011
0.0000000000000799
1021
297.0
1031
0.0
1002
}
1002
{
1000
HVAL
1000
297
1002
}
1002
{
1000
H
1070
     2
1002
}
1002
{
1000
WVAL
1000
210
1002
}
1002
{
1000
W
1070
     2
1002
}
1002
{
1000
C
1070
     1
1002
}
1001
GENIUS_GENODEF_13
1002
{
1000
HIER
1070
     0
1002
}
1002
{
1000
MANEDIT
1070
     0
1002
}
1002
{
1000
NOSEL
1070
     0
1002
}
1002
{
1000
BEHIND
1070
     0
1002
}
1002
{
1000
REACTOR
1002
}
1001
GENIUS_GENOBJ-N-REC_13
1002
{
1000
OWNER
1000
GEN
1002
}
  0
LINE
  5
BC5
330
BBF
100
AcDbEntity
  8
AM_BOR
100
AcDbLine
 10
420.0428571428571
 20
296.9999999999998
 30
0.0
 11
398.8285714285715
 21
296.9999999999998
 31
0.0
1001
GENIUS_GENREC_14
1002
{
1000
PYDIR
1011
420.0428571428571
1021
296.9999999999998
1031
0.0
1002
}
1002
{
1000
PXDIR
1011
0.0
1021
0.0
1031
0.0
1002
}
1002
{
1000
PORI
1011
0.0000000000000799
1021
297.0
1031
0.0
1002
}
1002
{
1000
PINS
1011
0.0000000000000799
1021
297.0
1031
0.0
1002
}
1002
{
1000
HVAL
1000
297
1002
}
1002
{
1000
H
1070
     2
1002
}
1002
{
1000
WVAL
1000
210
1002
}
1002
{
1000
W
1070
     2
1002
}
1002
{
1000
C
1070
     1
1002
}
1001
GENIUS_GENODEF_13
1002
{
1000
HIER
1070
     0
1002
}
1002
{
1000
MANEDIT
1070
     0
1002
}
1002
{
1000
NOSEL
1070
     0
1002
}
1002
{
1000
BEHIND
1070
     0
1002
}
1002
{
1000
REACTOR
1002
}
1001
GENIUS_GENOBJ-N-REC_13
1002
{
1000
OWNER
1000
GEN
1002
}
  0
LINE
  5
BC6
330
BBF
100
AcDbEntity
  8
AM_BOR
100
AcDbLine
 10
21.2142857142858
 20
297.0
 30
0.0
 11
0.0000000000000799
 21
297.0
 31
0.0
1001
GENIUS_GENREC_14
1002
{
1000
PYDIR
1011
420.0428571428571
1021
296.9999999999998
1031
0.0
1002
}
1002
{
1000
PXDIR
1011
0.0
1021
0.0
1031
0.0
1002
}
1002
{
1000
PORI
1011
0.0000000000000799
1021
297.0
1031
0.0
1002
}
1002
{
1000
PINS
1011
0.0000000000000799
1021
297.0
1031
0.0
1002
}
1002
{
1000
HVAL
1000
297
1002
}
1002
{
1000
H
1070
     2
1002
}
1002
{
1000
WVAL
1000
210
1002
}
1002
{
1000
W
1070
     2
1002
}
1002
{
1000
C
1070
     1
1002
}
1001
GENIUS_GENODEF_13
1002
{
1000
HIER
1070
     0
1002
}
1002
{
1000
MANEDIT
1070
     0
1002
}
1002
{
1000
NOSEL
1070
     0
1002
}
1002
{
1000
BEHIND
1070
     0
1002
}
1002
{
1000
REACTOR
1002
}
1001
GENIUS_GENOBJ-N-REC_13
1002
{
1000
OWNER
1000
GEN
1002
}
  0
LINE
  5
BC7
330
BBF
100
AcDbEntity
  8
AM_BOR
100
AcDbLine
 10
420.0428571428571
 20
275.7857142857141
 30
0.0
 11
420.0428571428571
 21
296.9999999999998
 31
0.0
1001
GENIUS_GENREC_14
1002
{
1000
PYDIR
1011
420.0428571428571
1021
296.9999999999998
1031
0.0
1002
}
1002
{
1000
PXDIR
1011
0.0
1021
0.0
1031
0.0
1002
}
1002
{
1000
PORI
1011
0.0000000000000799
1021
297.0
1031
0.0
1002
}
1002
{
1000
PINS
1011
0.0000000000000799
1021
297.0
1031
0.0
1002
}
1002
{
1000
HVAL
1000
297
1002
}
1002
{
1000
H
1070
     2
1002
}
1002
{
1000
WVAL
1000
210
1002
}
1002
{
1000
W
1070
     2
1002
}
1002
{
1000
C
1070
     1
1002
}
1001
GENIUS_GENODEF_13
1002
{
1000
HIER
1070
     0
1002
}
1002
{
1000
MANEDIT
1070
     0
1002
}
1002
{
1000
NOSEL
1070
     0
1002
}
1002
{
1000
BEHIND
1070
     0
1002
}
1002
{
1000
REACTOR
1002
}
1001
GENIUS_GENOBJ-N-REC_13
1002
{
1000
OWNER
1000
GEN
1002
}
  0
LINE
  5
BC8
330
BBF
100
AcDbEntity
  8
AM_BOR
100
AcDbLine
 10
398.8285714285715
 20
-0.0000000000000799
 30
0.0
 11
420.0428571428571
 21
-0.0000000000000799
 31
0.0
1001
GENIUS_GENREC_14
1002
{
1000
PYDIR
1011
420.0428571428571
1021
296.9999999999998
1031
0.0
1002
}
1002
{
1000
PXDIR
1011
0.0
1021
0.0
1031
0.0
1002
}
1002
{
1000
PORI
1011
0.0000000000000799
1021
297.0
1031
0.0
1002
}
1002
{
1000
PINS
1011
0.0000000000000799
1021
297.0
1031
0.0
1002
}
1002
{
1000
HVAL
1000
297
1002
}
1002
{
1000
H
1070
     2
1002
}
1002
{
1000
WVAL
1000
210
1002
}
1002
{
1000
W
1070
     2
1002
}
1002
{
1000
C
1070
     1
1002
}
1001
GENIUS_GENODEF_13
1002
{
1000
HIER
1070
     0
1002
}
1002
{
1000
MANEDIT
1070
     0
1002
}
1002
{
1000
NOSEL
1070
     0
1002
}
1002
{
1000
BEHIND
1070
     0
1002
}
1002
{
1000
REACTOR
1002
}
1001
GENIUS_GENOBJ-N-REC_13
1002
{
1000
OWNER
1000
GEN
1002
}
  0
LINE
  5
BC9
330
BBF
100
AcDbEntity
  8
AM_BOR
100
AcDbLine
 10
0.0
 20
21.21428571428571
 30
0.0
 11
0.0
 21
0.0
 31
0.0
1001
GENIUS_GENREC_14
1002
{
1000
PYDIR
1011
420.0428571428571
1021
296.9999999999998
1031
0.0
1002
}
1002
{
1000
PXDIR
1011
0.0
1021
0.0
1031
0.0
1002
}
1002
{
1000
PORI
1011
0.0000000000000799
1021
297.0
1031
0.0
1002
}
1002
{
1000
PINS
1011
0.0000000000000799
1021
297.0
1031
0.0
1002
}
1002
{
1000
HVAL
1000
297
1002
}
1002
{
1000
H
1070
     2
1002
}
1002
{
1000
WVAL
1000
210
1002
}
1002
{
1000
W
1070
     2
1002
}
1002
{
1000
C
1070
     1
1002
}
1001
GENIUS_GENODEF_13
1002
{
1000
HIER
1070
     0
1002
}
1002
{
1000
MANEDIT
1070
     0
1002
}
1002
{
1000
NOSEL
1070
     0
1002
}
1002
{
1000
BEHIND
1070
     0
1002
}
1002
{
1000
REACTOR
1002
}
1001
GENIUS_GENOBJ-N-REC_13
1002
{
1000
OWNER
1000
GEN
1002
}
  0
TEXT
  5
BCA
330
BBF
100
AcDbEntity
  8
AM_0
 60
     1
100
AcDbText
 10
408.7322739737486
 20
285.680442839147
 30
0.0
 40
5.0
  1
!GENTITLE-RU
100
AcDbText
  0
TEXT
  5
BCB
330
BBF
100
AcDbEntity
  8
AM_0
 60
     1
100
AcDbText
 10
16.00523592247285
 20
16.0074545709034
 30
0.0
 40
5.0
  1
!GENTITLE-LL
100
AcDbText
  0
TEXT
  5
BCC
330
BBF
100
AcDbEntity
  8
AM_0
 60
     1
100
AcDbText
 10
408.7322739737486
 20
11.31955716085296
 30
0.0
 40
5.0
  1
!GENTITLE-INSERT
100
AcDbText
  0
ENDBLK
  5
BCF
330
BBF
100
AcDbEntity
  8
0
100
AcDbBlockEnd
  0
BLOCK
  5
179C
330
176D
100
AcDbEntity
  8
0
100
AcDbBlockBegin
  2
ASO1
 70
     2
 10
0.0
 20
0.0
 30
0.0
  3
ASO1
  1

  0
LINE
  5
176E
330
176D
100
AcDbEntity
  8
AM_BOR
 62
   211
100
AcDbLine
 10
-110.0
 20
0.0
 30
0.0
 11
0.0
 21
0.0
 31
0.0
1001
GENIUS_GENREC_14
1002
{
1000
PYDIR
1011
-110.0
1021
40.0
1031
0.0
1002
}
1002
{
1000
PXDIR
1011
0.0
1021
0.0
1031
0.0
1002
}
1002
{
1000
PORI
1011
-110.0
1021
0.0
1031
0.0
1002
}
1002
{
1000
PINS
1011
-110.0
1021
0.0
1031
0.0
1002
}
1002
{
1000
HVAL
1000
40
1002
}
1002
{
1000
H
1070
     2
1002
}
1002
{
1000
WVAL
1000
110
1002
}
1002
{
1000
W
1070
     2
1002
}
1002
{
1000
C
1070
     1
1002
}
1001
GENIUS_GENODEF_13
1002
{
1000
HIER
1070
     0
1002
}
1002
{
1000
MANEDIT
1070
     0
1002
}
1002
{
1000
NOSEL
1070
     0
1002
}
1002
{
1000
BEHIND
1070
     0
1002
}
1002
{
1000
REACTOR
1002
}
1001
GENIUS_GENOBJ-N-REC_13
1002
{
1000
OWNER
1000
GEN
1002
}
  0
LINE
  5
176F
330
176D
100
AcDbEntity
  8
AM_BOR
 62
   211
100
AcDbLine
 10
0.0
 20
0.0
 30
0.0
 11
0.0
 21
40.0
 31
0.0
1001
GENIUS_GENREC_14
1002
{
1000
PYDIR
1011
-110.0
1021
40.0
1031
0.0
1002
}
1002
{
1000
PXDIR
1011
0.0
1021
0.0
1031
0.0
1002
}
1002
{
1000
PORI
1011
-110.0
1021
0.0
1031
0.0
1002
}
1002
{
1000
PINS
1011
-110.0
1021
0.0
1031
0.0
1002
}
1002
{
1000
HVAL
1000
40
1002
}
1002
{
1000
H
1070
     2
1002
}
1002
{
1000
WVAL
1000
110
1002
}
1002
{
1000
W
1070
     2
1002
}
1002
{
1000
C
1070
     1
1002
}
1001
GENIUS_GENODEF_13
1002
{
1000
HIER
1070
     0
1002
}
1002
{
1000
MANEDIT
1070
     0
1002
}
1002
{
1000
NOSEL
1070
     0
1002
}
1002
{
1000
BEHIND
1070
     0
1002
}
1002
{
1000
REACTOR
1002
}
1001
GENIUS_GENOBJ-N-REC_13
1002
{
1000
OWNER
1000
GEN
1002
}
  0
LINE
  5
1770
330
176D
100
AcDbEntity
  8
AM_BOR
 62
   211
100
AcDbLine
 10
0.0
 20
40.0
 30
0.0
 11
-110.0
 21
40.00000000000001
 31
0.0
1001
GENIUS_GENREC_14
1002
{
1000
PYDIR
1011
-110.0
1021
40.0
1031
0.0
1002
}
1002
{
1000
PXDIR
1011
0.0
1021
0.0
1031
0.0
1002
}
1002
{
1000
PORI
1011
-110.0
1021
0.0
1031
0.0
1002
}
1002
{
1000
PINS
1011
-110.0
1021
0.0
1031
0.0
1002
}
1002
{
1000
HVAL
1000
40
1002
}
1002
{
1000
H
1070
     2
1002
}
1002
{
1000
WVAL
1000
110
1002
}
1002
{
1000
W
1070
     2
1002
}
1002
{
1000
C
1070
     1
1002
}
1001
GENIUS_GENODEF_13
1002
{
1000
HIER
1070
     0
1002
}
1002
{
1000
MANEDIT
1070
     0
1002
}
1002
{
1000
NOSEL
1070
     0
1002
}
1002
{
1000
BEHIND
1070
     0
1002
}
1002
{
1000
REACTOR
1002
}
1001
GENIUS_GENOBJ-N-REC_13
1002
{
1000
OWNER
1000
GEN
1002
}
  0
LINE
  5
1771
330
176D
100
AcDbEntity
  8
AM_BOR
 62
   211
100
AcDbLine
 10
-110.0
 20
40.00000000000001
 30
0.0
 11
-110.0
 21
0.0
 31
0.0
1001
GENIUS_GENREC_14
1002
{
1000
PYDIR
1011
-110.0
1021
40.0
1031
0.0
1002
}
1002
{
1000
PXDIR
1011
0.0
1021
0.0
1031
0.0
1002
}
1002
{
1000
PORI
1011
-110.0
1021
0.0
1031
0.0
1002
}
1002
{
1000
PINS
1011
-110.0
1021
0.0
1031
0.0
1002
}
1002
{
1000
HVAL
1000
40
1002
}
1002
{
1000
H
1070
     2
1002
}
1002
{
1000
WVAL
1000
110
1002
}
1002
{
1000
W
1070
     2
1002
}
1002
{
1000
C
1070
     1
1002
}
1001
GENIUS_GENODEF_13
1002
{
1000
HIER
1070
     0
1002
}
1002
{
1000
MANEDIT
1070
     0
1002
}
1002
{
1000
NOSEL
1070
     0
1002
}
1002
{
1000
BEHIND
1070
     0
1002
}
1002
{
1000
REACTOR
1002
}
1001
GENIUS_GENOBJ-N-REC_13
1002
{
1000
OWNER
1000
GEN
1002
}
  0
LINE
  5
1772
330
176D
100
AcDbEntity
  8
AM_BOR
 62
     5
100
AcDbLine
 10
-60.0
 20
9.999999999999992
 30
0.0
 11
0.0
 21
10.0
 31
0.0
1001
GENIUS_GENREC_14
1002
{
1000
PYDIR
1011
-110.0
1021
40.0
1031
0.0
1002
}
1002
{
1000
PXDIR
1011
0.0
1021
0.0
1031
0.0
1002
}
1002
{
1000
PORI
1011
-110.0
1021
0.0
1031
0.0
1002
}
1002
{
1000
PINS
1011
-110.0
1021
0.0
1031
0.0
1002
}
1002
{
1000
HVAL
1000
40
1002
}
1002
{
1000
H
1070
     2
1002
}
1002
{
1000
WVAL
1000
110
1002
}
1002
{
1000
W
1070
     2
1002
}
1002
{
1000
C
1070
     1
1002
}
  0
LINE
  5
1773
330
176D
100
AcDbEntity
  8
AM_BOR
 62
     5
100
AcDbLine
 10
-110.0
 20
19.0
 30
0.0
 11
0.0
 21
19.0
 31
0.0
1001
GENIUS_GENREC_14
1002
{
1000
PYDIR
1011
-110.0
1021
40.0
1031
0.0
1002
}
1002
{
1000
PXDIR
1011
0.0
1021
0.0
1031
0.0
1002
}
1002
{
1000
PORI
1011
-110.0
1021
0.0
1031
0.0
1002
}
1002
{
1000
PINS
1011
-110.0
1021
0.0
1031
0.0
1002
}
1002
{
1000
HVAL
1000
40
1002
}
1002
{
1000
H
1070
     2
1002
}
1002
{
1000
WVAL
1000
110
1002
}
1002
{
1000
W
1070
     2
1002
}
1002
{
1000
C
1070
     1
1002
}
1001
GENIUS_GENODEF_13
1002
{
1000
HIER
1070
     0
1002
}
1002
{
1000
MANEDIT
1070
     0
1002
}
1002
{
1000
NOSEL
1070
     0
1002
}
1002
{
1000
BEHIND
1070
     0
1002
}
1002
{
1000
REACTOR
1002
}
1001
GENIUS_GENOBJ-N-REC_13
1002
{
1000
OWNER
1000
GEN
1002
}
  0
LINE
  5
1774
330
176D
100
AcDbEntity
  8
AM_BOR
 62
     5
100
AcDbLine
 10
-110.0
 20
26.0
 30
0.0
 11
0.0
 21
26.0
 31
0.0
1001
GENIUS_GENREC_14
1002
{
1000
PYDIR
1011
-110.0
1021
40.0
1031
0.0
1002
}
1002
{
1000
PXDIR
1011
0.0
1021
0.0
1031
0.0
1002
}
1002
{
1000
PORI
1011
-110.0
1021
0.0
1031
0.0
1002
}
1002
{
1000
PINS
1011
-110.0
1021
0.0
1031
0.0
1002
}
1002
{
1000
HVAL
1000
40
1002
}
1002
{
1000
H
1070
     2
1002
}
1002
{
1000
WVAL
1000
110
1002
}
1002
{
1000
W
1070
     2
1002
}
1002
{
1000
C
1070
     1
1002
}
1001
GENIUS_GENODEF_13
1002
{
1000
HIER
1070
     0
1002
}
1002
{
1000
MANEDIT
1070
     0
1002
}
1002
{
1000
NOSEL
1070
     0
1002
}
1002
{
1000
BEHIND
1070
     0
1002
}
1002
{
1000
REACTOR
1002
}
1001
GENIUS_GENOBJ-N-REC_13
1002
{
1000
OWNER
1000
GEN
1002
}
  0
LINE
  5
1775
330
176D
100
AcDbEntity
  8
AM_BOR
 62
     5
100
AcDbLine
 10
-110.0
 20
33.0
 30
0.0
 11
0.0
 21
33.0
 31
0.0
1001
GENIUS_GENREC_14
1002
{
1000
PYDIR
1011
-110.0
1021
40.0
1031
0.0
1002
}
1002
{
1000
PXDIR
1011
0.0
1021
0.0
1031
0.0
1002
}
1002
{
1000
PORI
1011
-110.0
1021
0.0
1031
0.0
1002
}
1002
{
1000
PINS
1011
-110.0
1021
0.0
1031
0.0
1002
}
1002
{
1000
HVAL
1000
40
1002
}
1002
{
1000
H
1070
     2
1002
}
1002
{
1000
WVAL
1000
110
1002
}
1002
{
1000
W
1070
     2
1002
}
1002
{
1000
C
1070
     1
1002
}
1001
GENIUS_GENODEF_13
1002
{
1000
HIER
1070
     0
1002
}
1002
{
1000
MANEDIT
1070
     0
1002
}
1002
{
1000
NOSEL
1070
     0
1002
}
1002
{
1000
BEHIND
1070
     0
1002
}
1002
{
1000
REACTOR
1002
}
1001
GENIUS_GENOBJ-N-REC_13
1002
{
1000
OWNER
1000
GEN
1002
}
  0
LINE
  5
1776
330
176D
100
AcDbEntity
  8
AM_BOR
 62
     5
100
AcDbLine
 10
-85.0
 20
33.0
 30
0.0
 11
-85.0
 21
18.99999999999998
 31
0.0
1001
GENIUS_GENREC_14
1002
{
1000
PYDIR
1011
-110.0
1021
40.0
1031
0.0
1002
}
1002
{
1000
PXDIR
1011
0.0
1021
0.0
1031
0.0
1002
}
1002
{
1000
PORI
1011
-110.0
1021
0.0
1031
0.0
1002
}
1002
{
1000
PINS
1011
-110.0
1021
0.0
1031
0.0
1002
}
1002
{
1000
HVAL
1000
40
1002
}
1002
{
1000
H
1070
     2
1002
}
1002
{
1000
WVAL
1000
110
1002
}
1002
{
1000
W
1070
     2
1002
}
1002
{
1000
C
1070
     1
1002
}
1001
GENIUS_GENODEF_13
1002
{
1000
HIER
1070
     0
1002
}
1002
{
1000
MANEDIT
1070
     0
1002
}
1002
{
1000
NOSEL
1070
     0
1002
}
1002
{
1000
BEHIND
1070
     0
1002
}
1002
{
1000
REACTOR
1002
}
1001
GENIUS_GENOBJ-N-REC_13
1002
{
1000
OWNER
1000
GEN
1002
}
  0
LINE
  5
1777
330
176D
100
AcDbEntity
  8
AM_BOR
 62
     5
100
AcDbLine
 10
-60.0
 20
40.00000000000001
 30
0.0
 11
-60.0
 21
0.0
 31
0.0
1001
GENIUS_GENREC_14
1002
{
1000
PYDIR
1011
-110.0
1021
40.0
1031
0.0
1002
}
1002
{
1000
PXDIR
1011
0.0
1021
0.0
1031
0.0
1002
}
1002
{
1000
PORI
1011
-110.0
1021
0.0
1031
0.0
1002
}
1002
{
1000
PINS
1011
-110.0
1021
0.0
1031
0.0
1002
}
1002
{
1000
HVAL
1000
40
1002
}
1002
{
1000
H
1070
     2
1002
}
1002
{
1000
WVAL
1000
110
1002
}
1002
{
1000
W
1070
     2
1002
}
1002
{
1000
C
1070
     1
1002
}
1001
GENIUS_GENODEF_13
1002
{
1000
HIER
1070
     0
1002
}
1002
{
1000
MANEDIT
1070
     0
1002
}
1002
{
1000
NOSEL
1070
     0
1002
}
1002
{
1000
BEHIND
1070
     0
1002
}
1002
{
1000
REACTOR
1002
}
1001
GENIUS_GENOBJ-N-REC_13
1002
{
1000
OWNER
1000
GEN
1002
}
  0
LINE
  5
1778
330
176D
100
AcDbEntity
  8
AM_BOR
 62
     5
100
AcDbLine
 10
-20.0
 20
33.0
 30
0.0
 11
-20.0
 21
40.0
 31
0.0
1001
GENIUS_GENREC_14
1002
{
1000
PYDIR
1011
-110.0
1021
40.0
1031
0.0
1002
}
1002
{
1000
PXDIR
1011
0.0
1021
0.0
1031
0.0
1002
}
1002
{
1000
PORI
1011
-110.0
1021
0.0
1031
0.0
1002
}
1002
{
1000
PINS
1011
-110.0
1021
0.0
1031
0.0
1002
}
1002
{
1000
HVAL
1000
40
1002
}
1002
{
1000
H
1070
     2
1002
}
1002
{
1000
WVAL
1000
110
1002
}
1002
{
1000
W
1070
     2
1002
}
1002
{
1000
C
1070
     1
1002
}
1001
GENIUS_GENODEF_13
1002
{
1000
HIER
1070
     0
1002
}
1002
{
1000
MANEDIT
1070
     0
1002
}
1002
{
1000
NOSEL
1070
     0
1002
}
1002
{
1000
BEHIND
1070
     0
1002
}
1002
{
1000
REACTOR
1002
}
1001
GENIUS_GENOBJ-N-REC_13
1002
{
1000
OWNER
1000
GEN
1002
}
  0
LINE
  5
1779
330
176D
100
AcDbEntity
  8
AM_BOR
 62
     5
100
AcDbLine
 10
-40.0
 20
33.0
 30
0.0
 11
-40.0
 21
40.0
 31
0.0
1001
GENIUS_GENREC_14
1002
{
1000
PYDIR
1011
-110.0
1021
40.0
1031
0.0
1002
}
1002
{
1000
PXDIR
1011
0.0
1021
0.0
1031
0.0
1002
}
1002
{
1000
PORI
1011
-110.0
1021
0.0
1031
0.0
1002
}
1002
{
1000
PINS
1011
-110.0
1021
0.0
1031
0.0
1002
}
1002
{
1000
HVAL
1000
40
1002
}
1002
{
1000
H
1070
     2
1002
}
1002
{
1000
WVAL
1000
110
1002
}
1002
{
1000
W
1070
     2
1002
}
1002
{
1000
C
1070
     1
1002
}
1001
GENIUS_GENODEF_13
1002
{
1000
HIER
1070
     0
1002
}
1002
{
1000
MANEDIT
1070
     0
1002
}
1002
{
1000
NOSEL
1070
     0
1002
}
1002
{
1000
BEHIND
1070
     0
1002
}
1002
{
1000
REACTOR
1002
}
1001
GENIUS_GENOBJ-N-REC_13
1002
{
1000
OWNER
1000
GEN
1002
}
  0
LINE
  5
177A
330
176D
100
AcDbEntity
  8
AM_BOR
 62
     5
100
AcDbLine
 10
-80.0
 20
33.0
 30
0.0
 11
-80.0
 21
40.0
 31
0.0
1001
GENIUS_GENREC_14
1002
{
1000
PYDIR
1011
-110.0
1021
40.0
1031
0.0
1002
}
1002
{
1000
PXDIR
1011
0.0
1021
0.0
1031
0.0
1002
}
1002
{
1000
PORI
1011
-110.0
1021
0.0
1031
0.0
1002
}
1002
{
1000
PINS
1011
-110.0
1021
0.0
1031
0.0
1002
}
1002
{
1000
HVAL
1000
40
1002
}
1002
{
1000
H
1070
     2
1002
}
1002
{
1000
WVAL
1000
110
1002
}
1002
{
1000
W
1070
     2
1002
}
1002
{
1000
C
1070
     1
1002
}
1001
GENIUS_GENODEF_13
1002
{
1000
HIER
1070
     0
1002
}
1002
{
1000
MANEDIT
1070
     0
1002
}
1002
{
1000
NOSEL
1070
     0
1002
}
1002
{
1000
BEHIND
1070
     0
1002
}
1002
{
1000
REACTOR
1002
}
1001
GENIUS_GENOBJ-N-REC_13
1002
{
1000
OWNER
1000
GEN
1002
}
  0
TEXT
  5
177B
330
176D
100
AcDbEntity
  8
AM_BOR
 62
     2
100
AcDbText
 10
-57.4
 20
35.0
 30
0.0
 40
3.0
  1
単位 ｍｍ
 72
     4
 11
-50.0
 21
36.5
 31
0.0
100
AcDbText
  0
TEXT
  5
177C
330
176D
100
AcDbEntity
  8
AM_BOR
 62
     2
100
AcDbText
 10
-39.0
 20
35.0
 30
0.0
 40
3.0
  1
尺度
 41
0.9
 11
-39.0
 21
36.5
 31
0.0
100
AcDbText
 73
     2
  0
TEXT
  5
177D
330
176D
100
AcDbEntity
  8
AM_BOR
 62
     2
100
AcDbText
 10
-19.0
 20
35.0
 30
0.0
 40
3.0
  1
日付
 41
0.9
 11
-19.0
 21
36.5
 31
0.0
100
AcDbText
 73
     2
  0
TEXT
  5
177E
330
176D
100
AcDbEntity
  8
AM_BOR
 62
     2
100
AcDbText
 10
-75.75
 20
34.99999999999999
 30
0.0
 40
3.0
  1
第1角法
 72
     4
 11
-70.0
 21
36.49999999999999
 31
0.0
100
AcDbText
  0
TEXT
  5
177F
330
176D
100
AcDbEntity
  8
AM_BOR
 62
     2
100
AcDbText
 10
-59.0
 20
29.5
 30
0.0
 40
3.0
  1
材 質
 11
-59.0
 21
31.0
 31
0.0
100
AcDbText
 73
     2
  0
TEXT
  5
1780
330
176D
100
AcDbEntity
  8
AM_BOR
 62
     2
100
AcDbText
 10
-59.0
 20
22.5
 30
0.0
 40
3.0
  1
備 考
 11
-59.0
 21
24.0
 31
0.0
100
AcDbText
 73
     2
  0
TEXT
  5
1781
330
176D
100
AcDbEntity
  8
AM_BOR
 62
     2
100
AcDbText
 10
-59.0
 20
15.5
 30
0.0
 40
3.0
  1
品 名
 11
-59.0
 21
17.0
 31
0.0
100
AcDbText
 73
     2
  0
TEXT
  5
1782
330
176D
100
AcDbEntity
  8
AM_BOR
 62
     2
100
AcDbText
 10
-59.0
 20
6.499999999999992
 30
0.0
 40
3.0
  1
図 番
 11
-59.0
 21
7.999999999999992
 31
0.0
100
AcDbText
 73
     2
  0
TEXT
  5
1783
330
176D
100
AcDbEntity
  8
AM_BOR
 62
     2
100
AcDbText
 10
-109.0
 20
29.5
 30
0.0
 40
3.0
  1
承認
 11
-109.0
 21
31.0
 31
0.0
100
AcDbText
 73
     2
  0
TEXT
  5
1784
330
176D
100
AcDbEntity
  8
AM_BOR
 62
     2
100
AcDbText
 10
-109.0
 20
22.5
 30
0.0
 40
3.0
  1
設計
 11
-109.0
 21
24.0
 31
0.0
100
AcDbText
 73
     2
  0
TEXT
  5
1785
330
176D
100
AcDbEntity
  8
AM_BOR
 62
     2
100
AcDbText
 10
-84.0
 20
22.5
 30
0.0
 40
3.0
  1
製図
 11
-84.0
 21
24.0
 31
0.0
100
AcDbText
 73
     2
  0
TEXT
  5
1786
330
176D
100
AcDbEntity
  8
AM_BOR
 62
     2
100
AcDbText
 10
-84.0
 20
29.5
 30
0.0
 40
3.0
  1
検図
 11
-84.0
 21
31.0
 31
0.0
100
AcDbText
 73
     2
  0
ATTDEF
  5
1787
330
176D
100
AcDbEntity
  8
AM_BOR
100
AcDbText
 10
-49.48020001333898
 20
12.75
 30
0.0
 40
3.5
  1

 11
-49.48020001333898
 21
14.5
 31
0.0
100
AcDbAttributeDefinition
  3
品名
  2
HINMEI{14}
 70
     0
 74
     2
  0
ATTDEF
  5
1788
330
176D
100
AcDbEntity
  8
AM_BOR
100
AcDbText
 10
-49.48020001333898
 20
3.249999999999992
 30
0.0
 40
3.5
  1

 11
-49.48020001333898
 21
4.999999999999992
 31
0.0
100
AcDbAttributeDefinition
  3
図番
  2
ZUBAN{14}
 70
     0
 74
     2
  0
ATTDEF
  5
1789
330
176D
100
AcDbEntity
  8
AM_BOR
 62
     2
100
AcDbText
 10
-11.91705654530994
 20
35.0
 30
0.0
 40
3.0
  1

 41
0.8
 11
-11.91705654530994
 21
36.5
 31
0.0
100
AcDbAttributeDefinition
  3
日付
  2
GEN-TITLE-DAT{3.5}
 70
     0
 74
     2
  0
ATTDEF
  5
178A
330
176D
100
AcDbEntity
  8
AM_BOR
 62
     2
100
AcDbText
 10
-71.63012018472975
 20
20.00000000000001
 30
0.0
 40
3.0
  1
水 田
 72
     4
 11
-67.63012018472974
 21
21.50000000000002
 31
0.0
100
AcDbAttributeDefinition
  3
製図
  2
SEIZU
 70
     0
  0
ATTDEF
  5
178B
330
176D
100
AcDbEntity
  8
AM_BOR
 62
     2
100
AcDbText
 10
-31.91705654530995
 20
35.0
 30
0.0
 40
3.0
  1

 11
-31.91705654530995
 21
36.5
 31
0.0
100
AcDbAttributeDefinition
  3
尺度
  2
GEN-TITLE-SCA
 70
     0
 74
     2
  0
LINE
  5
178C
330
176D
100
AcDbEntity
  8
0
100
AcDbLine
 10
-106.9502221859465
 20
14.71456568209314
 30
0.0
 11
-107.7139711131768
 21
11.16237652835879
 31
0.0
  0
LINE
  5
178D
330
176D
100
AcDbEntity
  8
0
100
AcDbLine
 10
-107.7139711131768
 20
11.16237652835879
 30
0.0
 11
-107.6697551010107
 21
11.22470827233807
 31
0.0
  0
ELLIPSE
  5
178E
330
176D
100
AcDbEntity
  8
0
100
AcDbEllipse
 10
-106.5198686826232
 20
9.133166589319488
 30
0.0
 11
0.0200858413762701
 21
2.795177724472429
 31
0.0
210
0.0
220
0.0
230
1.0
 40
0.6250197778053533
 41
-1.051714224928873
 42
0.7298517778971401
1001
GENIUS_GENODEF_13
1002
{
1000
HIER
1070
     0
1002
}
1002
{
1000
MANEDIT
1070
     0
1002
}
1002
{
1000
NOSEL
1070
     0
1002
}
1002
{
1000
BEHIND
1070
     0
1002
}
1002
{
1000
REACTOR
1002
}
1001
GENIUS_GENOBJ-N-FIL_13
1002
{
1000
OWNER
1000
GEN
1002
}
  0
ELLIPSE
  5
178F
330
176D
100
AcDbEntity
  8
0
100
AcDbEllipse
 10
-105.2984958385996
 20
13.8219417489321
 30
0.0
 11
0.0200858413762916
 21
2.795177724472415
 31
0.0
210
0.0
220
0.0
230
1.0
 40
0.6250197778053527
 41
-1.051714224928867
 42
1.250253596044828
1001
GENIUS_GENODEF_13
1002
{
1000
HIER
1070
     0
1002
}
1002
{
1000
MANEDIT
1070
     0
1002
}
1002
{
1000
NOSEL
1070
     0
1002
}
1002
{
1000
BEHIND
1070
     0
1002
}
1002
{
1000
REACTOR
1002
}
1001
GENIUS_GENOBJ-N-FIL_13
1002
{
1000
OWNER
1000
GEN
1002
}
  0
LINE
  5
1790
330
176D
100
AcDbEntity
  8
0
100
AcDbLine
 10
-98.48721298302093
 20
8.077457208786752
 30
0.0
 11
-99.45177360188811
 21
4.065819878065248
 31
0.0
  0
ELLIPSE
  5
1791
330
176D
100
AcDbEntity
  8
0
100
AcDbEllipse
 10
-101.0818809708247
 20
5.053412867376919
 30
0.0
 11
0.0200858413762853
 21
2.795177724472413
 31
0.0
210
0.0
220
0.0
230
1.0
 40
0.6250197778053547
 41
2.089878428660925
 42
4.355766148231805
1001
GENIUS_GENODEF_13
1002
{
1000
HIER
1070
     0
1002
}
1002
{
1000
MANEDIT
1070
     0
1002
}
1002
{
1000
NOSEL
1070
     0
1002
}
1002
{
1000
BEHIND
1070
     0
1002
}
1002
{
1000
REACTOR
1002
}
1001
GENIUS_GENOBJ-N-FIL_13
1002
{
1000
OWNER
1000
GEN
1002
}
  0
LINE
  5
1792
330
176D
100
AcDbEntity
  8
0
100
AcDbLine
 10
-98.48721298302093
 20
8.077457208786752
 30
0.0
 11
-98.66382720839389
 21
7.801834007856294
 31
0.0
  0
ELLIPSE
  5
1793
330
176D
100
AcDbEntity
  8
0
100
AcDbEllipse
 10
-99.87931293102301
 20
9.796066964505511
 30
0.0
 11
0.0200858413762724
 21
2.795177724472415
 31
0.0
210
0.0
220
0.0
230
0.9999999999999998
 40
0.6250197778053552
 41
2.08987842866092
 42
3.922474143254961
1001
GENIUS_GENODEF_13
1002
{
1000
HIER
1070
     0
1002
}
1002
{
1000
MANEDIT
1070
     0
1002
}
1002
{
1000
NOSEL
1070
     0
1002
}
1002
{
1000
BEHIND
1070
     0
1002
}
1002
{
1000
REACTOR
1002
}
1001
GENIUS_GENOBJ-N-FIL_13
1002
{
1000
OWNER
1000
GEN
1002
}
  0
HATCH
  5
1794
330
176D
100
AcDbEntity
  8
AM_8
100
AcDbHatch
 10
0.0
 20
0.0
 30
0.0
210
0.0
220
0.0
230
1.0
  2
SOLID
 70
     1
 71
     0
 91
        1
 92
        1
 93
        2
 72
     3
 10
-106.7638987916396
 20
4.957358478318376
 11
0.0000000000000547
 21
2.56276973145977
 40
0.8333333333333941
 50
-77.14069946214277
 51
264.4007371808275
 73
     1
 72
     3
 10
-106.7638987916396
 20
4.957358478318376
 11
-0.0000000000003928
 21
2.562769731461267
 40
0.8333333333328997
 50
264.4007371808174
 51
282.8593005378472
 73
     1
 97
        0
 75
     0
 76
     1
 98
        1
 10
65.20293740923941
 20
-32.16820874956388
1001
GENIUS_GENODEF_13
1002
{
1000
HIER
1070
     0
1002
}
1002
{
1000
MANEDIT
1070
     0
1002
}
1002
{
1000
NOSEL
1070
     0
1002
}
1002
{
1000
BEHIND
1070
     0
1002
}
1002
{
1000
REACTOR
1002
}
1001
GENIUS_GENOBJ-N-HTC_13
1002
{
1000
OWNER
1000
GEN
1002
}
1001
GENIUS_GENHATCH_13
1002
{
1000
DATA
1040
0.0
1042
0.0015799698758396
1000
SOLID
1070
     0
1011
70.0136537122014
1021
-14.7540192633455
1031
0.0
1002
}
1002
{
1000
UCS
1010
0.0
1020
0.0
1030
0.0
1010
1.0
1020
0.0
1030
0.0
1010
0.0
1020
1.0
1030
0.0
1002
}
  0
ELLIPSE
  5
1795
330
176D
100
AcDbEntity
  8
0
100
AcDbEllipse
 10
-106.7638987916396
 20
4.957358478318417
 30
0.0
 11
0.0000000000000006
 21
2.562769731459943
 31
0.0
210
0.0
220
0.0
230
1.0
 40
0.8333333333333353
 41
-1.570796326794896
 42
4.712388980384689
  0
HATCH
  5
1796
330
176D
100
AcDbEntity
  8
AM_8
100
AcDbHatch
 10
0.0
 20
0.0
 30
0.0
210
0.0
220
0.0
230
1.0
  2
SOLID
 70
     1
 71
     0
 91
        1
 92
        1
 93
       10
 72
     1
 10
-106.9502221859465
 20
14.71456568209311
 11
-107.7139711131768
 21
11.16237652835879
 72
     1
 10
-107.7139711131768
 20
11.16237652835879
 11
-107.6697551010108
 21
11.22470827233809
 72
     3
 10
-106.5198686826232
 20
9.133166589319488
 11
0.0200858413762859
 21
2.795177724472421
 40
0.6250197778053525
 50
-29.21280058452436
 51
47.56891328106517
 73
     0
 72
     1
 10
-104.9929922696577
 20
10.5089073790986
 11
-102.6087573837903
 21
3.677672077597827
 72
     3
 10
-101.0818809708247
 20
5.053412867376919
 11
0.0200858413762844
 21
2.79517772447242
 40
0.625019777805353
 50
132.4310867189347
 51
239.202331800838
 73
     1
 72
     1
 10
-99.45177360188809
 20
4.065819878065248
 11
-98.48721298302093
 21
8.077457208786761
 72
     1
 10
-98.48721298302095
 20
8.077457208786752
 11
-98.66382720839393
 21
7.801834007856288
 72
     3
 10
-99.87931293102301
 20
9.796066964505511
 11
0.0200858413762811
 21
2.795177724472416
 40
0.6250197778053536
 50
148.2259629226598
 51
227.5689132810653
 73
     0
 72
     1
 10
-101.4061893439886
 20
8.420326174726406
 11
-103.771619425634
 21
15.19768253871121
 72
     3
 10
-105.2984958385996
 20
13.8219417489321
 11
0.02008584137625
 21
2.795177724472417
 40
0.6250197778053583
 50
-47.56891328106589
 51
62.02409398278944
 73
     1
 97
        0
 75
     0
 76
     1
 98
        1
 10
65.20293740923941
 20
-32.16820874956388
1001
GENIUS_GENODEF_13
1002
{
1000
HIER
1070
     0
1002
}
1002
{
1000
MANEDIT
1070
     0
1002
}
1002
{
1000
NOSEL
1070
     0
1002
}
1002
{
1000
BEHIND
1070
     0
1002
}
1002
{
1000
REACTOR
1002
}
1001
GENIUS_GENOBJ-N-HTC_13
1002
{
1000
OWNER
1000
GEN
1002
}
1001
GENIUS_GENHATCH_13
1002
{
1000
DATA
1040
0.0
1042
0.0015799698758396
1000
SOLID
1070
     0
1011
74.07735655451816
1021
-11.90112763631223
1031
0.0
1002
}
1002
{
1000
UCS
1010
0.0
1020
0.0
1030
0.0
1010
1.0
1020
0.0
1030
0.0
1010
0.0
1020
1.0
1030
0.0
1002
}
  0
LINE
  5
1797
330
176D
100
AcDbEntity
  8
0
100
AcDbLine
 10
-104.9929922696577
 20
10.5089073790986
 30
0.0
 11
-102.6087573837903
 21
3.677672077597847
 31
0.0
  0
LINE
  5
1798
330
176D
100
AcDbEntity
  8
0
100
AcDbLine
 10
-101.4061893439886
 20
8.420326174726406
 30
0.0
 11
-103.771619425634
 21
15.1976825387112
 31
0.0
  0
TEXT
  5
1799
330
176D
100
AcDbEntity
  8
0
100
AcDbText
 10
-92.04358977334541
 20
2.736280326823534
 30
0.0
 40
1.397647058823528
  1
ASOH   CO.LTD
 41
2.222222222222219
  7
ｽﾀｲﾙ1
100
AcDbText
  0
TEXT
  5
179A
330
176D
100
AcDbEntity
  8
0
100
AcDbText
 10
-96.37601713265375
 20
7.065690057310197
 30
0.0
 40
9.355420606948992
  1
アソー株式会社
 41
0.4444444444444381
  7
ｽﾀｲﾙ1
100
AcDbText
  0
ENDBLK
  5
179D
330
176D
100
AcDbEntity
  8
0
100
AcDbBlockEnd
  0
BLOCK
  5
17A9
330
17A8
100
AcDbEntity
  8
0
100
AcDbBlockBegin
  2
A$C2D292097
 70
     0
 10
0.0
 20
0.0
 30
0.0
  3
A$C2D292097
  1

  0
TEXT
  5
17AA
330
17A8
100
AcDbEntity
  8
0
100
AcDbText
 10
197.1044423511698
 20
31.0035981017752
 30
0.0
 40
10.0
  1
ASOH   CO.LTD
 41
5.0
  7
ｽﾀｲﾙ1
100
AcDbText
  0
TEXT
  5
17AB
330
17A8
100
AcDbEntity
  8
0
100
AcDbText
 10
127.3589261501835
 20
61.98001452360745
 30
0.0
 40
66.93693195207612
  1
アソー株式会社
  7
ｽﾀｲﾙ1
100
AcDbText
  0
HATCH
  5
17AC
330
17A8
100
AcDbEntity
  8
AM_8
100
AcDbHatch
 10
0.0
 20
0.0
 30
0.0
210
0.0
220
0.0
230
1.0
  2
SOLID
 70
     1
 71
     0
 91
        1
 92
        1
 93
       10
 72
     1
 10
26.27998696211468
 20
119.622038302041
 11
19.72254667781421
 21
94.20654351522143
 72
     1
 10
19.72254667781422
 20
94.20654351522143
 11
20.10217910550261
 21
94.65251979790156
 72
     3
 10
29.97494128357687
 20
79.68778553387966
 11
0.2402016329913231
 21
19.99855752736975
 40
0.7499999999999996
 50
-34.10238568201522
 51
52.41091053102508
 73
     0
 72
     1
 10
43.0844862433824
 20
89.53104876041368
 11
63.55518980891033
 21
40.6543652059048
 72
     3
 10
76.66473476871587
 20
50.49762843243886
 11
0.240201632991316
 21
19.99855752736975
 40
0.7499999999999999
 50
127.589089468975
 51
243.9002512902304
 73
     1
 72
     1
 10
90.66060611817196
 20
43.43151697692579
 11
98.94218718925374
 21
72.13430932636422
 72
     1
 10
98.94218718925376
 20
72.13430932636422
 11
97.4258024259505
 21
70.16225780455534
 72
     3
 10
86.98981389832653
 20
84.43075959876276
 11
-0.2402016329912594
 21
-19.99855752736953
 40
0.7499999999999996
 50
-36.86989764584386
 51
52.41091053102518
 73
     0
 72
     1
 10
73.88026893852099
 20
74.58749637222874
 11
53.57102076277776
 21
123.0786824781806
 72
     3
 10
40.46147580297221
 20
113.2354192516466
 11
-0.2402016329912825
 21
-19.99855752736974
 40
0.7500000000000002
 50
127.5890894689749
 51
246.4437724078177
 73
     1
 97
        0
 75
     0
 76
     1
 98
        1
 10
-11.02788873631791
 20
-99.90118815091953
1001
GENIUS_GENODEF_13
1002
{
1000
HIER
1070
     0
1002
}
1002
{
1000
MANEDIT
1070
     0
1002
}
1002
{
1000
NOSEL
1070
     0
1002
}
1002
{
1000
BEHIND
1070
     0
1002
}
1002
{
1000
REACTOR
1002
}
1001
GENIUS_GENOBJ-N-HTC_13
1002
{
1000
OWNER
1000
GEN
1002
}
1001
GENIUS_GENHATCH_13
1002
{
1000
DATA
1040
0.0
1042
0.9999999999999998
1000
SOLID
1070
     0
1011
65.16661907668134
1021
74.10910423558471
1031
0.0
1002
}
1002
{
1000
UCS
1010
0.0
1020
0.0
1030
0.0
1010
1.0
1020
0.0
1030
0.0
1010
0.0
1020
1.0
1030
0.0
1002
}
  0
HATCH
  5
17AD
330
17A8
100
AcDbEntity
  8
AM_8
100
AcDbHatch
 10
0.0
 20
0.0
 30
0.0
210
0.0
220
0.0
230
1.0
  2
SOLID
 70
     1
 71
     0
 91
        1
 92
        1
 93
        2
 72
     2
 10
27.87973327687144
 20
49.81037059826576
 40
18.33631541869489
 50
10.7710123686058
 51
355.3294096482469
 73
     1
 72
     2
 10
27.87973327687144
 20
49.81037059826576
 40
18.33631541869488
 50
355.3294096482469
 51
370.7710123686058
 73
     1
 97
        0
 75
     0
 76
     1
 98
        1
 10
-11.02788873631791
 20
-99.90118815091953
1001
GENIUS_GENODEF_13
1002
{
1000
HIER
1070
     0
1002
}
1002
{
1000
MANEDIT
1070
     0
1002
}
1002
{
1000
NOSEL
1070
     0
1002
}
1002
{
1000
BEHIND
1070
     0
1002
}
1002
{
1000
REACTOR
1002
}
1001
GENIUS_GENOBJ-N-HTC_13
1002
{
1000
OWNER
1000
GEN
1002
}
1001
GENIUS_GENHATCH_13
1002
{
1000
DATA
1040
0.0
1042
0.9999999999999998
1000
SOLID
1070
     0
1011
30.27624113759819
1021
49.61458016509695
1031
0.0
1002
}
1002
{
1000
UCS
1010
0.0
1020
0.0
1030
0.0
1010
1.0
1020
0.0
1030
0.0
1010
0.0
1020
1.0
1030
0.0
1002
}
  0
CIRCLE
  5
17AE
330
17A8
100
AcDbEntity
  8
0
100
AcDbCircle
 10
27.87973327687145
 20
49.81037059826573
 30
0.0
 40
18.33631541869488
  0
LINE
  5
17AF
330
17A8
100
AcDbEntity
  8
0
100
AcDbLine
 10
98.94218718925376
 20
72.13430932636422
 30
0.0
 11
90.66060611817196
 21
43.43151697692576
 31
0.0
  0
LINE
  5
17B0
330
17A8
100
AcDbEntity
  8
0
100
AcDbLine
 10
43.0844862433824
 20
89.5310487604137
 30
0.0
 11
63.55518980891034
 21
40.6543652059048
 31
0.0
  0
ELLIPSE
  5
17B1
330
17A8
100
AcDbEntity
  8
0
100
AcDbEllipse
 10
76.66473476871587
 20
50.49762843243886
 30
0.0
 11
0.2402016329913116
 21
19.99855752736953
 31
0.0
210
0.0
220
0.0
230
0.9999999999999998
 40
0.7499999999999999
 41
2.094395102393195
 42
4.360282821964076
1001
GENIUS_GENODEF_13
1002
{
1000
HIER
1070
     0
1002
}
1002
{
1000
MANEDIT
1070
     0
1002
}
1002
{
1000
NOSEL
1070
     0
1002
}
1002
{
1000
BEHIND
1070
     0
1002
}
1002
{
1000
REACTOR
1002
}
1001
GENIUS_GENOBJ-N-FIL_13
1002
{
1000
OWNER
1000
GEN
1002
}
  0
ELLIPSE
  5
17B2
330
17A8
100
AcDbEntity
  8
0
100
AcDbEllipse
 10
86.98981389832653
 20
84.43075959876276
 30
0.0
 11
0.2402016329912594
 21
19.99855752736953
 31
0.0
210
0.0
220
0.0
230
1.0
 40
0.7499999999999996
 41
2.094395102393192
 42
3.926990816987234
1001
GENIUS_GENODEF_13
1002
{
1000
HIER
1070
     0
1002
}
1002
{
1000
MANEDIT
1070
     0
1002
}
1002
{
1000
NOSEL
1070
     0
1002
}
1002
{
1000
BEHIND
1070
     0
1002
}
1002
{
1000
REACTOR
1002
}
1001
GENIUS_GENOBJ-N-FIL_13
1002
{
1000
OWNER
1000
GEN
1002
}
  0
ELLIPSE
  5
17B3
330
17A8
100
AcDbEntity
  8
0
100
AcDbEllipse
 10
29.97494128357687
 20
79.68778553387966
 30
0.0
 11
0.2402016329913188
 21
19.99855752736953
 31
0.0
210
0.0
220
0.0
230
0.9999999999999998
 40
0.7499999999999996
 41
-1.047197551196598
 42
0.7343684516294112
1001
GENIUS_GENODEF_13
1002
{
1000
HIER
1070
     0
1002
}
1002
{
1000
MANEDIT
1070
     0
1002
}
1002
{
1000
NOSEL
1070
     0
1002
}
1002
{
1000
BEHIND
1070
     0
1002
}
1002
{
1000
REACTOR
1002
}
1001
GENIUS_GENOBJ-N-FIL_13
1002
{
1000
OWNER
1000
GEN
1002
}
  0
ELLIPSE
  5
17B4
330
17A8
100
AcDbEntity
  8
0
100
AcDbEllipse
 10
40.46147580297221
 20
113.2354192516466
 30
0.0
 11
0.2402016329912781
 21
19.99855752736952
 31
0.0
210
0.0
220
0.0
230
0.9999999999999998
 40
0.75
 41
-1.047197551196599
 42
1.254770269777095
1001
GENIUS_GENODEF_13
1002
{
1000
HIER
1070
     0
1002
}
1002
{
1000
MANEDIT
1070
     0
1002
}
1002
{
1000
NOSEL
1070
     0
1002
}
1002
{
1000
BEHIND
1070
     0
1002
}
1002
{
1000
REACTOR
1002
}
1001
GENIUS_GENOBJ-N-FIL_13
1002
{
1000
OWNER
1000
GEN
1002
}
  0
LINE
  5
17B5
330
17A8
100
AcDbEntity
  8
0
100
AcDbLine
 10
73.88026893852099
 20
74.58749637222874
 30
0.0
 11
53.57102076277774
 21
123.0786824781806
 31
0.0
  0
LINE
  5
17B6
330
17A8
100
AcDbEntity
  8
0
100
AcDbLine
 10
26.27998696211472
 20
119.6220383020412
 30
0.0
 11
19.72254667781422
 21
94.20654351522143
 31
0.0
  0
LINE
  5
17B7
330
17A8
100
AcDbEntity
  8
0
100
AcDbLine
 10
19.72254667781422
 20
94.20654351522143
 30
0.0
 11
20.1021791055026
 21
94.65251979790158
 31
0.0
  0
LINE
  5
17B8
330
17A8
100
AcDbEntity
  8
0
100
AcDbLine
 10
98.94218718925372
 20
72.13430932636422
 30
0.0
 11
97.42580242595048
 21
70.16225780455531
 31
0.0
  0
ENDBLK
  5
17B9
330
17A8
100
AcDbEntity
  8
0
100
AcDbBlockEnd
  0
BLOCK
  5
17BF
330
17BD
100
AcDbEntity
  8
0
100
AcDbBlockBegin
  2
A$C676C2959
 70
     2
 10
0.0
 20
0.0
 30
0.0
  3
A$C676C2959
  1

  0
ATTDEF
  5
17C0
330
17BD
100
AcDbEntity
  8
AM_BOR
 62
     2
100
AcDbText
 10
12.15813029624129
 20
1.055831712516678
 30
0.0
 40
3.0
  1
水 田
 72
     4
 11
16.15813029624129
 21
2.555831712516678
 31
0.0
100
AcDbAttributeDefinition
  3
検図
  2
KENZU
 70
     0
  0
ENDBLK
  5
17C1
330
17BD
100
AcDbEntity
  8
0
100
AcDbBlockEnd
  0
BLOCK
  5
17C4
330
17C2
100
AcDbEntity
  8
0
100
AcDbBlockBegin
  2
A$C1FED437B
 70
     2
 10
0.0
 20
0.0
 30
0.0
  3
A$C1FED437B
  1

  0
ATTDEF
  5
17C5
330
17C2
100
AcDbEntity
  8
AM_BOR
 62
     2
100
AcDbText
 10
18.03041271546894
 20
2.555831712516678
 30
0.0
 40
3.0
  1

 72
     4
 11
18.03041271546894
 21
2.555831712516678
 31
0.0
100
AcDbAttributeDefinition
  3
材質
  2
ZAISITU
 70
     0
  0
ENDBLK
  5
17C6
330
17C2
100
AcDbEntity
  8
0
100
AcDbBlockEnd
  0
BLOCK
  5
17FF
330
17CB
100
AcDbEntity
  8
0
100
AcDbBlockBegin
  2
ASO-A
 70
     2
 10
0.0
 20
0.0
 30
0.0
  3
ASO-A
  1

  0
LINE
  5
3669
330
17CB
100
AcDbEntity
  8
AM_BOR
 62
   211
100
AcDbLine
 10
-110.0
 20
0.0
 30
0.0
 11
0.0
 21
0.0
 31
0.0
1001
GENIUS_GENREC_14
1002
{
1000
PYDIR
1011
-110.0
1021
40.0
1031
0.0
1002
}
1002
{
1000
PXDIR
1011
0.0
1021
0.0
1031
0.0
1002
}
1002
{
1000
PORI
1011
-110.0
1021
0.0
1031
0.0
1002
}
1002
{
1000
PINS
1011
-110.0
1021
0.0
1031
0.0
1002
}
1002
{
1000
HVAL
1000
40
1002
}
1002
{
1000
H
1070
     2
1002
}
1002
{
1000
WVAL
1000
110
1002
}
1002
{
1000
W
1070
     2
1002
}
1002
{
1000
C
1070
     1
1002
}
1001
GENIUS_GENODEF_13
1002
{
1000
HIER
1070
     0
1002
}
1002
{
1000
MANEDIT
1070
     0
1002
}
1002
{
1000
NOSEL
1070
     0
1002
}
1002
{
1000
BEHIND
1070
     0
1002
}
1002
{
1000
REACTOR
1002
}
1001
GENIUS_GENOBJ-N-REC_13
1002
{
1000
OWNER
1000
GEN
1002
}
  0
LINE
  5
366A
330
17CB
100
AcDbEntity
  8
AM_BOR
 62
   211
100
AcDbLine
 10
0.0
 20
0.0
 30
0.0
 11
0.0
 21
40.0
 31
0.0
1001
GENIUS_GENREC_14
1002
{
1000
PYDIR
1011
-110.0
1021
40.0
1031
0.0
1002
}
1002
{
1000
PXDIR
1011
0.0
1021
0.0
1031
0.0
1002
}
1002
{
1000
PORI
1011
-110.0
1021
0.0
1031
0.0
1002
}
1002
{
1000
PINS
1011
-110.0
1021
0.0
1031
0.0
1002
}
1002
{
1000
HVAL
1000
40
1002
}
1002
{
1000
H
1070
     2
1002
}
1002
{
1000
WVAL
1000
110
1002
}
1002
{
1000
W
1070
     2
1002
}
1002
{
1000
C
1070
     1
1002
}
1001
GENIUS_GENODEF_13
1002
{
1000
HIER
1070
     0
1002
}
1002
{
1000
MANEDIT
1070
     0
1002
}
1002
{
1000
NOSEL
1070
     0
1002
}
1002
{
1000
BEHIND
1070
     0
1002
}
1002
{
1000
REACTOR
1002
}
1001
GENIUS_GENOBJ-N-REC_13
1002
{
1000
OWNER
1000
GEN
1002
}
  0
LINE
  5
366B
330
17CB
100
AcDbEntity
  8
AM_BOR
 62
   211
100
AcDbLine
 10
0.0
 20
40.0
 30
0.0
 11
-110.0
 21
40.00000000000001
 31
0.0
1001
GENIUS_GENREC_14
1002
{
1000
PYDIR
1011
-110.0
1021
40.0
1031
0.0
1002
}
1002
{
1000
PXDIR
1011
0.0
1021
0.0
1031
0.0
1002
}
1002
{
1000
PORI
1011
-110.0
1021
0.0
1031
0.0
1002
}
1002
{
1000
PINS
1011
-110.0
1021
0.0
1031
0.0
1002
}
1002
{
1000
HVAL
1000
40
1002
}
1002
{
1000
H
1070
     2
1002
}
1002
{
1000
WVAL
1000
110
1002
}
1002
{
1000
W
1070
     2
1002
}
1002
{
1000
C
1070
     1
1002
}
1001
GENIUS_GENODEF_13
1002
{
1000
HIER
1070
     0
1002
}
1002
{
1000
MANEDIT
1070
     0
1002
}
1002
{
1000
NOSEL
1070
     0
1002
}
1002
{
1000
BEHIND
1070
     0
1002
}
1002
{
1000
REACTOR
1002
}
1001
GENIUS_GENOBJ-N-REC_13
1002
{
1000
OWNER
1000
GEN
1002
}
  0
LINE
  5
366C
330
17CB
100
AcDbEntity
  8
AM_BOR
 62
   211
100
AcDbLine
 10
-110.0
 20
40.00000000000001
 30
0.0
 11
-110.0
 21
0.0
 31
0.0
1001
GENIUS_GENREC_14
1002
{
1000
PYDIR
1011
-110.0
1021
40.0
1031
0.0
1002
}
1002
{
1000
PXDIR
1011
0.0
1021
0.0
1031
0.0
1002
}
1002
{
1000
PORI
1011
-110.0
1021
0.0
1031
0.0
1002
}
1002
{
1000
PINS
1011
-110.0
1021
0.0
1031
0.0
1002
}
1002
{
1000
HVAL
1000
40
1002
}
1002
{
1000
H
1070
     2
1002
}
1002
{
1000
WVAL
1000
110
1002
}
1002
{
1000
W
1070
     2
1002
}
1002
{
1000
C
1070
     1
1002
}
1001
GENIUS_GENODEF_13
1002
{
1000
HIER
1070
     0
1002
}
1002
{
1000
MANEDIT
1070
     0
1002
}
1002
{
1000
NOSEL
1070
     0
1002
}
1002
{
1000
BEHIND
1070
     0
1002
}
1002
{
1000
REACTOR
1002
}
1001
GENIUS_GENOBJ-N-REC_13
1002
{
1000
OWNER
1000
GEN
1002
}
  0
LINE
  5
366D
330
17CB
100
AcDbEntity
  8
AM_BOR
 62
     5
100
AcDbLine
 10
-60.0
 20
9.999999999999992
 30
0.0
 11
0.0
 21
10.0
 31
0.0
1001
GENIUS_GENREC_14
1002
{
1000
PYDIR
1011
-110.0
1021
40.0
1031
0.0
1002
}
1002
{
1000
PXDIR
1011
0.0
1021
0.0
1031
0.0
1002
}
1002
{
1000
PORI
1011
-110.0
1021
0.0
1031
0.0
1002
}
1002
{
1000
PINS
1011
-110.0
1021
0.0
1031
0.0
1002
}
1002
{
1000
HVAL
1000
40
1002
}
1002
{
1000
H
1070
     2
1002
}
1002
{
1000
WVAL
1000
110
1002
}
1002
{
1000
W
1070
     2
1002
}
1002
{
1000
C
1070
     1
1002
}
  0
LINE
  5
366E
330
17CB
100
AcDbEntity
  8
AM_BOR
 62
     5
100
AcDbLine
 10
-110.0
 20
19.0
 30
0.0
 11
0.0
 21
19.0
 31
0.0
1001
GENIUS_GENREC_14
1002
{
1000
PYDIR
1011
-110.0
1021
40.0
1031
0.0
1002
}
1002
{
1000
PXDIR
1011
0.0
1021
0.0
1031
0.0
1002
}
1002
{
1000
PORI
1011
-110.0
1021
0.0
1031
0.0
1002
}
1002
{
1000
PINS
1011
-110.0
1021
0.0
1031
0.0
1002
}
1002
{
1000
HVAL
1000
40
1002
}
1002
{
1000
H
1070
     2
1002
}
1002
{
1000
WVAL
1000
110
1002
}
1002
{
1000
W
1070
     2
1002
}
1002
{
1000
C
1070
     1
1002
}
1001
GENIUS_GENODEF_13
1002
{
1000
HIER
1070
     0
1002
}
1002
{
1000
MANEDIT
1070
     0
1002
}
1002
{
1000
NOSEL
1070
     0
1002
}
1002
{
1000
BEHIND
1070
     0
1002
}
1002
{
1000
REACTOR
1002
}
1001
GENIUS_GENOBJ-N-REC_13
1002
{
1000
OWNER
1000
GEN
1002
}
  0
LINE
  5
366F
330
17CB
100
AcDbEntity
  8
AM_BOR
 62
     5
100
AcDbLine
 10
-110.0
 20
26.0
 30
0.0
 11
0.0
 21
26.0
 31
0.0
1001
GENIUS_GENREC_14
1002
{
1000
PYDIR
1011
-110.0
1021
40.0
1031
0.0
1002
}
1002
{
1000
PXDIR
1011
0.0
1021
0.0
1031
0.0
1002
}
1002
{
1000
PORI
1011
-110.0
1021
0.0
1031
0.0
1002
}
1002
{
1000
PINS
1011
-110.0
1021
0.0
1031
0.0
1002
}
1002
{
1000
HVAL
1000
40
1002
}
1002
{
1000
H
1070
     2
1002
}
1002
{
1000
WVAL
1000
110
1002
}
1002
{
1000
W
1070
     2
1002
}
1002
{
1000
C
1070
     1
1002
}
1001
GENIUS_GENODEF_13
1002
{
1000
HIER
1070
     0
1002
}
1002
{
1000
MANEDIT
1070
     0
1002
}
1002
{
1000
NOSEL
1070
     0
1002
}
1002
{
1000
BEHIND
1070
     0
1002
}
1002
{
1000
REACTOR
1002
}
1001
GENIUS_GENOBJ-N-REC_13
1002
{
1000
OWNER
1000
GEN
1002
}
  0
LINE
  5
3670
330
17CB
100
AcDbEntity
  8
AM_BOR
 62
     5
100
AcDbLine
 10
-110.0
 20
33.0
 30
0.0
 11
0.0
 21
33.0
 31
0.0
1001
GENIUS_GENREC_14
1002
{
1000
PYDIR
1011
-110.0
1021
40.0
1031
0.0
1002
}
1002
{
1000
PXDIR
1011
0.0
1021
0.0
1031
0.0
1002
}
1002
{
1000
PORI
1011
-110.0
1021
0.0
1031
0.0
1002
}
1002
{
1000
PINS
1011
-110.0
1021
0.0
1031
0.0
1002
}
1002
{
1000
HVAL
1000
40
1002
}
1002
{
1000
H
1070
     2
1002
}
1002
{
1000
WVAL
1000
110
1002
}
1002
{
1000
W
1070
     2
1002
}
1002
{
1000
C
1070
     1
1002
}
1001
GENIUS_GENODEF_13
1002
{
1000
HIER
1070
     0
1002
}
1002
{
1000
MANEDIT
1070
     0
1002
}
1002
{
1000
NOSEL
1070
     0
1002
}
1002
{
1000
BEHIND
1070
     0
1002
}
1002
{
1000
REACTOR
1002
}
1001
GENIUS_GENOBJ-N-REC_13
1002
{
1000
OWNER
1000
GEN
1002
}
  0
LINE
  5
3671
330
17CB
100
AcDbEntity
  8
AM_BOR
 62
     5
100
AcDbLine
 10
-85.0
 20
33.0
 30
0.0
 11
-85.0
 21
18.99999999999998
 31
0.0
1001
GENIUS_GENREC_14
1002
{
1000
PYDIR
1011
-110.0
1021
40.0
1031
0.0
1002
}
1002
{
1000
PXDIR
1011
0.0
1021
0.0
1031
0.0
1002
}
1002
{
1000
PORI
1011
-110.0
1021
0.0
1031
0.0
1002
}
1002
{
1000
PINS
1011
-110.0
1021
0.0
1031
0.0
1002
}
1002
{
1000
HVAL
1000
40
1002
}
1002
{
1000
H
1070
     2
1002
}
1002
{
1000
WVAL
1000
110
1002
}
1002
{
1000
W
1070
     2
1002
}
1002
{
1000
C
1070
     1
1002
}
1001
GENIUS_GENODEF_13
1002
{
1000
HIER
1070
     0
1002
}
1002
{
1000
MANEDIT
1070
     0
1002
}
1002
{
1000
NOSEL
1070
     0
1002
}
1002
{
1000
BEHIND
1070
     0
1002
}
1002
{
1000
REACTOR
1002
}
1001
GENIUS_GENOBJ-N-REC_13
1002
{
1000
OWNER
1000
GEN
1002
}
  0
LINE
  5
3672
330
17CB
100
AcDbEntity
  8
AM_BOR
 62
     5
100
AcDbLine
 10
-60.0
 20
40.00000000000001
 30
0.0
 11
-60.0
 21
0.0
 31
0.0
1001
GENIUS_GENREC_14
1002
{
1000
PYDIR
1011
-110.0
1021
40.0
1031
0.0
1002
}
1002
{
1000
PXDIR
1011
0.0
1021
0.0
1031
0.0
1002
}
1002
{
1000
PORI
1011
-110.0
1021
0.0
1031
0.0
1002
}
1002
{
1000
PINS
1011
-110.0
1021
0.0
1031
0.0
1002
}
1002
{
1000
HVAL
1000
40
1002
}
1002
{
1000
H
1070
     2
1002
}
1002
{
1000
WVAL
1000
110
1002
}
1002
{
1000
W
1070
     2
1002
}
1002
{
1000
C
1070
     1
1002
}
1001
GENIUS_GENODEF_13
1002
{
1000
HIER
1070
     0
1002
}
1002
{
1000
MANEDIT
1070
     0
1002
}
1002
{
1000
NOSEL
1070
     0
1002
}
1002
{
1000
BEHIND
1070
     0
1002
}
1002
{
1000
REACTOR
1002
}
1001
GENIUS_GENOBJ-N-REC_13
1002
{
1000
OWNER
1000
GEN
1002
}
  0
LINE
  5
3673
330
17CB
100
AcDbEntity
  8
AM_BOR
 62
     5
100
AcDbLine
 10
-20.0
 20
33.0
 30
0.0
 11
-20.0
 21
40.0
 31
0.0
1001
GENIUS_GENREC_14
1002
{
1000
PYDIR
1011
-110.0
1021
40.0
1031
0.0
1002
}
1002
{
1000
PXDIR
1011
0.0
1021
0.0
1031
0.0
1002
}
1002
{
1000
PORI
1011
-110.0
1021
0.0
1031
0.0
1002
}
1002
{
1000
PINS
1011
-110.0
1021
0.0
1031
0.0
1002
}
1002
{
1000
HVAL
1000
40
1002
}
1002
{
1000
H
1070
     2
1002
}
1002
{
1000
WVAL
1000
110
1002
}
1002
{
1000
W
1070
     2
1002
}
1002
{
1000
C
1070
     1
1002
}
1001
GENIUS_GENODEF_13
1002
{
1000
HIER
1070
     0
1002
}
1002
{
1000
MANEDIT
1070
     0
1002
}
1002
{
1000
NOSEL
1070
     0
1002
}
1002
{
1000
BEHIND
1070
     0
1002
}
1002
{
1000
REACTOR
1002
}
1001
GENIUS_GENOBJ-N-REC_13
1002
{
1000
OWNER
1000
GEN
1002
}
  0
LINE
  5
3674
330
17CB
100
AcDbEntity
  8
AM_BOR
 62
     5
100
AcDbLine
 10
-40.0
 20
33.0
 30
0.0
 11
-40.0
 21
40.0
 31
0.0
1001
GENIUS_GENREC_14
1002
{
1000
PYDIR
1011
-110.0
1021
40.0
1031
0.0
1002
}
1002
{
1000
PXDIR
1011
0.0
1021
0.0
1031
0.0
1002
}
1002
{
1000
PORI
1011
-110.0
1021
0.0
1031
0.0
1002
}
1002
{
1000
PINS
1011
-110.0
1021
0.0
1031
0.0
1002
}
1002
{
1000
HVAL
1000
40
1002
}
1002
{
1000
H
1070
     2
1002
}
1002
{
1000
WVAL
1000
110
1002
}
1002
{
1000
W
1070
     2
1002
}
1002
{
1000
C
1070
     1
1002
}
1001
GENIUS_GENODEF_13
1002
{
1000
HIER
1070
     0
1002
}
1002
{
1000
MANEDIT
1070
     0
1002
}
1002
{
1000
NOSEL
1070
     0
1002
}
1002
{
1000
BEHIND
1070
     0
1002
}
1002
{
1000
REACTOR
1002
}
1001
GENIUS_GENOBJ-N-REC_13
1002
{
1000
OWNER
1000
GEN
1002
}
  0
LINE
  5
3675
330
17CB
100
AcDbEntity
  8
AM_BOR
 62
     5
100
AcDbLine
 10
-80.0
 20
33.0
 30
0.0
 11
-80.0
 21
40.0
 31
0.0
1001
GENIUS_GENREC_14
1002
{
1000
PYDIR
1011
-110.0
1021
40.0
1031
0.0
1002
}
1002
{
1000
PXDIR
1011
0.0
1021
0.0
1031
0.0
1002
}
1002
{
1000
PORI
1011
-110.0
1021
0.0
1031
0.0
1002
}
1002
{
1000
PINS
1011
-110.0
1021
0.0
1031
0.0
1002
}
1002
{
1000
HVAL
1000
40
1002
}
1002
{
1000
H
1070
     2
1002
}
1002
{
1000
WVAL
1000
110
1002
}
1002
{
1000
W
1070
     2
1002
}
1002
{
1000
C
1070
     1
1002
}
1001
GENIUS_GENODEF_13
1002
{
1000
HIER
1070
     0
1002
}
1002
{
1000
MANEDIT
1070
     0
1002
}
1002
{
1000
NOSEL
1070
     0
1002
}
1002
{
1000
BEHIND
1070
     0
1002
}
1002
{
1000
REACTOR
1002
}
1001
GENIUS_GENOBJ-N-REC_13
1002
{
1000
OWNER
1000
GEN
1002
}
  0
TEXT
  5
3676
330
17CB
100
AcDbEntity
  8
AM_BOR
 62
     2
100
AcDbText
 10
-57.4
 20
35.0
 30
0.0
 40
3.0
  1
単位 ｍｍ
 72
     4
 11
-50.0
 21
36.5
 31
0.0
100
AcDbText
  0
TEXT
  5
3677
330
17CB
100
AcDbEntity
  8
AM_BOR
 62
     2
100
AcDbText
 10
-39.0
 20
35.0
 30
0.0
 40
3.0
  1
尺度
 41
0.9
 11
-39.0
 21
36.5
 31
0.0
100
AcDbText
 73
     2
  0
TEXT
  5
3678
330
17CB
100
AcDbEntity
  8
AM_BOR
 62
     2
100
AcDbText
 10
-19.0
 20
35.0
 30
0.0
 40
3.0
  1
日付
 41
0.9
 11
-19.0
 21
36.5
 31
0.0
100
AcDbText
 73
     2
  0
TEXT
  5
3679
330
17CB
100
AcDbEntity
  8
AM_BOR
 62
     2
100
AcDbText
 10
-76.79999999999999
 20
34.99999999999999
 30
0.0
 40
3.0
  1
第３角法
 72
     4
 11
-70.0
 21
36.49999999999999
 31
0.0
100
AcDbText
  0
TEXT
  5
367A
330
17CB
100
AcDbEntity
  8
AM_BOR
 62
     2
100
AcDbText
 10
-59.0
 20
29.5
 30
0.0
 40
3.0
  1
材 質
 11
-59.0
 21
31.0
 31
0.0
100
AcDbText
 73
     2
  0
TEXT
  5
367B
330
17CB
100
AcDbEntity
  8
AM_BOR
 62
     2
100
AcDbText
 10
-59.0
 20
22.5
 30
0.0
 40
3.0
  1
備 考
 11
-59.0
 21
24.0
 31
0.0
100
AcDbText
 73
     2
  0
TEXT
  5
367C
330
17CB
100
AcDbEntity
  8
AM_BOR
 62
     2
100
AcDbText
 10
-59.0
 20
15.5
 30
0.0
 40
3.0
  1
品 名
 11
-59.0
 21
17.0
 31
0.0
100
AcDbText
 73
     2
  0
TEXT
  5
367D
330
17CB
100
AcDbEntity
  8
AM_BOR
 62
     2
100
AcDbText
 10
-59.0
 20
6.499999999999992
 30
0.0
 40
3.0
  1
図 番
 11
-59.0
 21
7.999999999999992
 31
0.0
100
AcDbText
 73
     2
  0
TEXT
  5
367E
330
17CB
100
AcDbEntity
  8
AM_BOR
 62
     2
100
AcDbText
 10
-109.0
 20
29.5
 30
0.0
 40
3.0
  1
承認
 11
-109.0
 21
31.0
 31
0.0
100
AcDbText
 73
     2
  0
TEXT
  5
367F
330
17CB
100
AcDbEntity
  8
AM_BOR
 62
     2
100
AcDbText
 10
-109.0
 20
22.5
 30
0.0
 40
3.0
  1
設計
 11
-109.0
 21
24.0
 31
0.0
100
AcDbText
 73
     2
  0
TEXT
  5
3680
330
17CB
100
AcDbEntity
  8
AM_BOR
 62
     2
100
AcDbText
 10
-84.0
 20
22.5
 30
0.0
 40
3.0
  1
製図
 11
-84.0
 21
24.0
 31
0.0
100
AcDbText
 73
     2
  0
TEXT
  5
3681
330
17CB
100
AcDbEntity
  8
AM_BOR
 62
     2
100
AcDbText
 10
-84.0
 20
29.5
 30
0.0
 40
3.0
  1
検図
 11
-84.0
 21
31.0
 31
0.0
100
AcDbText
 73
     2
  0
ATTDEF
  5
3682
330
17CB
100
AcDbEntity
  8
AM_BOR
100
AcDbText
 10
-50.25926794017573
 20
12.75
 30
0.0
 40
3.5
  1

 11
-50.25926794017573
 21
14.5
 31
0.0
100
AcDbAttributeDefinition
  3
品名
  2
HINMEI{14}
 70
     0
 74
     2
  0
ATTDEF
  5
3683
330
17CB
100
AcDbEntity
  8
AM_BOR
100
AcDbText
 10
-50.10873010396898
 20
3.249999999999992
 30
0.0
 40
3.5
  1

 11
-50.10873010396898
 21
4.999999999999992
 31
0.0
100
AcDbAttributeDefinition
  3
図番
  2
ZUBAN{14}
 70
     0
 74
     2
  0
ATTDEF
  5
3684
330
17CB
100
AcDbEntity
  8
AM_BOR
 62
     2
100
AcDbText
 10
-11.91705654530994
 20
35.0
 30
0.0
 40
3.0
  1

 41
0.8
 11
-11.91705654530994
 21
36.5
 31
0.0
100
AcDbAttributeDefinition
  3
日付
  2
GEN-TITLE-DAT{3.5}
 70
     0
 74
     2
  0
ATTDEF
  5
3685
330
17CB
100
AcDbEntity
  8
AM_BOR
 62
     2
100
AcDbText
 10
-72.67071073591084
 20
20.00000000000001
 30
0.0
 40
3.0
  1
水 田
 72
     4
 11
-67.63012018472974
 21
21.50000000000002
 31
0.0
100
AcDbAttributeDefinition
  3
製図
  2
SEIZU
 70
     0
  0
ATTDEF
  5
3686
330
17CB
100
AcDbEntity
  8
AM_BOR
 62
     2
100
AcDbText
 10
-31.91705654530995
 20
35.0
 30
0.0
 40
3.0
  1

 11
-31.91705654530995
 21
36.5
 31
0.0
100
AcDbAttributeDefinition
  3
尺度
  2
GEN-TITLE-SCA
 70
     0
 74
     2
  0
LINE
  5
3687
330
17CB
100
AcDbEntity
  8
0
100
AcDbLine
 10
-106.9502221859465
 20
14.71456568209314
 30
0.0
 11
-107.7139711131768
 21
11.16237652835879
 31
0.0
  0
LINE
  5
3688
330
17CB
100
AcDbEntity
  8
0
100
AcDbLine
 10
-107.7139711131768
 20
11.16237652835879
 30
0.0
 11
-107.6697551010107
 21
11.22470827233807
 31
0.0
  0
ELLIPSE
  5
3689
330
17CB
100
AcDbEntity
  8
0
100
AcDbEllipse
 10
-106.5198686826232
 20
9.133166589319488
 30
0.0
 11
0.0200858413762701
 21
2.795177724472429
 31
0.0
210
0.0
220
0.0
230
0.9999999999999998
 40
0.6250197778053533
 41
-1.051714224928873
 42
0.7298517778971401
1001
GENIUS_GENODEF_13
1002
{
1000
HIER
1070
     0
1002
}
1002
{
1000
MANEDIT
1070
     0
1002
}
1002
{
1000
NOSEL
1070
     0
1002
}
1002
{
1000
BEHIND
1070
     0
1002
}
1002
{
1000
REACTOR
1002
}
1001
GENIUS_GENOBJ-N-FIL_13
1002
{
1000
OWNER
1000
GEN
1002
}
  0
ELLIPSE
  5
368A
330
17CB
100
AcDbEntity
  8
0
100
AcDbEllipse
 10
-105.2984958385996
 20
13.8219417489321
 30
0.0
 11
0.0200858413762916
 21
2.795177724472415
 31
0.0
210
0.0
220
0.0
230
1.0
 40
0.6250197778053527
 41
-1.051714224928867
 42
1.250253596044828
1001
GENIUS_GENODEF_13
1002
{
1000
HIER
1070
     0
1002
}
1002
{
1000
MANEDIT
1070
     0
1002
}
1002
{
1000
NOSEL
1070
     0
1002
}
1002
{
1000
BEHIND
1070
     0
1002
}
1002
{
1000
REACTOR
1002
}
1001
GENIUS_GENOBJ-N-FIL_13
1002
{
1000
OWNER
1000
GEN
1002
}
  0
LINE
  5
368B
330
17CB
100
AcDbEntity
  8
0
100
AcDbLine
 10
-98.48721298302093
 20
8.077457208786752
 30
0.0
 11
-99.45177360188811
 21
4.065819878065248
 31
0.0
  0
ELLIPSE
  5
368C
330
17CB
100
AcDbEntity
  8
0
100
AcDbEllipse
 10
-101.0818809708247
 20
5.053412867376919
 30
0.0
 11
0.0200858413762853
 21
2.795177724472413
 31
0.0
210
0.0
220
0.0
230
1.0
 40
0.6250197778053547
 41
2.089878428660925
 42
4.355766148231805
1001
GENIUS_GENODEF_13
1002
{
1000
HIER
1070
     0
1002
}
1002
{
1000
MANEDIT
1070
     0
1002
}
1002
{
1000
NOSEL
1070
     0
1002
}
1002
{
1000
BEHIND
1070
     0
1002
}
1002
{
1000
REACTOR
1002
}
1001
GENIUS_GENOBJ-N-FIL_13
1002
{
1000
OWNER
1000
GEN
1002
}
  0
LINE
  5
368D
330
17CB
100
AcDbEntity
  8
0
100
AcDbLine
 10
-98.48721298302093
 20
8.077457208786752
 30
0.0
 11
-98.66382720839389
 21
7.801834007856294
 31
0.0
  0
ELLIPSE
  5
368E
330
17CB
100
AcDbEntity
  8
0
100
AcDbEllipse
 10
-99.87931293102301
 20
9.796066964505511
 30
0.0
 11
0.0200858413762724
 21
2.795177724472415
 31
0.0
210
0.0
220
0.0
230
0.9999999999999998
 40
0.6250197778053552
 41
2.08987842866092
 42
3.922474143254961
1001
GENIUS_GENODEF_13
1002
{
1000
HIER
1070
     0
1002
}
1002
{
1000
MANEDIT
1070
     0
1002
}
1002
{
1000
NOSEL
1070
     0
1002
}
1002
{
1000
BEHIND
1070
     0
1002
}
1002
{
1000
REACTOR
1002
}
1001
GENIUS_GENOBJ-N-FIL_13
1002
{
1000
OWNER
1000
GEN
1002
}
  0
HATCH
  5
368F
330
17CB
100
AcDbEntity
  8
AM_8
100
AcDbHatch
 10
0.0
 20
0.0
 30
0.0
210
0.0
220
0.0
230
1.0
  2
SOLID
 70
     1
 71
     0
 91
        1
 92
        1
 93
        2
 72
     3
 10
-106.7638987916396
 20
4.957358478318376
 11
0.0000000000000547
 21
2.56276973145977
 40
0.8333333333333941
 50
-77.14069946214277
 51
264.4007371808275
 73
     1
 72
     3
 10
-106.7638987916396
 20
4.957358478318376
 11
-0.0000000000003928
 21
2.562769731461267
 40
0.8333333333328997
 50
264.4007371808174
 51
282.8593005378472
 73
     1
 97
        0
 75
     0
 76
     1
 98
        1
 10
65.20293740923941
 20
-32.16820874956388
1001
GENIUS_GENODEF_13
1002
{
1000
HIER
1070
     0
1002
}
1002
{
1000
MANEDIT
1070
     0
1002
}
1002
{
1000
NOSEL
1070
     0
1002
}
1002
{
1000
BEHIND
1070
     0
1002
}
1002
{
1000
REACTOR
1002
}
1001
GENIUS_GENOBJ-N-HTC_13
1002
{
1000
OWNER
1000
GEN
1002
}
1001
GENIUS_GENHATCH_13
1002
{
1000
DATA
1040
0.0
1042
0.0015799698758396
1000
SOLID
1070
     0
1011
70.0136537122014
1021
-14.7540192633455
1031
0.0
1002
}
1002
{
1000
UCS
1010
0.0
1020
0.0
1030
0.0
1010
1.0
1020
0.0
1030
0.0
1010
0.0
1020
1.0
1030
0.0
1002
}
  0
ELLIPSE
  5
3690
330
17CB
100
AcDbEntity
  8
0
100
AcDbEllipse
 10
-106.7638987916396
 20
4.957358478318417
 30
0.0
 11
0.0000000000000006
 21
2.562769731459943
 31
0.0
210
0.0
220
0.0
230
1.0
 40
0.8333333333333353
 41
-1.570796326794896
 42
4.712388980384689
  0
HATCH
  5
3691
330
17CB
100
AcDbEntity
  8
AM_8
100
AcDbHatch
 10
0.0
 20
0.0
 30
0.0
210
0.0
220
0.0
230
1.0
  2
SOLID
 70
     1
 71
     0
 91
        1
 92
        1
 93
       10
 72
     1
 10
-106.9502221859465
 20
14.71456568209311
 11
-107.7139711131768
 21
11.16237652835879
 72
     1
 10
-107.7139711131768
 20
11.16237652835879
 11
-107.6697551010108
 21
11.22470827233809
 72
     3
 10
-106.5198686826232
 20
9.133166589319488
 11
0.0200858413762859
 21
2.795177724472421
 40
0.6250197778053525
 50
-29.21280058452436
 51
47.56891328106517
 73
     0
 72
     1
 10
-104.9929922696577
 20
10.5089073790986
 11
-102.6087573837903
 21
3.677672077597827
 72
     3
 10
-101.0818809708247
 20
5.053412867376919
 11
0.0200858413762844
 21
2.79517772447242
 40
0.625019777805353
 50
132.4310867189347
 51
239.202331800838
 73
     1
 72
     1
 10
-99.45177360188809
 20
4.065819878065248
 11
-98.48721298302093
 21
8.077457208786761
 72
     1
 10
-98.48721298302095
 20
8.077457208786752
 11
-98.66382720839393
 21
7.801834007856288
 72
     3
 10
-99.87931293102301
 20
9.796066964505511
 11
0.0200858413762811
 21
2.795177724472416
 40
0.6250197778053536
 50
148.2259629226598
 51
227.5689132810653
 73
     0
 72
     1
 10
-101.4061893439886
 20
8.420326174726406
 11
-103.771619425634
 21
15.19768253871121
 72
     3
 10
-105.2984958385996
 20
13.8219417489321
 11
0.02008584137625
 21
2.795177724472417
 40
0.6250197778053583
 50
-47.56891328106589
 51
62.02409398278944
 73
     1
 97
        0
 75
     0
 76
     1
 98
        1
 10
65.20293740923941
 20
-32.16820874956388
1001
GENIUS_GENODEF_13
1002
{
1000
HIER
1070
     0
1002
}
1002
{
1000
MANEDIT
1070
     0
1002
}
1002
{
1000
NOSEL
1070
     0
1002
}
1002
{
1000
BEHIND
1070
     0
1002
}
1002
{
1000
REACTOR
1002
}
1001
GENIUS_GENOBJ-N-HTC_13
1002
{
1000
OWNER
1000
GEN
1002
}
1001
GENIUS_GENHATCH_13
1002
{
1000
DATA
1040
0.0
1042
0.0015799698758396
1000
SOLID
1070
     0
1011
74.07735655451816
1021
-11.90112763631223
1031
0.0
1002
}
1002
{
1000
UCS
1010
0.0
1020
0.0
1030
0.0
1010
1.0
1020
0.0
1030
0.0
1010
0.0
1020
1.0
1030
0.0
1002
}
  0
LINE
  5
3692
330
17CB
100
AcDbEntity
  8
0
100
AcDbLine
 10
-104.9929922696577
 20
10.5089073790986
 30
0.0
 11
-102.6087573837903
 21
3.677672077597847
 31
0.0
  0
LINE
  5
3693
330
17CB
100
AcDbEntity
  8
0
100
AcDbLine
 10
-101.4061893439886
 20
8.420326174726406
 30
0.0
 11
-103.771619425634
 21
15.1976825387112
 31
0.0
  0
TEXT
  5
3694
330
17CB
100
AcDbEntity
  8
0
100
AcDbText
 10
-92.04358977334541
 20
2.736280326823534
 30
0.0
 40
1.397647058823528
  1
ASOH　CO., LTD.
 41
2.222222222222219
  7
ｽﾀｲﾙ1
100
AcDbText
1001
GENIUS_GENTRA_14
1002
{
1070
     1
1000
/
1000
ASOH　CO., LTD.
1000
JPN
1070
     0
1040
2.222222222222219
1070
     0
1002
}
  0
TEXT
  5
3695
330
17CB
100
AcDbEntity
  8
0
100
AcDbText
 10
-96.37601713265375
 20
7.065690057310197
 30
0.0
 40
9.355420606948992
  1
アソー株式会社
 41
0.4444444444444381
  7
ｽﾀｲﾙ1
100
AcDbText
  0
ATTDEF
  5
3696
330
17CB
100
AcDbEntity
  8
AM_BOR
 62
     2
100
AcDbText
 10
-100.6087961583518
 20
20.29902073441097
 30
0.0
 40
3.0
  1
水 田
 72
     4
 11
-94.50320560717072
 21
21.79902073441097
 31
0.0
100
AcDbAttributeDefinition
  3
設計
  2
SEKKEI
 70
     0
  0
ATTDEF
  5
3697
330
17CB
100
AcDbEntity
  8
AM_BOR
 62
     2
100
AcDbText
 10
-101.5824602549398
 20
27.05583171251668
 30
0.0
 40
3.0
  1
水 田
 72
     4
 11
-93.8418697037587
 21
28.55583171251668
 31
0.0
100
AcDbAttributeDefinition
  3
承認
  2
SYOUNIN
 70
     0
  0
ATTDEF
  5
3698
330
17CB
100
AcDbEntity
  8
AM_BOR
 62
     2
100
AcDbText
 10
-74.6993697037587
 20
27.05583171251668
 30
0.0
 40
3.0
  1
水 田
 72
     4
 11
-68.8418697037587
 21
28.55583171251668
 31
0.0
100
AcDbAttributeDefinition
  3
検図
  2
KENZU
 70
     0
  0
ATTDEF
  5
3699
330
17CB
100
AcDbEntity
  8
AM_BOR
 62
     2
100
AcDbText
 10
-34.75927375716205
 20
26.23523221998006
 30
0.0
 40
2.5
  1

 72
     4
 11
-28.88427375716205
 21
27.48523221998006
 31
0.0
100
AcDbAttributeDefinition
  3
材質
  2
ZAISITU
 70
     0
  0
ATTDEF
  5
369A
330
17CB
100
AcDbEntity
  8
AM_BOR
 62
     2
100
AcDbText
 10
-33.26552375716205
 20
19.24352515660298
 30
0.0
 40
2.5
  1

 72
     4
 11
-28.88427375716205
 21
20.49352515660299
 31
0.0
100
AcDbAttributeDefinition
  3
備考
  2
BIKOU
 70
     0
  0
ENDBLK
  5
1800
330
17CB
100
AcDbEntity
  8
0
100
AcDbBlockEnd
  0
BLOCK
  5
2347
330
2338
100
AcDbEntity
  8
0
100
AcDbBlockBegin
  2
AA-4-T
 70
     0
 10
0.0
 20
0.0
 30
0.0
  3
AA-4-T
  1

  0
LWPOLYLINE
  5
2339
330
2338
100
AcDbEntity
  8
AM_BOR
 62
   231
100
AcDbPolyline
 90
        4
 70
     1
 43
0.0
 10
8.002617961236467
 20
203.1037272854516
 10
8.00261796123641
 20
8.003727285451702
 10
289.0026179612364
 20
8.003727285451589
 10
289.0026179612364
 20
203.1037272854516
1001
GENIUS_GENREC_14
1002
{
1000
PYDIR
1011
289.0026179612364
1021
203.1037272854517
1031
0.0
1002
}
1002
{
1000
PXDIR
1011
8.00261796123641
1021
8.003727285451702
1031
0.0
1002
}
1002
{
1000
PORI
1011
8.002617961236467
1021
203.1037272854516
1031
0.0
1002
}
1002
{
1000
PINS
1011
8.002617961236467
1021
203.1037272854516
1031
0.0
1002
}
1002
{
1000
HVAL
1000
281
1002
}
1002
{
1000
H
1070
     2
1002
}
1002
{
1000
WVAL
1000
183
1002
}
1002
{
1000
W
1070
     2
1002
}
1002
{
1000
C
1070
     1
1002
}
1001
GENIUS_GENODEF_13
1002
{
1000
HIER
1070
     0
1002
}
1002
{
1000
MANEDIT
1070
     0
1002
}
1002
{
1000
NOSEL
1070
     0
1002
}
1002
{
1000
BEHIND
1070
     0
1002
}
1002
{
1000
REACTOR
1002
}
1001
GENIUS_GENOBJ-N-REC_13
1002
{
1000
OWNER
1000
GEN
1002
}
  0
TEXT
  5
233A
330
2338
100
AcDbEntity
  8
AM_BOR
 60
     1
100
AcDbText
 10
297.0
 20
209.9999999999999
 30
0.0
 40
5.0
  1
!GENTITLE-MAX
100
AcDbText
  0
LINE
  5
233B
330
2338
100
AcDbEntity
  8
AM_BOR
100
AcDbLine
 10
0.0000000000000568
 20
210.0
 30
0.0
 11
0.0000000000000568
 21
195.0
 31
0.0
1001
GENIUS_GENREC_14
1002
{
1000
PYDIR
1011
297.0
1021
209.9999999999999
1031
0.0
1002
}
1002
{
1000
PXDIR
1011
0.0
1021
0.0
1031
0.0
1002
}
1002
{
1000
PORI
1011
0.0000000000000568
1021
210.0
1031
0.0
1002
}
1002
{
1000
PINS
1011
0.0000000000000568
1021
210.0
1031
0.0
1002
}
1002
{
1000
HVAL
1000
297
1002
}
1002
{
1000
H
1070
     2
1002
}
1002
{
1000
WVAL
1000
210
1002
}
1002
{
1000
W
1070
     2
1002
}
1002
{
1000
C
1070
     1
1002
}
1001
GENIUS_GENODEF_13
1002
{
1000
HIER
1070
     0
1002
}
1002
{
1000
MANEDIT
1070
     0
1002
}
1002
{
1000
NOSEL
1070
     0
1002
}
1002
{
1000
BEHIND
1070
     0
1002
}
1002
{
1000
REACTOR
1002
}
1001
GENIUS_GENOBJ-N-REC_13
1002
{
1000
OWNER
1000
GEN
1002
}
  0
LINE
  5
233C
330
2338
100
AcDbEntity
  8
AM_BOR
100
AcDbLine
 10
0.0
 20
0.0
 30
0.0
 11
15.0
 21
0.0
 31
0.0
1001
GENIUS_GENREC_14
1002
{
1000
PYDIR
1011
297.0
1021
209.9999999999999
1031
0.0
1002
}
1002
{
1000
PXDIR
1011
0.0
1021
0.0
1031
0.0
1002
}
1002
{
1000
PORI
1011
0.0000000000000568
1021
210.0
1031
0.0
1002
}
1002
{
1000
PINS
1011
0.0000000000000568
1021
210.0
1031
0.0
1002
}
1002
{
1000
HVAL
1000
297
1002
}
1002
{
1000
H
1070
     2
1002
}
1002
{
1000
WVAL
1000
210
1002
}
1002
{
1000
W
1070
     2
1002
}
1002
{
1000
C
1070
     1
1002
}
1001
GENIUS_GENODEF_13
1002
{
1000
HIER
1070
     0
1002
}
1002
{
1000
MANEDIT
1070
     0
1002
}
1002
{
1000
NOSEL
1070
     0
1002
}
1002
{
1000
BEHIND
1070
     0
1002
}
1002
{
1000
REACTOR
1002
}
1001
GENIUS_GENOBJ-N-REC_13
1002
{
1000
OWNER
1000
GEN
1002
}
  0
LINE
  5
233D
330
2338
100
AcDbEntity
  8
AM_BOR
100
AcDbLine
 10
297.0
 20
-0.0000000000000568
 30
0.0
 11
297.0
 21
14.99999999999994
 31
0.0
1001
GENIUS_GENREC_14
1002
{
1000
PYDIR
1011
297.0
1021
209.9999999999999
1031
0.0
1002
}
1002
{
1000
PXDIR
1011
0.0
1021
0.0
1031
0.0
1002
}
1002
{
1000
PORI
1011
0.0000000000000568
1021
210.0
1031
0.0
1002
}
1002
{
1000
PINS
1011
0.0000000000000568
1021
210.0
1031
0.0
1002
}
1002
{
1000
HVAL
1000
297
1002
}
1002
{
1000
H
1070
     2
1002
}
1002
{
1000
WVAL
1000
210
1002
}
1002
{
1000
W
1070
     2
1002
}
1002
{
1000
C
1070
     1
1002
}
1001
GENIUS_GENODEF_13
1002
{
1000
HIER
1070
     0
1002
}
1002
{
1000
MANEDIT
1070
     0
1002
}
1002
{
1000
NOSEL
1070
     0
1002
}
1002
{
1000
BEHIND
1070
     0
1002
}
1002
{
1000
REACTOR
1002
}
1001
GENIUS_GENOBJ-N-REC_13
1002
{
1000
OWNER
1000
GEN
1002
}
  0
LINE
  5
233E
330
2338
100
AcDbEntity
  8
AM_BOR
100
AcDbLine
 10
297.0
 20
209.9999999999999
 30
0.0
 11
282.0
 21
209.9999999999999
 31
0.0
1001
GENIUS_GENREC_14
1002
{
1000
PYDIR
1011
297.0
1021
209.9999999999999
1031
0.0
1002
}
1002
{
1000
PXDIR
1011
0.0
1021
0.0
1031
0.0
1002
}
1002
{
1000
PORI
1011
0.0000000000000568
1021
210.0
1031
0.0
1002
}
1002
{
1000
PINS
1011
0.0000000000000568
1021
210.0
1031
0.0
1002
}
1002
{
1000
HVAL
1000
297
1002
}
1002
{
1000
H
1070
     2
1002
}
1002
{
1000
WVAL
1000
210
1002
}
1002
{
1000
W
1070
     2
1002
}
1002
{
1000
C
1070
     1
1002
}
1001
GENIUS_GENODEF_13
1002
{
1000
HIER
1070
     0
1002
}
1002
{
1000
MANEDIT
1070
     0
1002
}
1002
{
1000
NOSEL
1070
     0
1002
}
1002
{
1000
BEHIND
1070
     0
1002
}
1002
{
1000
REACTOR
1002
}
1001
GENIUS_GENOBJ-N-REC_13
1002
{
1000
OWNER
1000
GEN
1002
}
  0
LINE
  5
233F
330
2338
100
AcDbEntity
  8
AM_BOR
100
AcDbLine
 10
15.00000000000006
 20
210.0
 30
0.0
 11
0.0000000000000568
 21
210.0
 31
0.0
1001
GENIUS_GENREC_14
1002
{
1000
PYDIR
1011
297.0
1021
209.9999999999999
1031
0.0
1002
}
1002
{
1000
PXDIR
1011
0.0
1021
0.0
1031
0.0
1002
}
1002
{
1000
PORI
1011
0.0000000000000568
1021
210.0
1031
0.0
1002
}
1002
{
1000
PINS
1011
0.0000000000000568
1021
210.0
1031
0.0
1002
}
1002
{
1000
HVAL
1000
297
1002
}
1002
{
1000
H
1070
     2
1002
}
1002
{
1000
WVAL
1000
210
1002
}
1002
{
1000
W
1070
     2
1002
}
1002
{
1000
C
1070
     1
1002
}
1001
GENIUS_GENODEF_13
1002
{
1000
HIER
1070
     0
1002
}
1002
{
1000
MANEDIT
1070
     0
1002
}
1002
{
1000
NOSEL
1070
     0
1002
}
1002
{
1000
BEHIND
1070
     0
1002
}
1002
{
1000
REACTOR
1002
}
1001
GENIUS_GENOBJ-N-REC_13
1002
{
1000
OWNER
1000
GEN
1002
}
  0
LINE
  5
2340
330
2338
100
AcDbEntity
  8
AM_BOR
100
AcDbLine
 10
297.0
 20
194.9999999999999
 30
0.0
 11
297.0
 21
209.9999999999999
 31
0.0
1001
GENIUS_GENREC_14
1002
{
1000
PYDIR
1011
297.0
1021
209.9999999999999
1031
0.0
1002
}
1002
{
1000
PXDIR
1011
0.0
1021
0.0
1031
0.0
1002
}
1002
{
1000
PORI
1011
0.0000000000000568
1021
210.0
1031
0.0
1002
}
1002
{
1000
PINS
1011
0.0000000000000568
1021
210.0
1031
0.0
1002
}
1002
{
1000
HVAL
1000
297
1002
}
1002
{
1000
H
1070
     2
1002
}
1002
{
1000
WVAL
1000
210
1002
}
1002
{
1000
W
1070
     2
1002
}
1002
{
1000
C
1070
     1
1002
}
1001
GENIUS_GENODEF_13
1002
{
1000
HIER
1070
     0
1002
}
1002
{
1000
MANEDIT
1070
     0
1002
}
1002
{
1000
NOSEL
1070
     0
1002
}
1002
{
1000
BEHIND
1070
     0
1002
}
1002
{
1000
REACTOR
1002
}
1001
GENIUS_GENOBJ-N-REC_13
1002
{
1000
OWNER
1000
GEN
1002
}
  0
LINE
  5
2341
330
2338
100
AcDbEntity
  8
AM_BOR
100
AcDbLine
 10
282.0
 20
-0.0000000000000568
 30
0.0
 11
297.0
 21
-0.0000000000000568
 31
0.0
1001
GENIUS_GENREC_14
1002
{
1000
PYDIR
1011
297.0
1021
209.9999999999999
1031
0.0
1002
}
1002
{
1000
PXDIR
1011
0.0
1021
0.0
1031
0.0
1002
}
1002
{
1000
PORI
1011
0.0000000000000568
1021
210.0
1031
0.0
1002
}
1002
{
1000
PINS
1011
0.0000000000000568
1021
210.0
1031
0.0
1002
}
1002
{
1000
HVAL
1000
297
1002
}
1002
{
1000
H
1070
     2
1002
}
1002
{
1000
WVAL
1000
210
1002
}
1002
{
1000
W
1070
     2
1002
}
1002
{
1000
C
1070
     1
1002
}
1001
GENIUS_GENODEF_13
1002
{
1000
HIER
1070
     0
1002
}
1002
{
1000
MANEDIT
1070
     0
1002
}
1002
{
1000
NOSEL
1070
     0
1002
}
1002
{
1000
BEHIND
1070
     0
1002
}
1002
{
1000
REACTOR
1002
}
1001
GENIUS_GENOBJ-N-REC_13
1002
{
1000
OWNER
1000
GEN
1002
}
  0
LINE
  5
2342
330
2338
100
AcDbEntity
  8
AM_BOR
100
AcDbLine
 10
0.0
 20
15.0
 30
0.0
 11
0.0
 21
0.0
 31
0.0
1001
GENIUS_GENREC_14
1002
{
1000
PYDIR
1011
297.0
1021
209.9999999999999
1031
0.0
1002
}
1002
{
1000
PXDIR
1011
0.0
1021
0.0
1031
0.0
1002
}
1002
{
1000
PORI
1011
0.0000000000000568
1021
210.0
1031
0.0
1002
}
1002
{
1000
PINS
1011
0.0000000000000568
1021
210.0
1031
0.0
1002
}
1002
{
1000
HVAL
1000
297
1002
}
1002
{
1000
H
1070
     2
1002
}
1002
{
1000
WVAL
1000
210
1002
}
1002
{
1000
W
1070
     2
1002
}
1002
{
1000
C
1070
     1
1002
}
1001
GENIUS_GENODEF_13
1002
{
1000
HIER
1070
     0
1002
}
1002
{
1000
MANEDIT
1070
     0
1002
}
1002
{
1000
NOSEL
1070
     0
1002
}
1002
{
1000
BEHIND
1070
     0
1002
}
1002
{
1000
REACTOR
1002
}
1001
GENIUS_GENOBJ-N-REC_13
1002
{
1000
OWNER
1000
GEN
1002
}
  0
TEXT
  5
2343
330
2338
100
AcDbEntity
  8
AM_0
 60
     1
100
AcDbText
 10
289.0026179612364
 20
203.1037272854516
 30
0.0
 40
5.0
  1
!GENTITLE-RU
100
AcDbText
  0
TEXT
  5
2344
330
2338
100
AcDbEntity
  8
AM_0
 60
     1
100
AcDbText
 10
8.002617961236445
 20
8.003727285451702
 30
0.0
 40
5.0
  1
!GENTITLE-LL
100
AcDbText
  0
TEXT
  5
2345
330
2338
100
AcDbEntity
  8
AM_0
 60
     1
100
AcDbText
 10
289.0026179612364
 20
8.00372728545159
 30
0.0
 40
5.0
  1
!GENTITLE-INSERT
100
AcDbText
  0
ENDBLK
  5
2348
330
2338
100
AcDbEntity
  8
0
100
AcDbBlockEnd
  0
BLOCK
  5
26C2
330
26BB
100
AcDbEntity
  8
0
100
AcDbBlockBegin
  2
A$C5E5C0B32
 70
     0
 10
0.0
 20
0.0
 30
0.0
  3
A$C5E5C0B32
  1

  0
LINE
  5
26BC
330
26BB
100
AcDbEntity
  8
AM_0
100
AcDbLine
 10
-22.0
 20
0.0
 30
0.0
 11
-22.0
 21
1.399999999999977
 31
0.0
  0
TEXT
  5
26BD
330
26BB
100
AcDbEntity
  8
AM_0
100
AcDbText
 10
-13.09049871388294
 20
0.2907587704690684
 30
0.0
 40
0.6000000000000001
  1
23　ｇ
100
AcDbText
  0
LINE
  5
26BE
330
26BB
100
AcDbEntity
  8
AM_0
100
AcDbLine
 10
-16.0
 20
0.0
 30
0.0
 11
-16.0
 21
1.399999999999977
 31
0.0
  0
TEXT
  5
26BF
330
26BB
100
AcDbEntity
  8
AM_0
100
AcDbText
 10
-20.58781833897677
 20
0.2907587704690684
 30
0.0
 40
0.6000000000000001
  1
製品重量
100
AcDbText
  0
LINE
  5
26C0
330
26BB
100
AcDbEntity
  8
AM_0
100
AcDbLine
 10
-22.0
 20
1.399999999999977
 30
0.0
 11
0.0
 21
1.399999999999977
 31
0.0
1001
GENIUS_GENREC_14
1002
{
1000
PYDIR
1011
-220.5503776517968
1021
-69.45820015589473
1031
0.0
1002
}
1002
{
1000
PXDIR
1011
-176.5503776517967
1021
-85.4582001558947
1031
0.0
1002
}
1002
{
1000
PORI
1011
-220.5503776517968
1021
-85.4582001558947
1031
0.0
1002
}
1002
{
1000
PINS
1011
-220.5503776517968
1021
-85.4582001558947
1031
0.0
1002
}
1002
{
1000
HVAL
1000
40
1002
}
1002
{
1000
H
1070
     2
1002
}
1002
{
1000
WVAL
1000
110
1002
}
1002
{
1000
W
1070
     2
1002
}
1002
{
1000
C
1070
     1
1002
}
1001
GENIUS_GENODEF_13
1002
{
1000
HIER
1070
     0
1002
}
1002
{
1000
MANEDIT
1070
     0
1002
}
1002
{
1000
NOSEL
1070
     0
1002
}
1002
{
1000
BEHIND
1070
     0
1002
}
1002
{
1000
REACTOR
1002
}
1001
GENIUS_GENOBJ-N-REC_13
1002
{
1000
OWNER
1000
GEN
1002
}
  0
ENDBLK
  5
26C3
330
26BB
100
AcDbEntity
  8
0
100
AcDbBlockEnd
  0
BLOCK
  5
33D0
330
33CC
100
AcDbEntity
  8
0
100
AcDbBlockBegin
  2
A$C092A22FE
 70
     0
 10
0.0
 20
0.0
 30
0.0
  3
A$C092A22FE
  1

  0
MTEXT
  5
33CD
102
{ACAD_XDICTIONARY
360
51A4
102
}
330
33CC
100
AcDbEntity
  8
0
100
AcDbMText
 10
-32.50000000000006
 20
11.44960213362574
 30
0.0
 40
1.3
 41
1.0
 71
     1
 72
     5
  1
{\C2; 紀}
 73
     1
 44
0.6
1001
ACAD
1000
ACAD_MTEXT_COLUMN_INFO_BEGIN
1070
    75
1070
     2
1070
    79
1070
     0
1070
    76
1070
     1
1070
    78
1070
     0
1070
    48
1040
1.0
1070
    49
1040
7.5
1070
    50
1070
     1
1040
1.004156779586395
1000
ACAD_MTEXT_COLUMN_INFO_END
1000
MTEXTBEGIN
1070
    73
1070
     1
1070
    44
1040
0.6
1070
    74
1070
     0
1000
MTEXTEND
  0
ENDBLK
  5
33D1
330
33CC
100
AcDbEntity
  8
0
100
AcDbBlockEnd
  0
BLOCK
  5
4498
330
4497
100
AcDbEntity
  8
0
100
AcDbBlockBegin
  2
*D13
 70
     1
 10
0.0
 20
0.0
 30
0.0
  3
*D13
  1

  0
LINE
  5
4DF7
330
4497
100
AcDbEntity
  8
AM_5
  6
ByBlock
100
AcDbLine
 10
238.717622901857
 20
186.7556276197274
 30
0.0
 11
241.0310131880012
 21
186.7556276197274
 31
0.0
  0
LINE
  5
4DF8
330
4497
100
AcDbEntity
  8
AM_5
  6
ByBlock
100
AcDbLine
 10
238.717622901857
 20
176.6556276197274
 30
0.0
 11
241.0310131880012
 21
176.6556276197274
 31
0.0
  0
LINE
  5
4DF9
330
4497
100
AcDbEntity
  8
AM_5
  6
ByBlock
100
AcDbLine
 10
240.8310131880012
 20
186.2556276197274
 30
0.0
 11
240.8310131880012
 21
177.1556276197274
 31
0.0
  0
INSERT
  5
4DFA
330
4497
100
AcDbEntity
  8
AM_5
100
AcDbBlockReference
  2
_Open30
 10
240.8310131880012
 20
186.7556276197274
 30
0.0
 41
0.5
 42
0.5
 43
0.5
 50
90.0
  0
INSERT
  5
4DFB
330
4497
100
AcDbEntity
  8
AM_5
100
AcDbBlockReference
  2
_Open30
 10
240.8310131880012
 20
176.6556276197274
 30
0.0
 41
0.5
 42
0.5
 43
0.5
 50
270.0
  0
MTEXT
  5
4DFC
330
4497
100
AcDbEntity
  8
AM_5
 62
     2
100
AcDbMText
 10
240.1810131880012
 20
181.7056276197274
 30
0.0
 40
0.7000000000000001
 41
0.0
 71
     5
 72
     1
  1
%%C10
 11
0.0000000000000001
 21
1.0
 31
0.0
 73
     1
 44
1.0
1001
ACAD
1000
MTEXTBEGIN
1070
    73
1070
     1
1070
    44
1040
1.0
1070
    74
1070
     0
1000
MTEXTEND
  0
POINT
  5
4DFD
330
4497
100
AcDbEntity
  8
Defpoints
 62
     0
100
AcDbPoint
 10
238.5176229018569
 20
186.7556276197274
 30
0.0
  0
POINT
  5
4DFE
330
4497
100
AcDbEntity
  8
Defpoints
 62
     0
100
AcDbPoint
 10
238.5176229018569
 20
176.6556276197274
 30
0.0
  0
POINT
  5
4DFF
330
4497
100
AcDbEntity
  8
Defpoints
 62
     0
100
AcDbPoint
 10
240.8310131880012
 20
176.6556276197274
 30
0.0
  0
ENDBLK
  5
4499
330
4497
100
AcDbEntity
  8
0
100
AcDbBlockEnd
  0
BLOCK
  5
44A6
330
44A5
100
AcDbEntity
  8
0
100
AcDbBlockBegin
  2
*D14
 70
     1
 10
0.0
 20
0.0
 30
0.0
  3
*D14
  1

  0
LINE
  5
4AD3
330
44A5
100
AcDbEntity
  8
AM_5
  6
ByBlock
100
AcDbLine
 10
245.39679019503
 20
181.9056276197274
 30
0.0
 11
245.39679019503
 21
190.3022377449944
 31
0.0
  0
LINE
  5
4AD4
330
44A5
100
AcDbEntity
  8
AM_5
  6
ByBlock
100
AcDbLine
 10
258.39679019503
 20
181.9056276197274
 30
0.0
 11
258.39679019503
 21
190.3022377449944
 31
0.0
  0
LINE
  5
4AD5
330
44A5
100
AcDbEntity
  8
AM_5
  6
ByBlock
100
AcDbLine
 10
245.89679019503
 20
190.1022377449944
 30
0.0
 11
257.89679019503
 21
190.1022377449944
 31
0.0
  0
INSERT
  5
4AD6
330
44A5
100
AcDbEntity
  8
AM_5
100
AcDbBlockReference
  2
_Open30
 10
245.39679019503
 20
190.1022377449944
 30
0.0
 41
0.5
 42
0.5
 43
0.5
 50
180.0
  0
INSERT
  5
4AD7
330
44A5
100
AcDbEntity
  8
AM_5
100
AcDbBlockReference
  2
_Open30
 10
258.39679019503
 20
190.1022377449944
 30
0.0
 41
0.5
 42
0.5
 43
0.5
  0
MTEXT
  5
4AD8
330
44A5
100
AcDbEntity
  8
AM_5
 62
     2
100
AcDbMText
 10
251.89679019503
 20
190.7522377449944
 30
0.0
 40
0.7000000000000001
 41
0.0
 71
     5
 72
     1
  1
%%c13
 73
     1
 44
1.0
1001
ACAD
1000
MTEXTBEGIN
1070
    73
1070
     1
1070
    44
1040
1.0
1070
    74
1070
     0
1000
MTEXTEND
  0
POINT
  5
4AD9
330
44A5
100
AcDbEntity
  8
Defpoints
 62
     0
100
AcDbPoint
 10
245.39679019503
 20
181.7056276197274
 30
0.0
  0
POINT
  5
4ADA
330
44A5
100
AcDbEntity
  8
Defpoints
 62
     0
100
AcDbPoint
 10
258.39679019503
 20
181.7056276197274
 30
0.0
  0
POINT
  5
4ADB
330
44A5
100
AcDbEntity
  8
Defpoints
 62
     0
100
AcDbPoint
 10
258.39679019503
 20
190.1022377449944
 30
0.0
  0
ENDBLK
  5
44A7
330
44A5
100
AcDbEntity
  8
0
100
AcDbBlockEnd
  0
BLOCK
  5
44B2
330
44B1
100
AcDbEntity
  8
0
100
AcDbBlockBegin
  2
*D15
 70
     1
 10
0.0
 20
0.0
 30
0.0
  3
*D15
  1

  0
LINE
  5
4CB8
330
44B1
100
AcDbEntity
  8
AM_5
  6
ByBlock
100
AcDbLine
 10
229.5176229018569
 20
194.2354808891342
 30
0.0
 11
229.5176229018569
 21
190.9256943747591
 31
0.0
  0
LINE
  5
4CB9
330
44B1
100
AcDbEntity
  8
AM_5
  6
ByBlock
100
AcDbLine
 10
238.5176229018569
 20
194.2354808891342
 30
0.0
 11
238.5176229018569
 21
190.9256943747591
 31
0.0
  0
LINE
  5
4CBA
330
44B1
100
AcDbEntity
  8
AM_5
  6
ByBlock
100
AcDbLine
 10
230.0176229018569
 20
191.125694374759
 30
0.0
 11
238.0176229018569
 21
191.125694374759
 31
0.0
  0
INSERT
  5
4CBB
330
44B1
100
AcDbEntity
  8
AM_5
100
AcDbBlockReference
  2
_Open30
 10
229.5176229018569
 20
191.125694374759
 30
0.0
 41
0.5
 42
0.5
 43
0.5
 50
180.0
  0
INSERT
  5
4CBC
330
44B1
100
AcDbEntity
  8
AM_5
100
AcDbBlockReference
  2
_Open30
 10
238.5176229018569
 20
191.125694374759
 30
0.0
 41
0.5
 42
0.5
 43
0.5
  0
MTEXT
  5
4CBD
330
44B1
100
AcDbEntity
  8
AM_5
 62
     2
100
AcDbMText
 10
234.0176229018569
 20
191.775694374759
 30
0.0
 40
0.7000000000000001
 41
0.0
 71
     5
 72
     1
  1
9
 73
     1
 44
1.0
1001
ACAD
1000
MTEXTBEGIN
1070
    73
1070
     1
1070
    44
1040
1.0
1070
    74
1070
     0
1000
MTEXTEND
  0
POINT
  5
4CBE
330
44B1
100
AcDbEntity
  8
Defpoints
 62
     0
100
AcDbPoint
 10
229.5176229018569
 20
194.4354808891342
 30
0.0
  0
POINT
  5
4CBF
330
44B1
100
AcDbEntity
  8
Defpoints
 62
     0
100
AcDbPoint
 10
238.5176229018569
 20
194.4354808891342
 30
0.0
  0
POINT
  5
4CC0
330
44B1
100
AcDbEntity
  8
Defpoints
 62
     0
100
AcDbPoint
 10
238.5176229018569
 20
191.125694374759
 30
0.0
  0
ENDBLK
  5
44B3
330
44B1
100
AcDbEntity
  8
0
100
AcDbBlockEnd
  0
ENDSEC
  0
SECTION
  2
ENTITIES
  0
LINE
  5
49CE
330
1F
100
AcDbEntity
  8
AM_7
100
AcDbLine
 10
234.0176229018569
 20
206.7442808891342
 30
0.0
 11
234.0176229018569
 21
192.6266808891341
 31
0.0
1001
GENIUS_GENODEF_13
1002
{
1000
HIER
1070
     0
1002
}
1002
{
1000
MANEDIT
1070
     0
1002
}
1002
{
1000
NOSEL
1070
     0
1002
}
1002
{
1000
BEHIND
1070
     0
1002
}
1002
{
1000
OTHER
1070
     0
1002
}
1002
{
1000
REACTOR
1002
}
1001
GENIUS_GENOBJ-N-CEN_13
1002
{
1000
OWNER
1000
GEN
1002
}
1001
GENIUS_GENCEN_19
1002
{
1040
0.5588000000000001
1002
}
  0
LINE
  5
49D8
330
1F
100
AcDbEntity
  8
AM_7
100
AcDbLine
 10
234.0176229018569
 20
188.7644276197274
 30
0.0
 11
234.0176229018569
 21
174.6468276197274
 31
0.0
1001
GENIUS_GENOBJ-N-CEN_13
1002
{
1000
OWNER
1000
GEN
1002
}
1001
GENIUS_GENODEF_13
1002
{
1000
HIER
1070
     0
1002
}
1002
{
1000
MANEDIT
1070
     0
1002
}
1002
{
1000
NOSEL
1070
     0
1002
}
1002
{
1000
BEHIND
1070
     0
1002
}
1002
{
1000
OTHER
1070
     0
1002
}
1002
{
1000
REACTOR
1002
}
1001
GENIUS_GENCEN_19
1002
{
1040
0.5588000000000001
1002
}
  0
LINE
  5
4A07
330
1F
100
AcDbEntity
  8
AM_7
100
AcDbLine
 10
251.89679019503
 20
188.7644276197274
 30
0.0
 11
251.89679019503
 21
174.6468276197274
 31
0.0
1001
GENIUS_GENODEF_13
1002
{
1000
HIER
1070
     0
1002
}
1002
{
1000
MANEDIT
1070
     0
1002
}
1002
{
1000
NOSEL
1070
     0
1002
}
1002
{
1000
BEHIND
1070
     0
1002
}
1002
{
1000
OTHER
1070
     0
1002
}
1002
{
1000
REACTOR
1002
}
1001
GENIUS_GENOBJ-N-CEN_13
1002
{
1000
OWNER
1000
GEN
1002
}
1001
GENIUS_GENCEN_19
1002
{
1040
0.5588000000000001
1002
}
  0
LINE
  5
4A23
330
1F
100
AcDbEntity
  8
AM_7
100
AcDbLine
 10
244.83799019503
 20
181.7056276197274
 30
0.0
 11
258.95559019503
 21
181.7056276197274
 31
0.0
1001
GENIUS_GENODEF_13
1002
{
1000
HIER
1070
     0
1002
}
1002
{
1000
MANEDIT
1070
     0
1002
}
1002
{
1000
NOSEL
1070
     0
1002
}
1002
{
1000
BEHIND
1070
     0
1002
}
1002
{
1000
OTHER
1070
     0
1002
}
1002
{
1000
REACTOR
1002
}
1001
GENIUS_GENOBJ-N-CEN_13
1002
{
1000
OWNER
1000
GEN
1002
}
1001
GENIUS_GENCEN_19
1002
{
1040
0.5588000000000001
1002
}
  0
LINE
  5
4AF7
330
1F
100
AcDbEntity
  8
AM_7
100
AcDbLine
 10
228.9588229018569
 20
199.6854808891342
 30
0.0
 11
239.0764229018569
 21
199.6854808891342
 31
0.0
1001
GENIUS_GENOBJ-N-CEN_13
1002
{
1000
OWNER
1000
GEN
1002
}
1001
GENIUS_GENODEF_13
1002
{
1000
HIER
1070
     0
1002
}
1002
{
1000
MANEDIT
1070
     0
1002
}
1002
{
1000
NOSEL
1070
     0
1002
}
1002
{
1000
BEHIND
1070
     0
1002
}
1002
{
1000
OTHER
1070
     0
1002
}
1002
{
1000
REACTOR
1002
}
1001
GENIUS_GENCEN_19
1002
{
1040
0.5588000000000001
1002
}
  0
CIRCLE
  5
4C58
330
1F
100
AcDbEntity
  8
0
100
AcDbCircle
 10
251.89679019503
 20
181.7056276197274
 30
0.0
 40
6.499999999999992
  0
CIRCLE
  5
4C59
330
1F
100
AcDbEntity
  8
0
100
AcDbCircle
 10
251.89679019503
 20
181.7056276197274
 30
0.0
 40
5.200000000000017
  0
CIRCLE
  5
4C5A
330
1F
100
AcDbEntity
  8
0
100
AcDbCircle
 10
251.89679019503
 20
181.7056276197274
 30
0.0
 40
5.000000000000001
  0
ARC
  5
4C89
330
1F
100
AcDbEntity
  8
0
100
AcDbCircle
 10
234.0176229018569
 20
179.4803934242916
 30
0.0
 40
8.725200643917128
100
AcDbArc
 50
58.95257118824467
 51
121.0474288117553
  0
LINE
  5
4C8A
330
1F
100
AcDbEntity
  8
0
100
AcDbLine
 10
238.5176229018569
 20
181.7056276197274
 30
0.0
 11
238.5176229018569
 21
186.9556276197274
 31
0.0
  0
LINE
  5
4C8B
330
1F
100
AcDbEntity
  8
0
100
AcDbLine
 10
229.5176229018569
 20
181.7056276197274
 30
0.0
 11
229.5176229018569
 21
186.9556276197274
 31
0.0
  0
ARC
  5
4C8C
330
1F
100
AcDbEntity
  8
0
100
AcDbCircle
 10
234.0176229018569
 20
183.9308618151631
 30
0.0
 40
8.725200643917128
100
AcDbArc
 50
238.9525711882447
 51
301.0474288117553
  0
LINE
  5
4C8D
330
1F
100
AcDbEntity
  8
0
100
AcDbLine
 10
238.5176229018569
 20
181.7056276197274
 30
0.0
 11
238.5176229018569
 21
176.4556276197274
 31
0.0
  0
LINE
  5
4C8E
330
1F
100
AcDbEntity
  8
0
100
AcDbLine
 10
229.5176229018569
 20
181.7056276197274
 30
0.0
 11
229.5176229018569
 21
176.4556276197274
 31
0.0
  0
ARC
  5
4CA5
330
1F
100
AcDbEntity
  8
0
100
AcDbCircle
 10
234.0176229018569
 20
197.4602466936984
 30
0.0
 40
8.725200643917128
100
AcDbArc
 50
58.95257118824467
 51
121.0474288117553
  0
LINE
  5
4CA6
330
1F
100
AcDbEntity
  8
0
100
AcDbLine
 10
238.5176229018569
 20
199.6854808891342
 30
0.0
 11
238.5176229018569
 21
204.9354808891342
 31
0.0
  0
LINE
  5
4CA7
330
1F
100
AcDbEntity
  8
0
100
AcDbLine
 10
229.5176229018569
 20
199.6854808891342
 30
0.0
 11
229.5176229018569
 21
204.9354808891342
 31
0.0
  0
ARC
  5
4CA8
330
1F
100
AcDbEntity
  8
0
100
AcDbCircle
 10
234.0176229018569
 20
201.9107150845699
 30
0.0
 40
8.725200643917128
100
AcDbArc
 50
238.9525711882447
 51
301.0474288117553
  0
LINE
  5
4CA9
330
1F
100
AcDbEntity
  8
0
100
AcDbLine
 10
238.5176229018569
 20
199.6854808891342
 30
0.0
 11
238.5176229018569
 21
194.4354808891342
 31
0.0
  0
LINE
  5
4CAA
330
1F
100
AcDbEntity
  8
0
100
AcDbLine
 10
229.5176229018569
 20
199.6854808891342
 30
0.0
 11
229.5176229018569
 21
194.4354808891342
 31
0.0
  0
LINE
  5
4E00
330
1F
100
AcDbEntity
  8
AM_7
100
AcDbLine
 10
228.958822901857
 20
181.7056276197274
 30
0.0
 11
239.0764229018569
 21
181.7056276197274
 31
0.0
1001
GENIUS_GENODEF_13
1002
{
1000
HIER
1070
     0
1002
}
1002
{
1000
MANEDIT
1070
     0
1002
}
1002
{
1000
NOSEL
1070
     0
1002
}
1002
{
1000
BEHIND
1070
     0
1002
}
1002
{
1000
OTHER
1070
     0
1002
}
1002
{
1000
REACTOR
1002
}
1001
GENIUS_GENOBJ-N-CEN_13
1002
{
1000
OWNER
1000
GEN
1002
}
1001
GENIUS_GENCEN_19
1002
{
1040
0.5588000000000001
1002
}
  0
MTEXT
  5
5001
330
1F
100
AcDbEntity
  8
0
100
AcDbMText
 10
245.603428359925
 20
199.6854808891342
 30
0.0
 40
1.0
 41
10.89811106087842
 71
     1
 72
     5
  1
リング玉　RB-1010
 73
     1
 44
1.0
1001
ACAD
1000
ACAD_MTEXT_COLUMN_INFO_BEGIN
1070
    75
1070
     2
1070
    79
1070
     0
1070
    76
1070
     1
1070
    78
1070
     0
1070
    48
1040
10.89811106087842
1070
    49
1040
7.5
1070
    50
1070
     1
1040
0.0
1000
ACAD_MTEXT_COLUMN_INFO_END
1000
MTEXTBEGIN
1070
    73
1070
     1
1070
    44
1040
1.0
1070
    74
1070
     0
1000
MTEXTEND
  0
ENDSEC
  0
SECTION
  2
OBJECTS
  0
DICTIONARY
  5
C
330
0
100
AcDbDictionary
281
     1
  3
ACAD_2007HEADERVARS_RT
350
515D
  3
ACAD_COLOR
350
247
  3
ACAD_GROUP
350
D
  3
ACAD_LAYOUT
350
1A
  3
ACAD_MATERIAL
350
232
  3
ACAD_MLEADERSTYLE
350
2102
  3
ACAD_MLINESTYLE
350
17
  3
ACAD_PLOTSETTINGS
350
19
  3
ACAD_PLOTSTYLENAME
350
E
  3
ACAD_SCALELIST
350
20F0
  3
ACAD_TABLESTYLE
350
248
  3
ACAD_VISUALSTYLE
350
236
  3
ACDB_RECOMPOSE_DATA
350
515B
  3
AcDbVariableDictionary
350
34
  3
AcmDictionary
350
43
  3
AMG
350
2B
  3
AMGSNAPSETTINGS
350
74
  3
DWGPROPS
350
515C
  0
DICTIONARY
  5
CA7
330
8
100
AcDbDictionary
280
     1
281
     1
  0
DICTIONARY
  5
971
330
2
100
AcDbDictionary
280
     1
281
     1
  3
ACAD_LAYERSTATES
360
2298
  3
AMLAYER_GROUPCOLORS
360
972
  0
DICTIONARY
  5
227D
330
10
100
AcDbDictionary
280
     1
281
     1
  3
ADSK_XREC_LAYER_RECONCILED
360
227E
  0
DICTIONARY
  5
227F
330
59
100
AcDbDictionary
280
     1
281
     1
  3
ADSK_XREC_LAYER_RECONCILED
360
2280
  0
DICTIONARY
  5
2281
330
5A
100
AcDbDictionary
280
     1
281
     1
  3
ADSK_XREC_LAYER_RECONCILED
360
2282
  0
DICTIONARY
  5
2283
330
31B
100
AcDbDictionary
280
     1
281
     1
  3
ADSK_XREC_LAYER_RECONCILED
360
2284
  0
DICTIONARY
  5
2285
330
7C0
100
AcDbDictionary
280
     1
281
     1
  3
ADSK_XREC_LAYER_RECONCILED
360
2286
  0
DICTIONARY
  5
2287
330
7C1
100
AcDbDictionary
280
     1
281
     1
  3
ADSK_XREC_LAYER_RECONCILED
360
2288
  0
DICTIONARY
  5
2289
330
7C2
100
AcDbDictionary
280
     1
281
     1
  3
ADSK_XREC_LAYER_RECONCILED
360
228A
  0
DICTIONARY
  5
228B
330
7C3
100
AcDbDictionary
280
     1
281
     1
  3
ADSK_XREC_LAYER_RECONCILED
360
228C
  0
DICTIONARY
  5
228D
330
7C4
100
AcDbDictionary
280
     1
281
     1
  3
ADSK_XREC_LAYER_RECONCILED
360
228E
  0
DICTIONARY
  5
228F
330
7C5
100
AcDbDictionary
280
     1
281
     1
  3
ADSK_XREC_LAYER_RECONCILED
360
2290
  0
DICTIONARY
  5
2291
330
1264
100
AcDbDictionary
280
     1
281
     1
  3
ADSK_XREC_LAYER_RECONCILED
360
2292
  0
DICTIONARY
  5
2293
330
2276
100
AcDbDictionary
280
     1
281
     1
  3
ADSK_XREC_LAYER_RECONCILED
360
2294
  0
DICTIONARY
  5
C9
330
1F
100
AcDbDictionary
280
     1
281
     1
  3
ACAD_SORTENTS
360
97C
  0
DICTIONARY
  5
BCD
330
BBF
100
AcDbDictionary
280
     1
281
     1
  0
DICTIONARY
  5
179B
330
176D
100
AcDbDictionary
280
     1
281
     1
  0
DICTIONARY
  5
17BE
330
17BD
100
AcDbDictionary
280
     1
281
     1
  0
DICTIONARY
  5
17C3
330
17C2
100
AcDbDictionary
280
     1
281
     1
  0
DICTIONARY
  5
369B
330
17CB
100
AcDbDictionary
280
     1
281
     1
  0
DICTIONARY
  5
2346
330
2338
100
AcDbDictionary
280
     1
281
     1
  0
DICTIONARY
  5
26C1
330
26BB
100
AcDbDictionary
280
     1
281
     1
  0
DICTIONARY
  5
33CE
330
33CC
100
AcDbDictionary
280
     1
281
     1
  3
ACAD_SORTENTS
360
33CF
  0
DICTIONARY
  5
51A4
330
33CD
100
AcDbDictionary
280
     1
281
     1
  3
ACAD_MTEXT_RT
360
51A5
  0
DICTIONARY
  5
515D
102
{ACAD_REACTORS
330
C
102
}
330
C
100
AcDbDictionary
281
     1
  3
DIMARCSYM
350
515E
  3
DIMLTEX1
350
5160
  3
DIMLTEX2
350
5161
  3
DIMLTYPE
350
515F
  0
DICTIONARY
  5
247
102
{ACAD_REACTORS
330
C
102
}
330
C
100
AcDbDictionary
281
     1
  0
DICTIONARY
  5
D
102
{ACAD_REACTORS
330
C
102
}
330
C
100
AcDbDictionary
281
     1
  0
DICTIONARY
  5
1A
102
{ACAD_REACTORS
330
C
102
}
330
C
100
AcDbDictionary
281
     1
  3
Model
350
22
  3
ﾚｲｱｳﾄ1
350
1E
  3
ﾚｲｱｳﾄ2
350
26
  0
DICTIONARY
  5
232
102
{ACAD_REACTORS
330
C
102
}
330
C
100
AcDbDictionary
281
     1
  3
ByBlock
350
234
  3
ByLayer
350
233
  3
Global
350
235
  0
DICTIONARY
  5
2102
102
{ACAD_REACTORS
330
C
102
}
330
C
100
AcDbDictionary
281
     1
  3
Standard
350
2103
  0
DICTIONARY
  5
17
102
{ACAD_REACTORS
330
C
102
}
330
C
100
AcDbDictionary
281
     1
  3
Standard
350
18
  0
DICTIONARY
  5
19
102
{ACAD_REACTORS
330
C
102
}
330
C
100
AcDbDictionary
281
     1
  0
ACDBDICTIONARYWDFLT
  5
E
102
{ACAD_REACTORS
330
C
102
}
330
C
100
AcDbDictionary
281
     1
  3
Normal
350
F
100
AcDbDictionaryWithDefault
340
F
  0
DICTIONARY
  5
20F0
102
{ACAD_REACTORS
330
C
102
}
330
C
100
AcDbDictionary
281
     1
  3
*A1
350
3989
  3
A0
350
20F1
  3
A1
350
20F2
  3
A2
350
20F3
  3
A3
350
20F4
  3
A4
350
20F5
  3
A5
350
20F6
  3
A6
350
20F7
  3
A7
350
20F8
  3
A8
350
20F9
  3
A9
350
20FA
  3
B0
350
20FB
  3
B1
350
20FC
  3
B2
350
20FD
  3
B3
350
20FE
  3
B4
350
20FF
  3
B5
350
2100
  3
B6
350
2101
  0
DICTIONARY
  5
248
102
{ACAD_REACTORS
330
C
102
}
330
C
100
AcDbDictionary
281
     1
  3
Standard
350
249
  0
DICTIONARY
  5
236
102
{ACAD_REACTORS
330
C
102
}
330
C
100
AcDbDictionary
281
     1
  3
2dWireframe
350
23C
  3
3D Hidden
350
23E
  3
3dWireframe
350
23D
  3
Basic
350
23B
  3
Brighten
350
242
  3
ColorChange
350
246
  3
Conceptual
350
23F
  3
Dim
350
241
  3
EdgeColorOff
350
20EF
  3
Facepattern
350
245
  3
Flat
350
237
  3
FlatWithEdges
350
238
  3
Gouraud
350
239
  3
GouraudWithEdges
350
23A
  3
Hidden
350
20E7
  3
JitterOff
350
20ED
  3
Linepattern
350
244
  3
OverhangOff
350
20EE
  3
Realistic
350
240
  3
Shaded
350
20EC
  3
Shaded with edges
350
20EB
  3
Shades of Gray
350
20E8
  3
Sketchy
350
20E9
  3
Thicken
350
243
  3
Wireframe
350
20E6
  3
X-Ray
350
20EA
  0
XRECORD
  5
515B
102
{ACAD_REACTORS
330
C
102
}
330
C
100
AcDbXrecord
280
     1
 90
        1
330
249
330
33CD
330
5001
  0
DICTIONARY
  5
34
102
{ACAD_REACTORS
330
C
102
}
330
C
100
AcDbDictionary
281
     1
  3
CANNOSCALE
350
22EE
  3
CMLEADERSTYLE
350
22ED
  3
CTABLESTYLE
350
2C0
  3
DIMASSOC
350
5159
  3
EXPORTMODELSPACE
350
35C7
  3
EXPORTPAGESETUP
350
31D9
  3
INDEXCTL
350
35
  3
SORTENTS
350
5157
  3
XCLIPFRAME
350
5158
  0
DICTIONARY
  5
43
102
{ACAD_REACTORS
330
C
102
}
330
C
100
AcDbDictionary
281
     1
  3
AcmBOM
350
C4E
  3
AcmStdDictionary
350
15F
  3
AMDTSECTSYM_ARROWCOLOR
350
2A8
  0
DICTIONARY
  5
2B
102
{ACAD_REACTORS
330
C
102
}
330
C
100
AcDbDictionary
281
     1
  0
DICTIONARY
  5
74
102
{ACAD_REACTORS
330
C
102
}
330
C
100
AcDbDictionary
281
     1
  0
XRECORD
  5
515C
102
{ACAD_REACTORS
330
C
102
}
330
C
100
AcDbXrecord
280
     1
  1
DWGPROPS COOKIE
  2

  3

  4

  6

  7

  8
user
  9

300
AmdtFileType=84
301
=
302
=
303
=
304
=
305
=
306
=
307
=
308
=
309
=
 40
0.2543655902777778
 41
2454784.375539815
 42
2456127.706674838
  1

 90
        1
  0
DICTIONARY
  5
2298
102
{ACAD_REACTORS
330
971
102
}
330
971
100
AcDbDictionary
281
     1
  0
DICTIONARY
  5
972
102
{ACAD_REACTORS
330
971
102
}
330
971
100
AcDbDictionary
280
     1
281
     1
  0
XRECORD
  5
227E
102
{ACAD_REACTORS
330
227D
102
}
330
227D
100
AcDbXrecord
280
     1
290
     1
  0
XRECORD
  5
2280
102
{ACAD_REACTORS
330
227F
102
}
330
227F
100
AcDbXrecord
280
     1
290
     1
  0
XRECORD
  5
2282
102
{ACAD_REACTORS
330
2281
102
}
330
2281
100
AcDbXrecord
280
     1
290
     1
  0
XRECORD
  5
2284
102
{ACAD_REACTORS
330
2283
102
}
330
2283
100
AcDbXrecord
280
     1
290
     1
  0
XRECORD
  5
2286
102
{ACAD_REACTORS
330
2285
102
}
330
2285
100
AcDbXrecord
280
     1
290
     1
  0
XRECORD
  5
2288
102
{ACAD_REACTORS
330
2287
102
}
330
2287
100
AcDbXrecord
280
     1
290
     1
  0
XRECORD
  5
228A
102
{ACAD_REACTORS
330
2289
102
}
330
2289
100
AcDbXrecord
280
     1
290
     1
  0
XRECORD
  5
228C
102
{ACAD_REACTORS
330
228B
102
}
330
228B
100
AcDbXrecord
280
     1
290
     1
  0
XRECORD
  5
228E
102
{ACAD_REACTORS
330
228D
102
}
330
228D
100
AcDbXrecord
280
     1
290
     1
  0
XRECORD
  5
2290
102
{ACAD_REACTORS
330
228F
102
}
330
228F
100
AcDbXrecord
280
     1
290
     1
  0
XRECORD
  5
2292
102
{ACAD_REACTORS
330
2291
102
}
330
2291
100
AcDbXrecord
280
     1
290
     1
  0
XRECORD
  5
2294
102
{ACAD_REACTORS
330
2293
102
}
330
2293
100
AcDbXrecord
280
     1
290
     1
  0
SORTENTSTABLE
  5
97C
102
{ACAD_REACTORS
330
C9
102
}
330
C9
100
AcDbSortentsTable
330
1F
331
4AF7
  5
4C4B
331
4A23
  5
4C4A
331
49D8
  5
4B5B
331
49CE
  5
4B5A
331
4A07
  5
4C49
  0
SORTENTSTABLE
  5
33CF
102
{ACAD_REACTORS
330
33CE
102
}
330
33CE
100
AcDbSortentsTable
330
33CC
  0
XRECORD
  5
51A5
102
{ACAD_REACTORS
330
51A4
102
}
330
51A4
100
AcDbXrecord
280
     1
 40
2085.0
  1
\pi0.033333;{\C2;紀}
  0
XRECORD
  5
515E
102
{ACAD_REACTORS
330
515D
102
}
330
515D
100
AcDbXrecord
280
     1
 70
     1
  0
XRECORD
  5
5160
102
{ACAD_REACTORS
330
515D
102
}
330
515D
100
AcDbXrecord
280
     1
340
14
  0
XRECORD
  5
5161
102
{ACAD_REACTORS
330
515D
102
}
330
515D
100
AcDbXrecord
280
     1
340
14
  0
XRECORD
  5
515F
102
{ACAD_REACTORS
330
515D
102
}
330
515D
100
AcDbXrecord
280
     1
340
14
  0
LAYOUT
  5
22
102
{ACAD_XDICTIONARY
360
229D
102
}
102
{ACAD_REACTORS
330
1A
102
}
330
1A
100
AcDbPlotSettings
  1

  2
RICOH imagio MP 5000 RPCS
  4
A4
  6
AM_VIEW1
 40
5.873749732971191
 41
5.873747825622558
 42
5.873748779296875
 43
5.873748779296875
 44
209.9733276367187
 45
296.9259948730469
 46
-5.89669788807862
 47
-5.924345617080064
 48
0.0
 49
0.0
140
0.0
141
0.0
142
5.0
143
1.0
 70
 11940
 72
     1
 73
     1
 74
     1
  7
IMAGIO.ctb
 75
    27
147
2.0
148
-222.7673583688223
149
-167.1094955552526
100
AcDbLayout
  1
Model
 70
     1
 71
     0
 10
0.0
 20
0.0
 11
12.0
 21
9.0
 12
0.0
 22
0.0
 32
0.0
 14
0.0
 24
0.0
 34
0.0
 15
0.0
 25
0.0
 35
0.0
146
0.0
 13
0.0
 23
0.0
 33
0.0
 16
1.0
 26
0.0
 36
0.0
 17
0.0
 27
1.0
 37
0.0
 76
     0
330
1F
331
230
1001
ACAD_PSEXT
1000
RICOH imagio MP 5000 RPCS
1000
RICOH imagio MP 5000 RPCS
1000
IP_192.168.1.151
1000
RPCS Driver (Windows 2000/XP/Server 2003/2008/Vista/7)
1070
     0
  0
LAYOUT
  5
1E
102
{ACAD_XDICTIONARY
360
5162
102
}
102
{ACAD_REACTORS
330
1A
102
}
330
1A
100
AcDbPlotSettings
  1

  2
MF2730
  4

  6

 40
0.0
 41
0.0
 42
0.0
 43
0.0
 44
0.0
 45
0.0
 46
0.0
 47
0.0
 48
0.0
 49
0.0
140
0.0
141
0.0
142
1.0
143
1.0
 70
   688
 72
     0
 73
     0
 74
     5
  7
IMAGIO.ctb
 75
    16
147
1.0
148
0.0
149
0.0
100
AcDbLayout
  1
ﾚｲｱｳﾄ1
 70
     1
 71
     1
 10
0.0
 20
0.0
 11
420.0
 21
297.0
 12
0.0
 22
0.0
 32
0.0
 14
1.000000000000000E+20
 24
1.000000000000000E+20
 34
1.000000000000000E+20
 15
-1.000000000000000E+20
 25
-1.000000000000000E+20
 35
-1.000000000000000E+20
146
0.0
 13
0.0
 23
0.0
 33
0.0
 16
1.0
 26
0.0
 36
0.0
 17
0.0
 27
1.0
 37
0.0
 76
     0
330
1B
  0
LAYOUT
  5
26
102
{ACAD_XDICTIONARY
360
5165
102
}
102
{ACAD_REACTORS
330
1A
102
}
330
1A
100
AcDbPlotSettings
  1

  2
MF2730
  4

  6

 40
0.0
 41
0.0
 42
0.0
 43
0.0
 44
0.0
 45
0.0
 46
0.0
 47
0.0
 48
0.0
 49
0.0
140
0.0
141
0.0
142
1.0
143
1.0
 70
   688
 72
     0
 73
     0
 74
     5
  7
IMAGIO.ctb
 75
    16
147
1.0
148
0.0
149
0.0
100
AcDbLayout
  1
ﾚｲｱｳﾄ2
 70
     1
 71
     2
 10
0.0
 20
0.0
 11
12.0
 21
9.0
 12
0.0
 22
0.0
 32
0.0
 14
0.0
 24
0.0
 34
0.0
 15
0.0
 25
0.0
 35
0.0
146
0.0
 13
0.0
 23
0.0
 33
0.0
 16
1.0
 26
0.0
 36
0.0
 17
0.0
 27
1.0
 37
0.0
 76
     0
330
23
  0
MATERIAL
  5
234
102
{ACAD_XDICTIONARY
360
5169
102
}
102
{ACAD_REACTORS
330
232
102
}
330
232
100
AcDbMaterial
  1
ByBlock
 73
     1
 78
     1
172
     1
176
     1
270
     1
274
     1
  0
MATERIAL
  5
233
102
{ACAD_XDICTIONARY
360
5167
102
}
102
{ACAD_REACTORS
330
232
102
}
330
232
100
AcDbMaterial
  1
ByLayer
 73
     1
 78
     1
172
     1
176
     1
270
     1
274
     1
  0
MATERIAL
  5
235
102
{ACAD_XDICTIONARY
360
516B
102
}
102
{ACAD_REACTORS
330
232
102
}
330
232
100
AcDbMaterial
  1
Global
 73
     1
 78
     1
172
     1
176
     1
270
     1
274
     1
  0
MLEADERSTYLE
  5
2103
102
{ACAD_REACTORS
330
2102
102
}
330
2102
100
AcDbMLeaderStyle
170
     2
171
     1
172
     0
 90
        2
 40
0.0
 41
0.0
173
     1
 91
-1056964608
340
14
 92
       -2
290
     1
 42
2.0
291
     1
 43
0.36
  3
Standard
 44
4.0
300

342
11
174
     1
178
     6
175
     1
176
     0
 93
-1056964608
 45
4.0
292
     0
297
     0
 46
4.0
 94
-1056964608
 47
1.0
 49
1.0
140
1.0
293
     1
141
0.0
294
     1
177
     0
142
1.0
295
     0
296
     0
143
0.125
1001
ACAD_MLEADERVER
1070
     2
  0
MLINESTYLE
  5
18
102
{ACAD_REACTORS
330
17
102
}
330
17
100
AcDbMlineStyle
  2
STANDARD
 70
     0
  3

 62
   256
 51
90.0
 52
90.0
 71
     2
 49
0.5
 62
   256
  6
BYLAYER
 49
-0.5
 62
   256
  6
BYLAYER
  0
ACDBPLACEHOLDER
  5
F
102
{ACAD_REACTORS
330
E
102
}
330
E
  0
SCALE
  5
3989
102
{ACAD_REACTORS
330
20F0
102
}
330
20F0
100
AcDbScale
 70
     0
300
5:1
140
5.0
141
1.0
290
     0
  0
SCALE
  5
20F1
102
{ACAD_REACTORS
330
20F0
102
}
330
20F0
100
AcDbScale
 70
     0
300
1:1
140
1.0
141
1.0
290
     1
  0
SCALE
  5
20F2
102
{ACAD_REACTORS
330
20F0
102
}
330
20F0
100
AcDbScale
 70
     0
300
1:2
140
1.0
141
2.0
290
     0
  0
SCALE
  5
20F3
102
{ACAD_REACTORS
330
20F0
102
}
330
20F0
100
AcDbScale
 70
     0
300
1:4
140
1.0
141
4.0
290
     0
  0
SCALE
  5
20F4
102
{ACAD_REACTORS
330
20F0
102
}
330
20F0
100
AcDbScale
 70
     0
300
1:5
140
1.0
141
5.0
290
     0
  0
SCALE
  5
20F5
102
{ACAD_REACTORS
330
20F0
102
}
330
20F0
100
AcDbScale
 70
     0
300
1:8
140
1.0
141
8.0
290
     0
  0
SCALE
  5
20F6
102
{ACAD_REACTORS
330
20F0
102
}
330
20F0
100
AcDbScale
 70
     0
300
1:10
140
1.0
141
10.0
290
     0
  0
SCALE
  5
20F7
102
{ACAD_REACTORS
330
20F0
102
}
330
20F0
100
AcDbScale
 70
     0
300
1:16
140
1.0
141
16.0
290
     0
  0
SCALE
  5
20F8
102
{ACAD_REACTORS
330
20F0
102
}
330
20F0
100
AcDbScale
 70
     0
300
1:20
140
1.0
141
20.0
290
     0
  0
SCALE
  5
20F9
102
{ACAD_REACTORS
330
20F0
102
}
330
20F0
100
AcDbScale
 70
     0
300
1:30
140
1.0
141
30.0
290
     0
  0
SCALE
  5
20FA
102
{ACAD_REACTORS
330
20F0
102
}
330
20F0
100
AcDbScale
 70
     0
300
1:40
140
1.0
141
40.0
290
     0
  0
SCALE
  5
20FB
102
{ACAD_REACTORS
330
20F0
102
}
330
20F0
100
AcDbScale
 70
     0
300
1:50
140
1.0
141
50.0
290
     0
  0
SCALE
  5
20FC
102
{ACAD_REACTORS
330
20F0
102
}
330
20F0
100
AcDbScale
 70
     0
300
1:100
140
1.0
141
100.0
290
     0
  0
SCALE
  5
20FD
102
{ACAD_REACTORS
330
20F0
102
}
330
20F0
100
AcDbScale
 70
     0
300
2:1
140
2.0
141
1.0
290
     0
  0
SCALE
  5
20FE
102
{ACAD_REACTORS
330
20F0
102
}
330
20F0
100
AcDbScale
 70
     0
300
4:1
140
4.0
141
1.0
290
     0
  0
SCALE
  5
20FF
102
{ACAD_REACTORS
330
20F0
102
}
330
20F0
100
AcDbScale
 70
     0
300
8:1
140
8.0
141
1.0
290
     0
  0
SCALE
  5
2100
102
{ACAD_REACTORS
330
20F0
102
}
330
20F0
100
AcDbScale
 70
     0
300
10:1
140
10.0
141
1.0
290
     0
  0
SCALE
  5
2101
102
{ACAD_REACTORS
330
20F0
102
}
330
20F0
100
AcDbScale
 70
     0
300
100:1
140
100.0
141
1.0
290
     0
  0
TABLESTYLE
  5
249
102
{ACAD_XDICTIONARY
360
229F
102
}
102
{ACAD_REACTORS
330
248
102
}
330
248
100
AcDbTableStyle
  3
Standard
 70
     0
 71
     0
 40
1.5
 41
1.5
280
     0
281
     0
  7
STANDARD
140
4.5
170
     2
 62
     0
 63
     7
283
     0
274
    -2
284
     1
 64
     0
275
    -2
285
     1
 65
     0
276
    -2
286
     1
 66
     0
277
    -2
287
     1
 67
     0
278
    -2
288
     1
 68
     0
279
    -2
289
     1
 69
     0
  7
STANDARD
140
6.0
170
     5
 62
     0
 63
     7
283
     0
274
    -2
284
     1
 64
     0
275
    -2
285
     1
 65
     0
276
    -2
286
     1
 66
     0
277
    -2
287
     1
 67
     0
278
    -2
288
     1
 68
     0
279
    -2
289
     1
 69
     0
  7
STANDARD
140
4.5
170
     5
 62
     0
 63
     7
283
     0
274
    -2
284
     1
 64
     0
275
    -2
285
     1
 65
     0
276
    -2
286
     1
 66
     0
277
    -2
287
     1
 67
     0
278
    -2
288
     1
 68
     0
279
    -2
289
     1
 69
     0
  0
VISUALSTYLE
  5
23C
102
{ACAD_XDICTIONARY
360
5177
102
}
102
{ACAD_REACTORS
330
236
102
}
330
236
100
AcDbVisualStyle
  2
2dWireframe
 70
     4
 71
     0
 72
     2
 73
     0
 90
        0
 40
-0.6
 41
-30.0
 62
     5
 63
     7
 74
     1
 91
        4
 64
     7
 65
   257
 75
     1
175
     1
 42
1.0
 92
        0
 66
   257
 43
1.0
 76
     1
 77
     6
 78
     2
 67
     7
 79
     5
170
     0
171
     0
290
     0
174
     0
 93
        1
 44
0.0
173
     0
291
     0
 45
0.0
1001
ACAD
1000
AcDbSavedByObjectVersion
1070
     0
  0
VISUALSTYLE
  5
23E
102
{ACAD_XDICTIONARY
360
517B
102
}
102
{ACAD_REACTORS
330
236
102
}
330
236
100
AcDbVisualStyle
  2
3D Hidden
 70
     6
 71
     1
 72
     2
 73
     2
 90
        0
 40
-0.6
 41
-30.0
 62
     5
 63
     7
 74
     2
 91
        2
 64
     7
 65
   257
 75
     2
175
     1
 42
40.0
 92
        0
 66
   257
 43
1.0
 76
     1
 77
     6
 78
     2
 67
     7
 79
     3
170
     0
171
     0
290
     0
174
     0
 93
        1
 44
0.0
173
     0
291
     0
 45
0.0
1001
ACAD
1000
AcDbSavedByObjectVersion
1070
     0
  0
VISUALSTYLE
  5
23D
102
{ACAD_XDICTIONARY
360
5179
102
}
102
{ACAD_REACTORS
330
236
102
}
330
236
100
AcDbVisualStyle
  2
3dWireframe
 70
     5
 71
     0
 72
     2
 73
     0
 90
        0
 40
-0.6
 41
-30.0
 62
     5
 63
     7
 74
     1
 91
        4
 64
     7
 65
   257
 75
     1
175
     1
 42
1.0
 92
        0
 66
   257
 43
1.0
 76
     1
 77
     6
 78
     2
 67
     7
 79
     5
170
     0
171
     0
290
     0
174
     0
 93
        1
 44
0.0
173
     0
291
     0
 45
0.0
1001
ACAD
1000
AcDbSavedByObjectVersion
1070
     0
  0
VISUALSTYLE
  5
23B
102
{ACAD_XDICTIONARY
360
5175
102
}
102
{ACAD_REACTORS
330
236
102
}
330
236
100
AcDbVisualStyle
  2
Basic
 70
     7
 71
     1
 72
     0
 73
     1
 90
        0
 40
-0.6
 41
-30.0
 62
     5
 63
     7
 74
     0
 91
        4
 64
     7
 65
   257
 75
     1
175
     1
 42
1.0
 92
        8
 66
     7
 43
1.0
 76
     1
 77
     6
 78
     2
 67
     7
 79
     5
170
     0
171
     0
290
     0
174
     0
 93
        1
 44
0.0
173
     0
291
     1
 45
0.0
1001
ACAD
1000
AcDbSavedByObjectVersion
1070
     0
  0
VISUALSTYLE
  5
242
102
{ACAD_XDICTIONARY
360
5183
102
}
102
{ACAD_REACTORS
330
236
102
}
330
236
100
AcDbVisualStyle
  2
Brighten
 70
    12
 71
     2
 72
     2
 73
     0
 90
        0
 40
-0.6
 41
-30.0
 62
     5
 63
     7
 74
     1
 91
        4
 64
     7
 65
   257
 75
     1
175
     1
 42
1.0
 92
        8
 66
     7
 43
1.0
 76
     1
 77
     6
 78
     2
 67
     7
 79
     5
170
     0
171
     0
290
     0
174
     0
 93
        1
 44
50.0
173
     0
291
     1
 45
0.0
1001
ACAD
1000
AcDbSavedByObjectVersion
1070
     0
  0
VISUALSTYLE
  5
246
102
{ACAD_XDICTIONARY
360
518B
102
}
102
{ACAD_REACTORS
330
236
102
}
330
236
100
AcDbVisualStyle
  2
ColorChange
 70
    16
 71
     2
 72
     2
 73
     3
 90
        0
 40
-0.6
 41
-30.0
 62
     5
 63
     8
 74
     1
 91
        4
 64
     7
 65
   257
 75
     1
175
     1
 42
1.0
 92
        8
 66
     8
 43
1.0
 76
     1
 77
     6
 78
     2
 67
     7
 79
     5
170
     0
171
     0
290
     0
174
     0
 93
        1
 44
0.0
173
     0
291
     1
 45
0.0
1001
ACAD
1000
AcDbSavedByObjectVersion
1070
     0
  0
VISUALSTYLE
  5
23F
102
{ACAD_XDICTIONARY
360
517D
102
}
102
{ACAD_REACTORS
330
236
102
}
330
236
100
AcDbVisualStyle
  2
Conceptual
 70
     9
 71
     3
 72
     2
 73
     0
 90
        0
 40
-0.6
 41
-30.0
 62
     5
 63
     7
 74
     2
 91
        2
 64
     7
 65
   257
 75
     1
175
     1
 42
40.0
 92
        8
 66
     7
 43
1.0
 76
     1
 77
     6
 78
     2
 67
     7
 79
     3
170
     0
171
     0
290
     0
174
     0
 93
        1
 44
0.0
173
     0
291
     0
 45
0.0
1001
ACAD
1000
AcDbSavedByObjectVersion
1070
     0
  0
VISUALSTYLE
  5
241
102
{ACAD_XDICTIONARY
360
5181
102
}
102
{ACAD_REACTORS
330
236
102
}
330
236
100
AcDbVisualStyle
  2
Dim
 70
    11
 71
     2
 72
     2
 73
     0
 90
        0
 40
-0.6
 41
-30.0
 62
     5
 63
     7
 74
     1
 91
        4
 64
     7
 65
   257
 75
     1
175
     1
 42
1.0
 92
        8
 66
     7
 43
1.0
 76
     1
 77
     6
 78
     2
 67
     7
 79
     5
170
     0
171
     0
290
     0
174
     0
 93
        1
 44
-50.0
173
     0
291
     1
 45
0.0
1001
ACAD
1000
AcDbSavedByObjectVersion
1070
     0
  0
VISUALSTYLE
  5
20EF
102
{ACAD_XDICTIONARY
360
51A0
102
}
102
{ACAD_REACTORS
330
236
102
}
330
236
100
AcDbVisualStyle
  2
EdgeColorOff
 70
    22
 71
     2
 72
     2
 73
     0
 90
        0
 40
-0.6
 41
-30.0
 62
     5
 63
     7
 74
     1
 91
        4
 64
     7
 65
   257
 75
     1
175
     1
 42
1.0
 92
        8
 66
     7
 43
1.0
 76
     1
 77
     6
 78
     2
 67
     7
 79
     5
170
     0
171
     0
290
     0
174
     0
 93
        1
 44
0.0
173
     0
291
     1
 45
0.0
1001
ACAD
1000
AcDbSavedByObjectVersion
1070
     0
  0
VISUALSTYLE
  5
245
102
{ACAD_XDICTIONARY
360
5189
102
}
102
{ACAD_REACTORS
330
236
102
}
330
236
100
AcDbVisualStyle
  2
Facepattern
 70
    15
 71
     2
 72
     2
 73
     0
 90
        0
 40
-0.6
 41
-30.0
 62
     5
 63
     7
 74
     1
 91
        4
 64
     7
 65
   257
 75
     1
175
     1
 42
1.0
 92
        8
 66
     7
 43
1.0
 76
     1
 77
     6
 78
     2
 67
     7
 79
     5
170
     0
171
     0
290
     0
174
     0
 93
        1
 44
0.0
173
     0
291
     1
 45
0.0
1001
ACAD
1000
AcDbSavedByObjectVersion
1070
     0
  0
VISUALSTYLE
  5
237
102
{ACAD_XDICTIONARY
360
516D
102
}
102
{ACAD_REACTORS
330
236
102
}
330
236
100
AcDbVisualStyle
  2
Flat
 70
     0
 71
     2
 72
     1
 73
     1
 90
        2
 40
-0.6
 41
30.0
 62
     5
 63
     7
 74
     0
 91
        4
 64
     7
 65
   257
 75
     1
175
     1
 42
1.0
 92
        8
 66
     7
 43
1.0
 76
     1
 77
     6
 78
     2
 67
     7
 79
     5
170
     0
171
     0
290
     0
174
     0
 93
       13
 44
0.0
173
     0
291
     1
 45
0.0
1001
ACAD
1000
AcDbSavedByObjectVersion
1070
     0
  0
VISUALSTYLE
  5
238
102
{ACAD_XDICTIONARY
360
516F
102
}
102
{ACAD_REACTORS
330
236
102
}
330
236
100
AcDbVisualStyle
  2
FlatWithEdges
 70
     1
 71
     2
 72
     1
 73
     1
 90
        2
 40
-0.6
 41
30.0
 62
     5
 63
     7
 74
     1
 91
        4
 64
     7
 65
   257
 75
     1
175
     1
 42
1.0
 92
        0
 66
   257
 43
1.0
 76
     1
 77
     6
 78
     2
 67
     7
 79
     5
170
     0
171
     0
290
     0
174
     0
 93
       13
 44
0.0
173
     0
291
     1
 45
0.0
1001
ACAD
1000
AcDbSavedByObjectVersion
1070
     0
  0
VISUALSTYLE
  5
239
102
{ACAD_XDICTIONARY
360
5171
102
}
102
{ACAD_REACTORS
330
236
102
}
330
236
100
AcDbVisualStyle
  2
Gouraud
 70
     2
 71
     2
 72
     2
 73
     1
 90
        2
 40
-0.6
 41
30.0
 62
     5
 63
     7
 74
     0
 91
        4
 64
     7
 65
   257
 75
     1
175
     1
 42
1.0
 92
        0
 66
     7
 43
1.0
 76
     1
 77
     6
 78
     2
 67
     7
 79
     5
170
     0
171
     0
290
     0
174
     0
 93
       13
 44
0.0
173
     0
291
     1
 45
0.0
1001
ACAD
1000
AcDbSavedByObjectVersion
1070
     0
  0
VISUALSTYLE
  5
23A
102
{ACAD_XDICTIONARY
360
5173
102
}
102
{ACAD_REACTORS
330
236
102
}
330
236
100
AcDbVisualStyle
  2
GouraudWithEdges
 70
     3
 71
     2
 72
     2
 73
     1
 90
        2
 40
-0.6
 41
30.0
 62
     5
 63
     7
 74
     1
 91
        4
 64
     7
 65
   257
 75
     1
175
     1
 42
1.0
 92
        0
 66
   257
 43
1.0
 76
     1
 77
     6
 78
     2
 67
     7
 79
     5
170
     0
171
     0
290
     0
174
     0
 93
       13
 44
0.0
173
     0
291
     1
 45
0.0
1001
ACAD
1000
AcDbSavedByObjectVersion
1070
     0
  0
VISUALSTYLE
  5
20E7
102
{ACAD_XDICTIONARY
360
5190
102
}
102
{ACAD_REACTORS
330
236
102
}
330
236
100
AcDbVisualStyle
  2
Hidden
 70
     6
 71
     1
 72
     2
 73
     2
 90
        0
 40
-0.6
 41
-30.0
 62
     5
 63
     7
 74
     2
 91
        2
 64
     7
 65
   257
 75
     2
175
     1
 42
40.0
 92
        0
 66
   257
 43
1.0
 76
     1
 77
     6
 78
     2
 67
     7
 79
     3
170
     0
171
     0
290
     0
174
     0
 93
        1
 44
0.0
173
     0
291
     0
 45
0.0
1001
ACAD
1000
AcDbSavedByObjectVersion
1070
     0
  0
VISUALSTYLE
  5
20ED
102
{ACAD_XDICTIONARY
360
519C
102
}
102
{ACAD_REACTORS
330
236
102
}
330
236
100
AcDbVisualStyle
  2
JitterOff
 70
    20
 71
     2
 72
     2
 73
     0
 90
        0
 40
-0.6
 41
-30.0
 62
     5
 63
     7
 74
     1
 91
        4
 64
     7
 65
   257
 75
     1
175
     1
 42
1.0
 92
       10
 66
     7
 43
1.0
 76
     1
 77
     6
 78
     2
 67
     7
 79
     5
170
     0
171
     0
290
     0
174
     0
 93
        1
 44
0.0
173
     0
291
     1
 45
0.0
1001
ACAD
1000
AcDbSavedByObjectVersion
1070
     0
  0
VISUALSTYLE
  5
244
102
{ACAD_XDICTIONARY
360
5187
102
}
102
{ACAD_REACTORS
330
236
102
}
330
236
100
AcDbVisualStyle
  2
Linepattern
 70
    14
 71
     2
 72
     2
 73
     0
 90
        0
 40
-0.6
 41
-30.0
 62
     5
 63
     7
 74
     1
 91
        4
 64
     7
 65
   257
 75
     7
175
     7
 42
1.0
 92
        8
 66
     7
 43
1.0
 76
     1
 77
     6
 78
     2
 67
     7
 79
     5
170
     0
171
     0
290
     0
174
     0
 93
        1
 44
0.0
173
     0
291
     1
 45
0.0
1001
ACAD
1000
AcDbSavedByObjectVersion
1070
     0
  0
VISUALSTYLE
  5
20EE
102
{ACAD_XDICTIONARY
360
519E
102
}
102
{ACAD_REACTORS
330
236
102
}
330
236
100
AcDbVisualStyle
  2
OverhangOff
 70
    21
 71
     2
 72
     2
 73
     0
 90
        0
 40
-0.6
 41
-30.0
 62
     5
 63
     7
 74
     1
 91
        4
 64
     7
 65
   257
 75
     1
175
     1
 42
1.0
 92
        9
 66
     7
 43
1.0
 76
     1
 77
     6
 78
     2
 67
     7
 79
     5
170
     0
171
     0
290
     0
174
     0
 93
        1
 44
0.0
173
     0
291
     1
 45
0.0
1001
ACAD
1000
AcDbSavedByObjectVersion
1070
     0
  0
VISUALSTYLE
  5
240
102
{ACAD_XDICTIONARY
360
517F
102
}
102
{ACAD_REACTORS
330
236
102
}
330
236
100
AcDbVisualStyle
  2
Realistic
 70
     8
 71
     2
 72
     2
 73
     0
 90
        0
 40
-0.6
 41
-30.0
 62
     5
 63
     7
 74
     1
 91
        0
 64
     7
 65
   257
 75
     1
175
     1
 42
1.0
 92
        8
 66
     8
 43
1.0
 76
     1
 77
     6
 78
     2
 67
     7
 79
     5
170
     0
171
     0
290
     0
174
     0
 93
       13
 44
0.0
173
     0
291
     0
 45
0.0
1001
ACAD
1000
AcDbSavedByObjectVersion
1070
     0
  0
VISUALSTYLE
  5
20EC
102
{ACAD_XDICTIONARY
360
519A
102
}
102
{ACAD_REACTORS
330
236
102
}
330
236
100
AcDbVisualStyle
  2
Shaded
 70
    27
 71
     2
 72
     2
 73
     1
 90
        2
 40
-0.6
 41
30.0
 62
     5
 63
     7
 74
     0
 91
        4
 64
     7
 65
   257
 75
     1
175
     1
 42
1.0
 92
        8
 66
   257
 43
1.0
 76
     1
 77
     6
 78
     2
 67
     8
 79
     3
170
     0
171
     0
290
     0
174
     0
 93
        5
 44
0.0
173
     0
291
     0
 45
0.0
1001
ACAD
1000
AcDbSavedByObjectVersion
1070
     0
  0
VISUALSTYLE
  5
20EB
102
{ACAD_XDICTIONARY
360
5198
102
}
102
{ACAD_REACTORS
330
236
102
}
330
236
100
AcDbVisualStyle
  2
Shaded with edges
 70
    26
 71
     2
 72
     2
 73
     1
 90
        2
 40
-0.6
 41
30.0
 62
     5
 63
     7
 74
     1
 91
       10
 64
     7
 65
   257
 75
     2
175
     1
 42
1.0
 92
        8
 66
   257
 43
1.0
 76
     1
 77
     6
 78
     2
 67
     7
 79
     3
170
     0
171
     0
290
     0
174
     0
 93
        5
 44
0.0
173
     0
291
     0
 45
0.0
1001
ACAD
1000
AcDbSavedByObjectVersion
1070
     0
  0
VISUALSTYLE
  5
20E8
102
{ACAD_XDICTIONARY
360
5192
102
}
102
{ACAD_REACTORS
330
236
102
}
330
236
100
AcDbVisualStyle
  2
Shades of Gray
 70
    23
 71
     2
 72
     2
 73
     3
 90
        0
 40
-0.6
 41
-30.0
 62
     5
 63
     7
 74
     2
 91
        2
 64
     7
 65
     7
 75
     1
175
     1
 42
40.0
 92
        8
 66
     7
 43
1.0
 76
     1
 77
     6
 78
     2
 67
     7
 79
     3
170
     0
171
     0
290
     0
174
     0
 93
        1
 44
0.0
173
     0
291
     0
 45
0.0
1001
ACAD
1000
AcDbSavedByObjectVersion
1070
     0
  0
VISUALSTYLE
  5
20E9
102
{ACAD_XDICTIONARY
360
5194
102
}
102
{ACAD_REACTORS
330
236
102
}
330
236
100
AcDbVisualStyle
  2
Sketchy
 70
    24
 71
     1
 72
     2
 73
     2
 90
        0
 40
-0.6
 41
-30.0
 62
     5
 63
     7
 74
     2
 91
        2
 64
     7
 65
     7
 75
     1
175
     1
 42
40.0
 92
       11
 66
     7
 43
1.0
 76
     1
 77
     6
 78
     2
 67
     7
 79
     6
170
     0
171
     0
290
     0
174
     0
 93
        1
 44
0.0
173
     0
291
     0
 45
0.0
1001
ACAD
1000
AcDbSavedByObjectVersion
1070
     0
  0
VISUALSTYLE
  5
243
102
{ACAD_XDICTIONARY
360
5185
102
}
102
{ACAD_REACTORS
330
236
102
}
330
236
100
AcDbVisualStyle
  2
Thicken
 70
    13
 71
     2
 72
     2
 73
     0
 90
        0
 40
-0.6
 41
-30.0
 62
     5
 63
     7
 74
     1
 91
        4
 64
     7
 65
   257
 75
     1
175
     1
 42
1.0
 92
       12
 66
     7
 43
1.0
 76
     1
 77
     6
 78
     2
 67
     7
 79
     5
170
     0
171
     0
290
     0
174
     0
 93
        1
 44
0.0
173
     0
291
     1
 45
0.0
1001
ACAD
1000
AcDbSavedByObjectVersion
1070
     0
  0
VISUALSTYLE
  5
20E6
102
{ACAD_XDICTIONARY
360
518E
102
}
102
{ACAD_REACTORS
330
236
102
}
330
236
100
AcDbVisualStyle
  2
Wireframe
 70
     5
 71
     0
 72
     2
 73
     0
 90
        0
 40
-0.6
 41
-30.0
 62
     5
 63
     7
 74
     1
 91
        4
 64
     7
 65
   257
 75
     1
175
     1
 42
1.0
 92
        0
 66
   257
 43
1.0
 76
     1
 77
     6
 78
     2
 67
     7
 79
     3
170
     0
171
     0
290
     0
174
     0
 93
        1
 44
0.0
173
     0
291
     0
 45
0.0
1001
ACAD
1000
AcDbSavedByObjectVersion
1070
     0
  0
VISUALSTYLE
  5
20EA
102
{ACAD_XDICTIONARY
360
5196
102
}
102
{ACAD_REACTORS
330
236
102
}
330
236
100
AcDbVisualStyle
  2
X-Ray
 70
    25
 71
     2
 72
     2
 73
     1
 90
        1
 40
0.5
 41
-30.0
 62
     5
 63
     7
 74
     1
 91
        0
 64
     7
 65
   257
 75
     1
175
     1
 42
1.0
 92
        8
 66
     7
 43
1.0
 76
     1
 77
     6
 78
     2
 67
     7
 79
     3
170
     0
171
     0
290
     0
174
     0
 93
       13
 44
0.0
173
     0
291
     0
 45
0.0
1001
ACAD
1000
AcDbSavedByObjectVersion
1070
     0
  0
DICTIONARYVAR
  5
22EE
102
{ACAD_REACTORS
330
34
102
}
330
34
100
DictionaryVariables
280
     0
  1
5:1
  0
DICTIONARYVAR
  5
22ED
102
{ACAD_REACTORS
330
34
102
}
330
34
100
DictionaryVariables
280
     0
  1
STANDARD
  0
DICTIONARYVAR
  5
2C0
102
{ACAD_REACTORS
330
34
102
}
330
34
100
DictionaryVariables
280
     0
  1
STANDARD
  0
DICTIONARYVAR
  5
5159
102
{ACAD_REACTORS
330
34
102
}
330
34
100
DictionaryVariables
280
     0
  1
2
  0
DICTIONARYVAR
  5
35C7
102
{ACAD_REACTORS
330
34
102
}
330
34
100
DictionaryVariables
280
     0
  1
1
  0
DICTIONARYVAR
  5
31D9
102
{ACAD_REACTORS
330
34
102
}
330
34
100
DictionaryVariables
280
     0
  1
1
  0
DICTIONARYVAR
  5
35
102
{ACAD_REACTORS
330
34
102
}
330
34
100
DictionaryVariables
280
     0
  1
0
  0
DICTIONARYVAR
  5
5157
102
{ACAD_REACTORS
330
34
102
}
330
34
100
DictionaryVariables
280
     0
  1
127
  0
DICTIONARYVAR
  5
5158
102
{ACAD_REACTORS
330
34
102
}
330
34
100
DictionaryVariables
280
     0
  1
0
  0
DICTIONARY
  5
C4E
102
{ACAD_REACTORS
330
43
102
}
330
43
100
AcDbDictionary
281
     1
  0
DICTIONARY
  5
15F
102
{ACAD_REACTORS
330
43
102
}
330
43
100
AcDbDictionary
281
     1
  0
XRECORD
  5
2A8
102
{ACAD_REACTORS
330
43
102
}
330
43
100
AcDbXrecord
280
     1
 90
-1023410169
  0
DICTIONARY
  5
229D
330
22
100
AcDbDictionary
280
     1
281
     1
  3
ACAD_XREC_ROUNDTRIP
360
5164
  3
AcPublish_PlotSettingsOverride
360
31E2
  3
ADSK_XREC_LAYOUTTHUMBNAIL
360
229E
  0
DICTIONARY
  5
5162
330
1E
100
AcDbDictionary
280
     1
281
     1
  3
ACAD_XREC_ROUNDTRIP
360
5163
  0
DICTIONARY
  5
5165
330
26
100
AcDbDictionary
280
     1
281
     1
  3
ACAD_XREC_ROUNDTRIP
360
5166
  0
DICTIONARY
  5
5169
330
234
100
AcDbDictionary
280
     1
281
     1
  3
ACAD_XREC_ROUNDTRIP
360
516A
  0
DICTIONARY
  5
5167
330
233
100
AcDbDictionary
280
     1
281
     1
  3
ACAD_XREC_ROUNDTRIP
360
5168
  0
DICTIONARY
  5
516B
330
235
100
AcDbDictionary
280
     1
281
     1
  3
ACAD_XREC_ROUNDTRIP
360
516C
  0
DICTIONARY
  5
229F
330
249
100
AcDbDictionary
280
     1
281
     1
  3
ACAD_ROUNDTRIP_2008_TABLESTYLE_CELLSTYLEMAP
360
515A
  3
ACAD_XREC_ROUNDTRIP
360
518D
  0
DICTIONARY
  5
5177
330
23C
100
AcDbDictionary
280
     1
281
     1
  3
ACAD_XREC_ROUNDTRIP
360
5178
  0
DICTIONARY
  5
517B
330
23E
100
AcDbDictionary
280
     1
281
     1
  3
ACAD_XREC_ROUNDTRIP
360
517C
  0
DICTIONARY
  5
5179
330
23D
100
AcDbDictionary
280
     1
281
     1
  3
ACAD_XREC_ROUNDTRIP
360
517A
  0
DICTIONARY
  5
5175
330
23B
100
AcDbDictionary
280
     1
281
     1
  3
ACAD_XREC_ROUNDTRIP
360
5176
  0
DICTIONARY
  5
5183
330
242
100
AcDbDictionary
280
     1
281
     1
  3
ACAD_XREC_ROUNDTRIP
360
5184
  0
DICTIONARY
  5
518B
330
246
100
AcDbDictionary
280
     1
281
     1
  3
ACAD_XREC_ROUNDTRIP
360
518C
  0
DICTIONARY
  5
517D
330
23F
100
AcDbDictionary
280
     1
281
     1
  3
ACAD_XREC_ROUNDTRIP
360
517E
  0
DICTIONARY
  5
5181
330
241
100
AcDbDictionary
280
     1
281
     1
  3
ACAD_XREC_ROUNDTRIP
360
5182
  0
DICTIONARY
  5
51A0
330
20EF
100
AcDbDictionary
280
     1
281
     1
  3
ACAD_XREC_ROUNDTRIP
360
51A1
  0
DICTIONARY
  5
5189
330
245
100
AcDbDictionary
280
     1
281
     1
  3
ACAD_XREC_ROUNDTRIP
360
518A
  0
DICTIONARY
  5
516D
330
237
100
AcDbDictionary
280
     1
281
     1
  3
ACAD_XREC_ROUNDTRIP
360
516E
  0
DICTIONARY
  5
516F
330
238
100
AcDbDictionary
280
     1
281
     1
  3
ACAD_XREC_ROUNDTRIP
360
5170
  0
DICTIONARY
  5
5171
330
239
100
AcDbDictionary
280
     1
281
     1
  3
ACAD_XREC_ROUNDTRIP
360
5172
  0
DICTIONARY
  5
5173
330
23A
100
AcDbDictionary
280
     1
281
     1
  3
ACAD_XREC_ROUNDTRIP
360
5174
  0
DICTIONARY
  5
5190
330
20E7
100
AcDbDictionary
280
     1
281
     1
  3
ACAD_XREC_ROUNDTRIP
360
5191
  0
DICTIONARY
  5
519C
330
20ED
100
AcDbDictionary
280
     1
281
     1
  3
ACAD_XREC_ROUNDTRIP
360
519D
  0
DICTIONARY
  5
5187
330
244
100
AcDbDictionary
280
     1
281
     1
  3
ACAD_XREC_ROUNDTRIP
360
5188
  0
DICTIONARY
  5
519E
330
20EE
100
AcDbDictionary
280
     1
281
     1
  3
ACAD_XREC_ROUNDTRIP
360
519F
  0
DICTIONARY
  5
517F
330
240
100
AcDbDictionary
280
     1
281
     1
  3
ACAD_XREC_ROUNDTRIP
360
5180
  0
DICTIONARY
  5
519A
330
20EC
100
AcDbDictionary
280
     1
281
     1
  3
ACAD_XREC_ROUNDTRIP
360
519B
  0
DICTIONARY
  5
5198
330
20EB
100
AcDbDictionary
280
     1
281
     1
  3
ACAD_XREC_ROUNDTRIP
360
5199
  0
DICTIONARY
  5
5192
330
20E8
100
AcDbDictionary
280
     1
281
     1
  3
ACAD_XREC_ROUNDTRIP
360
5193
  0
DICTIONARY
  5
5194
330
20E9
100
AcDbDictionary
280
     1
281
     1
  3
ACAD_XREC_ROUNDTRIP
360
5195
  0
DICTIONARY
  5
5185
330
243
100
AcDbDictionary
280
     1
281
     1
  3
ACAD_XREC_ROUNDTRIP
360
5186
  0
DICTIONARY
  5
518E
330
20E6
100
AcDbDictionary
280
     1
281
     1
  3
ACAD_XREC_ROUNDTRIP
360
518F
  0
DICTIONARY
  5
5196
330
20EA
100
AcDbDictionary
280
     1
281
     1
  3
ACAD_XREC_ROUNDTRIP
360
5197
  0
XRECORD
  5
5164
102
{ACAD_REACTORS
330
229D
102
}
330
229D
100
AcDbXrecord
280
     1
102
SHADEPLOT
 70
     0
102
SHADEPLOTRESLEVEL
 70
     2
102
SHADEPLOTCUSTOMDPI
 70
   300
  0
PLOTSETTINGS
  5
31E2
102
{ACAD_XDICTIONARY
360
51A2
102
}
102
{ACAD_REACTORS
330
229D
102
}
330
229D
100
AcDbPlotSettings
  1

  2
DWG To PDF.pc3
  4
ISO_full_bleed_A4_(297.00_x_210.00_MM)
  6
AM_VIEW1
 40
0.7937499880790711
 41
0.7937499880790711
 42
0.79376220703125
 43
0.7937469482421875
 44
297.0
 45
210.0
 46
-0.8073508486989453
 47
-0.8033609184645911
 48
0.0
 49
0.0
140
0.0
141
0.0
142
5.0
143
1.0
 70
 11940
 72
     1
 73
     0
 74
     1
  7
IMAGIO.ctb
 75
    27
147
2.0
148
-222.7673583688223
149
-167.1094955552526
1001
ACAD_PSEXT
1000
DWG To PDF.pc3
1000
DWG To PDF
1000
ファイル
1000

1070
     0
  0
XRECORD
  5
229E
102
{ACAD_REACTORS
330
229D
102
}
330
229D
100
AcDbXrecord
280
     1
310
28000000000100008B0000000100080000000000008B0000000000000000000000010000000000000000000000000000FFFFFF000000000000000000000000000000000000000000000000000000000000000000330000006600000099000000CC000000FF00000000330000333300006633000099330000CC330000FF3300
310
0000660000336600006666000099660000CC660000FF66000000990000339900006699000099990000CC990000FF99000000CC000033CC000066CC000099CC0000CCCC0000FFCC000000FF000033FF000066FF000099FF0000CCFF0000FFFF000000003300330033006600330099003300CC003300FF003300003333003333
310
33006633330099333300CC333300FF33330000663300336633006666330099663300CC663300FF66330000993300339933006699330099993300CC993300FF99330000CC330033CC330066CC330099CC3300CCCC3300FFCC330000FF330033FF330066FF330099FF3300CCFF3300FFFF330000006600330066006600660099
310
006600CC006600FF00660000336600333366006633660099336600CC336600FF33660000666600336666006666660099666600CC666600FF66660000996600339966006699660099996600CC996600FF99660000CC660033CC660066CC660099CC6600CCCC6600FFCC660000FF660033FF660066FF660099FF6600CCFF6600
310
FFFF660000009900330099006600990099009900CC009900FF00990000339900333399006633990099339900CC339900FF33990000669900336699006666990099669900CC669900FF66990000999900339999006699990099999900CC999900FF99990000CC990033CC990066CC990099CC9900CCCC9900FFCC990000FF99
310
0033FF990066FF990099FF9900CCFF9900FFFF99000000CC003300CC006600CC009900CC00CC00CC00FF00CC000033CC003333CC006633CC009933CC00CC33CC00FF33CC000066CC003366CC006666CC009966CC00CC66CC00FF66CC000099CC003399CC006699CC009999CC00CC99CC00FF99CC0000CCCC0033CCCC0066CC
310
CC0099CCCC00CCCCCC00FFCCCC0000FFCC0033FFCC0066FFCC0099FFCC00CCFFCC00FFFFCC000000FF003300FF006600FF009900FF00CC00FF00FF00FF000033FF003333FF006633FF009933FF00CC33FF00FF33FF000066FF003366FF006666FF009966FF00CC66FF00FF66FF000099FF003399FF006699FF009999FF00CC
310
99FF00FF99FF0000CCFF0033CCFF0066CCFF0099CCFF00CCCCFF00FFCCFF0000FFFF0033FFFF0066FFFF0099FFFF00CCFFFF00FFFFFF00000000000D0D0D001A1A1A00282828003535350043434300505050005D5D5D006B6B6B00787878008686860093939300A1A1A100AEAEAE00BBBBBB00C9C9C900D6D6D600E4E4E400
310
F1F1F100FFFFFF0000000000000000000000000000000000000000000000000000000000000000000000000000000000000000000000000000000000000000000000000000000000000000000000F5F5F5F5F5F5F5F5F5F5F50000000000000000000000000000000000000000000000000000000000000000000000000000
310
00000000000000000000000000000000000000000000000000000000000000000000000000000000000000000000000000000000000000000000000000000000000000000000000000000000000000000000000000000000000000000000000000000000000000000000000000000000000000000000000000000000000000
310
000000000000000000F5F5F5F5F5F5F5F5F5F5F5000000000000000000000000000000000000000000000000000000000000000000000000000000000000000000000000000000000000000000000000F500000000000000000000000000000000000000000000000000000000000000000000000000000000000000000000
310
00000000000000000000000000000000000000000000000000000000000000000000000000000000000000000000000000000000000000000000000000000000000000000000000000000000000000000000000000000000000000000000000000000000000000000000000000000000000000000000000000000000000000
310
000000000000000000000000000000000000000000F5000000000000000000000000000000000000000000000000000000000000000000000000000000000000000000000000000000000000000000000000F50000000000000000000000000000000000000000000000000000000000000000000000000000000000000000
310
00000000000000000000000000000000000000000000000000000000000000000000000000000000000000000000000000000000000000000000000000000000000000000000000000000000000000000000000000000000000000000000000000000000000000000000000000000000000000000000000000000000000000
310
0000000000000000000000000000000000000000000000F5000000000000000000000000000000000000000000000000000000000000000000000000000000000000000000000000000000000000000000000000F5000000000000000000000000000000000000000000000000000000000000000000000000000000000000
310
00000000000000000000000000000000000000000000000000000000000000000000000000000000000000000000000000000000000000000000000000000000000000000000000000000000000000000000000000000000000000000000000000000000000000000000000000000000000000000000000000000000000000
310
00000000000000000000000000000000000000000000000000F5000000000000000000000000000000000000000000000000000000000000000000000000000000000000000000000000000000000000000000000000F500000000000000000000000000000000000000000000000000000000000000000000000000000000
310
00000000000000000000000000000000000000000000000000000000000000000000000000000000000000000000000000000000000000000000000000000000000000000000000000000000000000000000000000000000000000000000000000000000000000000000000000000000000000000000000000000000000000
310
000000000000000000000000000000000000000000000000000000F5000000000000000000000000000000000000000000000000000000000000000000000000000000000000000000000000000000000000000000000000F50000000000000000000000000000000000000000000000000000000000000000000000000000
310
00000000000000000000000000000000000000000000000000000000000000000000000000000000000000000000000000000000000000000000000000000000000000000000000000000000000000000000000000000000000000000000000000000000000000000000000000000000000000000000000000000000000000
310
0000000000000000000000000000000000000000000000000000000000F5000000000000000000000000000000000000000000000000000000000000000000000000000000000000000000000000000000000000000000000000F500000000CECECECECECECECECECECECECECECECECECECECECECECECECECECECECECECECE
310
CECECECECECECECECECECECECECECECECECECECECECECECECECECECECECECECECECECECECECECECECECECECECECECECECECECECECECECECECECECECECECECECECECECECECECECECECECECECECECECECECECFCFCFCFCFCFCFCFCFCFCFCFCFCFCFCFCFCFCFCFCFCFCFCFCFCFCFCFCFCFCFCF0FCFCFCFCFCFCFCFCFCFCFCFCFCF
310
CFCFCFCFCFCFCFCFCFCFCFCFCFCFCFCFCFCFCFCFCFCFCFCFCFCFCF00000000F5000000000000000000000000000000000000000000000000000000000000000000000000000000000000000000000000000000000000000000000000F500000000CE0000000000000000000000000000000000000000000000000000000000
310
0000000000000000000000000000000000000000000000000000000000000000000000000000000000000000000000000000000000000000000000000000000000000000000000000000000000000000000000CFF5F50000BEBE00000000F5F5F5F5F5F5F5F5F5F5F5F5F5F5F5F5F5F5F500000F0000000000000000000000
310
00000000000000000000000000000000000000000000000000000000CF00000000F5000000000000000000000000000000000000000000000000000000000000000000000000000000000000000000000000000000000000000000000000F500000000CE000000000000000000000000000000000000000000000000000000
310
00000000000000000000000000000000000000000000000000000000000000000000000000000000000000000000000000000000000000000000000000000000000000000000000000000000000000000000000000F5F5BEF5F5BEBEBE0000000000000000000000000000000000000000000000000F000000000000F5F5F5
310
F5F5F50000F5F5F5F5F50000000000000000000000000000000000000000CF00000000F5000000000000000000000000000000000000000000000000000000000000000000000000000000000000000000000000000000000000000000000000F500000000CE00000000000000000000000000000000000000000000000000
310
000000000000000000000000000000000000000000000000000000000000000000000000000000000000000000000000000000000000000000000000000000000000000000000000000000000000000000000000000000F5BEBEF5F5BEBEBE00F5000000F500000000F5F5F5F5F5F5F5F5F5F5F5F5F5F5F5000000000000F5
310
F5F5F5F5F5F5F5F5F5F5F5F50000000000000000000000000000000000000000CF00000000F5000000000000000000000000000000000000000000000000000000000000000000000000000000000000000000000000000000000000000000000000F500000000CE0000000000000000000000000000000000000000000000
310
0000000000000000000000000000000000000000000000000000000000000000000000000000000000000000000000000000000000000000000000000000000000000000000000000000000000000000000000000000000000F5F5F5F5F5BEBEBE00F5F500F5F5F5000000F5F5F5F5F5F5F5F5F5F5F5F5F5F5F5DCDCDC00DC
310
DCF5F5F5F5F5F500F5F5F5F5F5F50000000000000000000000000000000000000000CF00000000F50000000000000000000000000000000000000000000000000000000000000000000000000000000000000000000000000000000000000000000000000000000000CE000000000000000000000000000000000000000000
310
00000000000000000000000000000000000000000000000000000000000000000000000000000000000000000000000000000000000000000000000000000000000000000000000000000000000000000000000000000000000000CFF5F5F5BEF5BEBE00F5F50000F5F5000000F5F5F5F5F5F5F5F5F5F5F5F5F5F50FDCDCDC
310
00DCDCDC0000000000000000000000000000000000000000000000000000000000000000CF00000000000000000000000000000000000000000000000000000000000000000000000000000000000000000000000000000000000000000000000000000000000000000000CE00000000000000000000000000000000000000
310
000000000000000000000000000000000000000000000000000000000000000000000000000000000000000000000000000000000000000000000000000000000000000000000000000000000000000000000000000000000000000000CF0000F5BEF500000000F5F500F5F5F5F5F5F5F5F5F5F5F5F5F5F5F5F5F5F5F50FDC
310
DCDC0FDCDC0F0F0F0F0F0F0F0F0F0F0F0F0F0F0F0F0F0F0F0F0F0F0F0F0F0F0F0F0F0F0F0F0F0F00000000000000000000000000000000000000000000000000000000000000000000000000000000000000000000000000000000000000000000000000000000000000000000CE0000000000000000000000000000000000
310
0000000000000000000000000000000000000000000000000000000000000000000000000000000000000000000000000000000000000000000000000000000000000000000000000000000000000000000000000000000000000000000000CFBEBEF5BEF500000000F5F5F5F5F5F5F5F5F5F5F5F5F5F5F5F5F5F5F5F5F5F5
310
F5000000000000000000000000000000000000000000000000000000000000000000000000000000CF00000000000000000000000000000000000000000000000000000000000000000000000000000000000000000000000000000000000000000000000000000000000000000000CE000000000000000000000000000000
310
00000000000000000000000000000000000000000000000000000000000000000000000000000000000000000000000000000000000000000000000000000000000000000000000000000000000000000000000000000000000000000000000000CF00BEBEF500000000F5F5F5F5F5F5000000F5F5F5F5F5F5F5F5F5F5F5F5
310
F5F5F500000000000000F500F5F500F500F5F5F5000000F5F5F5F50000F5F500F5F50000000000000000CF00000000000000000000000000000000000000000000000000000000000000000000000000000000000000000000000000000000000000000000000000000000000000000000CE00000000000000000000000000
310
000000000000000000000000000000000000000000000000000000000000000000000000000000000000000000000000000000000000000000000000000000000000000000000000000000000000000000000000000000000000000000000000000000CF00BEBEF500000000F5F5F5F500F5000000F5F5F5F5F5F5F5F5F5F5
310
F5F5F5F50F00000000000000F500F5F500F5F5F5F5F5000000F5F5F5F5F5F5F5F500F5F50000000000000000CF00000000000000000000000000000000000000000000000000000000000000000000000000000000000000000000000000000000000000000000000000000000000000000000CE0000000000000000000000
310
0000000000000000000000000000000000000000000000000000000000000000000000000000000000000000000000000000000000000000000000000000000000000000000000000000000000000000000000000000000000000000000000000000000000CF00BEBEF500000000000000000000000000F5F5F50000F5F500
310
F5F500F5F5F50FDCDCDC00DCDC00F500F5F500F5F5F5F5F5000000F5F5F5F500F5F5F5F5F5F50000000000000000CF00000000000000000000000000000000000000000000000000000000000000000000000000000000000000000000000000000000000000000000000000000000000000000000CE000000000000000000
310
00000000000000000000000000000000000000000000000000000000000000000000000000000000000000000000000000000000000000000000000000000000000000000000000000000000000000000000000000000000000000000000000000000000000000CF0000BE0000000000000000000000000000000000000000
310
00000000000000000FDCDCDC00DCDC000000000000000000000000000000000000000000000000000000000000000000CF00000000000000000000000000000000000000000000000000000000000000000000000000000000000000000000000000000000000000000000000000000000000000000000CE00000000000000
310
0000000000000000000000000000000000000000000000000000000000000000000000000000000000000000000000000000000000000000000000000000000000000000000000000000000000000000000000000000000000000000000000000000000000000000000F0F0F0F0F0F0F0F0F0F0F0F0F0F0F0F0F0F0F0F0F0F
310
0F0F0F0F0F0F0F0F0F0F0F0FDCDC0FDCDC0F0F0F0F0F0F0F0F0F0F0F0F0F0F0F0F0F0F0F0F0F0F0F0F0F0F0F0F0F0F0F0F0F0F00000000000000000000000000000000000000000000000000000000000000000000000000000000000000000000000000000000000000000000000000000000000000000000CE0000000000
310
0000000000000000000000000000000000000000000000000000000000000000000000000000000000000000000000000000000000000000000000000000000000000000000000000000000000000000000000000000000000000000000000000000000000000000000000CF00000000000000DCDC00DCDCDC00000F000000
310
00000000DCDCDCDCDCDCDCDC0F000000000000000000000000000000000000000000000000000000000000000000000000000000CF00000000000000000000000000000000000000000000000000000000000000000000000000000000000000000000000000000000000000000000000000000000000000000000CE000000
310
00000000000000000000000000000000000000000000000000000000000000000000000000000000000000000000000000000000000000000000000000000000000000000000000000000000000000000000000000000000000000000000000000000000000000000000000000CFDCDCDCDC000000DCDC00DCDCDC00000FDC
310
DCDCDCDC0000DCDCDCDCDCDCDCDC0FDCDCDC0000DC000000000000000000000000000000000000000000000000000000000000000000CF00000000000000000000000000000000000000000000000000000000000000000000000000000000000000000000000000000000000000000000000000000000000000000000CE00
310
000000000000000000000000000000000000000000000000000000000000000000000000000000000000000000000000000000000000000000000000000000000000000000000000000000000000000000000000000000000000000000000000000000000000000000000000000000DCDCDCDCDC000000DCDC00DCDCDC0000
310
0FDCDCDCDCDC0000DCDCDCDCDC00DCDC0FDCDCDC00DCDC000000000000000000000000000000000000000000000000000000000000000000CF00000000000000000000000000000000000000000000000000000000000000000000000000000000000000000000000000000000000000000000000000000000000000000000
310
CE00000000000000000000000000000000000000000000000000000000000000000000000000000000000000000000000000000000000000000000000000000000000000000000000000000000000000000000000000000000000000000000000000000000000000000000000000000000DCDCDCDCDC000000000000000000
310
00000FDCDCDCDCDC000000000000000000000FDCDCDC00DCDCDC0000000000000000000000000000000000000000000000000000000000000000CF0000000000000000000000000000000000000000000000000000000000000000000000000000000000000000000000000000000000000000000000000000000000000000
310
0000CE000000000000000000000000000000000000000000000000000000000000000000000000000000000000000000000000000028282828282828282828282828282828000000000000000000000000000000000000000000000000000000000000000000000000000000000000000000000F0F0F0F0F0F0F0FDCDC0FDC
310
DCDC0F0F0F0F0F0F0F0F0F0FDCDCDC0FDCDC0F0F0F0F0F0F0F0F0F0F0F0F0F0F0F0F0FDCDC0FDCDCDCDCDCDC0F0F0F0F0F0F0F0F0F0F0F0F0F0F0F0F0F000000000000000000000000000000000000000000000000000000000000000000000000000000000000000000000000000000000000000000000000000000000000
310
00000000CE0000000000000000000000000000000000000000000000000000000000000000000000000000000000000000000000000000280000DCDCDCDCDCDCDCDCDCDCDCDCDC00000000000000000000000000000000000000000000000000000000000000000000000000000000000000000000CF00000000000000DCDC
310
00DCDCDC00000F00000000000000DCDCDC00DCDC00000F0000000000000000000000000000DCDCDCDCDCDCDCDCDC00000000000000000000000000000000CF00000000000000000000000000000000000000000000000000000000000000000000000000000000000000000000000000000000000000000000000000000000
310
000000000000CE000000000000000000000000000000000000000000000000000000000000002D000000000000000000000000000000000000002800DCDCDCDCDCDCDCDCDCDCDCDCDC0000000000000000000000000000000000000000000000002D000000000000000000000000000000000000000000DCDCDCDCDC000000
310
DCDC00DCDCDC00000FDCDCDCDCDC0000DCDCDC00DCDC00000FDCDCDC00DCDCDC00000000000000DCDCDCDCDCDCDCDCDC00000000000000000000000000000000CF0000000000000000000000000000000000000000000000000000000000000000000000000000000000000000000000000000000000000000000000000000
310
0000000000000000CE000000000000000000000000000000000000000000000000000000000000002D000000000000000000000000000000000000002800DCDCDCDCDCDCDCDCDCDCDCDCDC0000000000000000000000000000000000000000000000002D000000000000000000000000000000000000000000DCDCDCDCDC00
310
000000000000000000000FDCDCDCDCDC000000000000000000000FDCDCDC00DCDC000000000000000000000000000000000000000000000000000000000000000000CF000000000000000000000000000000000000000000000000000000000000000000000000000000000000000000000000000000000000000000000000
310
00000000000000000000CE00000000000000000000000000000000000000000000000000BEF5BEF5F5BEF5BEF5BEF5F50000000000000000000000000000280000DC000000DCDC00DCDCDC000000000000000000000000000000000000000000F5F5F5F5F5F5F5F5F5F500000000000000000000000000000000000FDCDCDC
310
DC0F0F0F0F0F0F0F0F0F0F0F0FDCDCDCDCDC0F0F0F0F0F0F0F0F0F0F0FDCDCDC0FDCDCDC0F0F0F0F0F0F0F0F0F0F0F0F0F0F0F0F0F0F0F0F0F0F0F0F0F0F0F0F0F0F0F0F0F00000000000000000000000000000000000000000000000000000000000000000000000000000000000000000000000000000000000000000000
310
000000000000000000000000CE00000000000000000000000000000000000000000000BEBEF5F5BE00BE0000BE00BE00BE00BEF5F5000000000000000000000028000000000000000000000000000000000000000000000000000000000000F5F5F500000000002D00000000F5F5F50000000000000000000000000000CF00
310
00000000000000000000000000000000000F0000000000000000000000000F000000000000000000000000000F0000000000000000000000000F000000000000000000000000CF0000000000000000000000000000000000000000000000000000000000000000000000000000000000000000000000000000000000000000
310
0000000000000000000000000000CE00000000000000000000000000000000000000F5BEF500BEBE0000BE00BE002DBE00BE00BE00BE00F5BEF500000000000000000028000000000000000000000000000000000000000000000000000000F5F500000000000000002D00000000000000F5F5000000000000000000000000
310
CF0000000000000000000000000000000000000F00DCDCDCDCDCDCDCDCDCDC000F00DCDCDCDCDC0000DCDCDCDC00DCDCDCDCDCDCDCDCDC000000000FDCDCDCDCDCDCDCDCDCDCDCDCCF000000000000000000000000000000000000000000000000000000000000000000000000000000000000000000000000000000000000
310
00000000000000000000000000000000CE0000000000000000000000000000000000BEBE0000BE0000BEBE0000BE00BE2DBE0000BE00BE00BE0000BEF5F5000000000000002828000000000000000000000000000000000000000000000000F5F5000000000000000000002D000000000000000000F5F50000000000000000
310
0000CF0000000000000000000000000000000000000F00DCDCDCDCDCDCDCDCDCDC000F00DCDCDCDCDC0000DCDCDCDC000FDCDCDCDCDCDCDCDC000000000FDCDCDCDCDCDCDCDCDCDCDCDCCF00000000000000000000000000000000000000000000000000000000000000000000000000000000000000000000000000000000
310
000000000000000000000000000000000000CE00000000000000000000000000000000F500BEBE0000BE00BE00BE0000BE00BE00BE0000BE00BE00BE0000BE00BEBE000000000000280000000000000000000000000000000000000000000000F50000000000000000F5F5F5F5F5F5F5F50000000000000000F50000000000
310
00000000CF0000000000000000000000000000000000000F0000000000000000000000000F000000000000000000000000000F0000000000000000000000000F000000000000000000000000CF0000000000000000000000000000000000000000000000000000000000000000000000000000000000000000000000000000
310
0000000000000000000000000000000000000000CE00000000000000000000000000000000F5F5BEF5BEF5F5BEF5BEF5BEF5F5BEF5BEF5BEF5F5BEF5BEF5BEF5F5BEF5F528282828282828280000000000000000000000000000000000000000F5F5000000000000F5F5F5F5F5F5F5F5F5F5F5F5F5F5000000000000F5F500
310
000000000000F5CFCFCFCFCFCFCFCFCFCFCFCFCFCFCFCFCFCFF5CFCFCFCFCFCFCFCFCFCFCFCF0FCFCFCFCFF5F5CFCFCFCFCFCFCF0FCFCFCFCFCFCFCFCFCFCFCFCF0FCFCFCFCFCFCFCFCFCFCFCFCFCF000000000000000000000000000000000000000000000000000000000000000000000000000000000000000000000000
310
00000000000000000000000000000000000000000000CE00000000000000000000000000000000F500000000000000000000000000002D0000000000000000000000000000F5000000000000282800000000000000000000000000000000000000F5000000000000F5F5F5F500000000002D00000000F5F5F5F50000000000
310
00F5000000000000F5000000F5F5F5F5F5F5F5F5F5F50000000000F5000000000000000000F5F5F500F5F5F500F5F5000000000000000000000000000000000000000000000000000000000000000000CE00000000000000000000000000000000000000000000000000000000000000000000000000000000000000000000
310
000000000000000000000000000000000000000000000000CE00000000000000000000000000000000F500000000000000000000000000002D0000000000000000000000000000F50000000000002800000000000000000000000000000000000000F5000000000000F5F5F5000000000000002D000000000000F5F5F5F500
310
00000000F50000000000F5000000F5F5F5F5F5F5F5F5F5F50000000000F5000000000000000000F5F5F500F500F500F5F5000000000000000000000000000000000000000000000000000000000000000000CE0000000000000000000000000000000000000000000000000000000000000000000000000000000000000000
310
0000000000000000000000000000000000000000000000000000CE00000000000000000000000000000000F500000000000000000000000000002D0000000000000000000000000000F50000000000002800000000000000000000000000000000000000F50000000000F5F50000000000000000002D0000000000000000F5
310
00F500000000F50000000000F5000000F5F5F5F5F5F5F5F5F5F50000000000F5000000000000000000F5F50000F500F5000000000000000000000000000000000000000000000000000000000000000000000000CE000000000000000000000000000000000000000000000000000000000000000000000000000000000000
310
00000000000000000000000000000000000000000000000000000000CE00000000000000000000000000000000F500000000000000000000000000002D0000000000000000000000000000F500000000000028000000000000000000000000000000000000F50000000000F5F5000000000000000000002D00000000000000
310
0000F500F500000000F500000000F5F5F5F5F5F5F5F5F5F5F5F5F5F5F5F5F5F5F5F5F5F5F5F5F5F5F5F5F5F5F5F5F5F5F5F5F5F5F5F5F5F5F5F5F5F5F5F5F5F5F5F5F5F5F5F5F5F5F5F5F5F5F5F5F5F5F5F5F5F5F5F5F500000000000000000000000000000000000000000000000000000000000000000000000000000000
310
000000000000000000000000000000000000000000000000000000000000CE00000000000000000000000000000000F500000000000000000000000000002D0000000000000000000000000000F500000000000028000000000000000000000000000000000000F500000000F5F500000000000000000000002D0000000000
310
0000000000F500F500000000F5000000000000000000000000000000000000000000000000000000000000000000000000000000000000000000000000000000000000000000000000000000000000000000000000000000CE0000000000000000000000000000000000000000000000000000000000000000000000000000
310
0000000000000000000000000000000000000000000000000000000000000000CE00000000000000000000000000000000F500000000000000000000000000002D0000000000000000000000000000F5000000000000280000000000000000000000000000000000F500000000F5F50000000000000000000000002D000000
310
0000000000000000F5F50000000000F50000000000000000000000000000000000000000000000000000000000000000000000000000000000000000000000000000000000000000000000000000000000000000000000000000CE000000000000000000000000000000000000000000000000000000000000000000000000
310
00000000000000000000000000000000000000000000000000000000000000000000CE00000000000000000000000000000000F500000000000000000000000000002D0000000000000000000000000000F5000000000000280000000000000000000000000000000000F500000000F5000000000000000000000000002D00
310
0000000000000000000000F5F500000000F50000000000000000000000000000000000000000000000000000000000000000000000000000000000000000000000000000000000000000000000000000000000000000000000000000CE00000000000000000000000000000000000000000000000000000000000000000000
310
000000000000000000000000000000000000000000000000000000000000000000000000CE00000000000000000000000000000000F500000000000000000000000000002D0000000000000000000000000000F50000000000002800000000000000000000000000000000F500000000F50000000000000000000000000000
310
2D00000000000000000000000000F50000000000F500000000000000000000000000000000000000000000000000000000000000000000000000000000000000000000000000000000000000000000000000000000000000000000000000CE0000000000000000000000000000000000000000000000000000000000000000
310
0000000000000000000000000000000000000000000000000000000000000000000000000000CE00000000000000000000000000000000F500000000000000000000000000002D0000000000000000000000000000F50000000000002800000000000000000000000000000000F500000000F5000000000000000000000000
310
00002D00000000000000000000000000F5F500000000F500000000000000000000000000000000000000000000000000000000000000000000000000000000000000000000000000000000000000000000000000000000000000000000000000CE000000000000000000000000000000000000000000000000000000000000
310
00000000000000000000000000000000000000000000000000000000000000000000000000000000CE00000000000000000000000000000000F500000000000000000000000000002D0000000000000000000000000000F500000000000028000000000000000000000000000000F500000000F50000000000000000000000
310
000000002D0000000000000000000000000000F5F5000000F500000000000000000000000000000000000000000000000000000000000000000000000000000000000000000000000000000000000000000000000000000000000000000000000000CE00000000000000000000000000000000000000000000000000000000
310
000000000000000000000000000000000000000000000000000000000000000000000000000000000000CE00000000000000000000000000000000F500000000000000000000000000002D0000000000000000000000000000F500000000000028000000000000000000000000000000F500000000F5000000000000000000
310
0000000000002D0000000000000000000000000000F5F5000000F500000000000000000000000000000000000000000000000000000000000000000000000000000000000000000000000000000000000000000000000000000000000000000000000000CE0000000000000000000000000000000000000000000000000000
310
0000000000000000000000000000000000000000000000000000000000000000000000000000000000000000CE00000000000000000000000000000000F500000000000000000000000000002D0000000000000000000000000000F5000000000000280000000000000000000000000000F500000000F50000000000000000
310
00000000000000002D000000000000000000000000000000F500000000F5000000000000000000000000000000000000000000000000000000000000000000000000000000000000000000000000000000000000000000000000000000000000000000000000CE000000000000000000000000000000000000000000000000
310
00000000000000000000000000000000000000000000000000000000000000000000000000000000000000000000CE00000000000000000000000000000000F500000000000000000000000000002D0000000000000000000000000000F5000000000000280000000000000000000000000000F500000000F5000000000000
310
000000000000000000002D000000000000000000000000000000F500000000F5000000000000000000000000000000000000000000000000000000000000000000000000000000000000000000000000000000000000000000000000000000000000000000000000CE00000000000000000000000000000000000000000000
310
000000000000000000000000000000000000000000000000000000000000000000000000000000000000000000000000CE00000000000000000000000000000000F500000000000000000000000000002D0000000000000000000000000000F500000000DCDC280000000000000000000000000000F500000000F500000000
310
0000000000000000000000002D000000000000000000000000000000F500000000F5000000000000000000000000000000000000000000000000000000000000000000000000000000000000000000000000000000000000000000000000000000000000000000000000CE0000000000000000000000000000000000000000
310
0000000000000000000000000000000000000000000000000000000000000000000000000000000000000000000000000000CE00000000000000000000000000000000F500000000000000000000000000002D0000000000000000000000000000F5000000DCDCDC280000000000000000000000000000F500000000F50000
310
00000000000000000000000000002D000000000000000000000000000000F5F5000000F5000000000000000000000000000000000000000000000000000000000000000000000000000000000000000000000000000000000000000000000000000000000000000000000000CE000000000000000000000000000000000000
310
00000000000000000000000000000000000000000000000000000000000000000000000000000000000000000000000000000000CE00000000000000000000000000002D2D2D2D2D2D2D2D2D2D2D2D2D2D2D2D2D2D2D2D2D2D2D2D2D2D2D2D2D2D2D2D2D2D0000DC0000280000000000000000000000002D2DF52D2D2D2DF5
310
2D2D2D2D2D2D2D2D2D2D2D2D2D2D2D2D2D2D2D2D2D2D2D2D2D2D2D2D2D2D2D2DF5F52D2D2DF52D2D00000000000000000000000000000000000000000000000000000000000000000000000000000000000000000000000000000000000000000000000000000000000000000000CE00000000000000000000000000000000
310
000000000000000000000000000000000000000000000000000000000000000000000000000000000000000000000000000000000000CE00000000000000000000000000000000F500000000000000000000000000002D0000000000000000000000000000F5000000DCDCDC280000000000000000000000000000F5000000
310
00F5000000000000000000000000000000002D000000000000000000000000000000F5F5000000F5000000000000000000000000000000000000000000000000000000000000000000000000000000000000000000000000000000000000000000000000000000000000000000000000CE0000000000000000000000000000
310
0000000000000000000000000000000000000000000000000000000000000000000000000000000000000000000000000000000000000000CE00000000000000000000000000000000F500000000000000000000000000002D0000000000000000000000000000F5000000DCDCDC280000000000000000000000000000F500
310
000000F5000000000000000000000000000000002D000000000000000000000000000000F500000000F5000000000000000000000000000000000000000000000000000000000000000000000000000000000000000000000000000000000000000000000000000000000000000000000000CE000000000000000000000000
310
00000000000000000000000000000000000000000000000000000000000000000000000000000000000000000000000000000000000000000000CE00000000000000000000000000000000F500000000000000000000000000002D0000000000000000000000000000F5000000000000280000000000000000000000000000
310
F500000000F5000000000000000000000000000000002D000000000000000000000000000000F500000000F5000000000000000000000000000000000000000000000000000000000000000000000000000000000000000000000000000000000000000000000000000000000000000000000000CE00000000000000000000
310
000000000000000000000000000000000000000000000000000000000000000000000000000000000000000000000000000000000000000000000000CE00000000000000000000000000000000F500000000000000000000000000002D0000000000000000000000000000F500000000000028000000000000000000000000
310
0000F500000000F5000000000000000000000000000000002D000000000000000000000000000000F500000000F5000000000000000000000000000000000000000000000000000000000000000000000000000000000000000000000000000000000000000000000000000000000000000000000000CE0000000000000000
310
0000000000000000000000000000000000000000000000000000000000000000000000000000000000000000000000000000000000000000000000000000CE00000000000000000000000000000000F500000000000000000000000000002D0000000000000000000000000000F50000000000002800000000000000000000
310
0000000028F500000000F50000000000000000000000000000002D0000000000000000000000000000F5F500000000F5000000000000000000000000000000000000000000000000000000000000000000000000000000000000000000000000000000000000000000000000000000000000000000000000CE000000000000
310
00000000000000000000000000000000000000000000000000000000000000000000000000000000000000000000000000000000000000000000000000000000CE00000000000000000000000000000000F500000000000000000000000000002D0000000000000000000000000000F5000000000000280000000000000000
310
00000000000028F500000000F50000000000000000000000000000002D0000000000000000000000000000F5F5000000F528000000000000000000000000000000000000000000000000000000000000000000000000000000000000000000000000000000000000000000000000000000000000000000000000CE00000000
310
000000000000000000000000000000000000000000000000000000000000000000000000000000000000000000000000000000000000000000000000000000000000CE00000000000000000000000000000000F500000000000000000000000000002D0000000000000000000000000000F500000000000028000000000000
310
000000000000000028F500000000F5F500000000000000000000000000002D00000000000000000000000000F5F500000000F528000000000000000000000000000000000000000000000000000000000000000000000000000000000000000000000000000000000000000000000000000000000000000000000000CE0000
310
0000000000000000000000000000000000000000000000000000000000000000000000000000000000000000000000000000000000000000000000000000000000000000CE00000000000000000000000000000000F500000000000000000000000000002D0000000000000000000000000000F50000000000002800000000
310
000000000000000000002800F500000000F500000000000000000000000000002D00000000000000000000000000F5F500000000F528000000000000000000000000000000000000000000000000000000000000000000000000000000000000000000000000000000000000000000000000000000000000000000000000CE
310
00000000000000000000000000000000000000000000000000000000000000000000000000000000000000000000000000000000000000000000000000000000000000000000CE00000000000000000000000000000000F500000000000000000000000000002D0000000000000000000000000000F5000000000000280000
310
0000000000000000000000002800F500000000F5F5000000000000000000000000002D000000000000000000000000F5F500000000F500280000000000000000000000000000000000000000000000000000000000000000000000000000000000000000000000000000000000000000000000000000000000000000000000
310
00CE00000000000000000000000000000000000000000000000000000000000000000000000000000000000000000000000000000000000000000000000000000000000000000000CE00000000000000000000000000000000F500000000000000000000000000002D0000000000000000000000000000F500000000000028
310
0000000000000000000000000000280000F500000000F5F50000000000000000000000002D0000000000000000000000F500F500000000F50028000000000000000000000000000000000000000000000000000000000000000000000000000000000000000000000000000000000000000000000000000000000000000000
310
000000CE00000000000000000000000000000000000000000000000000000000000000000000000000000000000000000000000000000000000000000000000000000000000000000000CE00000000000000000000000000000000F500000000000000000000000000002D0000000000000000000000000000F50000000000
310
00280000000000000000000000000000280000F50000000000F50000000000000000000000002D0000000000000000000000F5F500000000F500002800000000000000000000000000000000000000000000000000000000000000000000000000000000000000000000000000000000000000000000000000000000000000
310
0000000000CE00000000000000000000000000000000000000000000000000000000000000000000000000000000000000000000000000000000000000000000000000000000000000000000CE00000000000000000000000000000000F500000000000000000000000000002D0000000000000000000000000000F5000000
310
00000028000000000000000000000000000028000000F50000000000F500000000000000000000002D00000000000000000000F5F50000000000F50000280000000000000000000000000000000000000000000000000000000000000000000000000000000000000000000000000000000000000000000000000000000000
310
00000000000000CE00000000000000000000000000000000000000000000000000000000000000000000000000000000000000000000000000000000000000000000000000000000000000000000CE00000000000000000000000000000000F500000000000000000000000000002D0000000000000000000000000000F500
310
000000000028000000000000000000000000000028000000F5000000000000F5000000000000000000002D000000000000000000F5F50000000000F500000028000000000000000000000000000000000000000000000000000000000000000000000000000000000000000000000000000000000000000000000000000000
310
000000000000000000CE00000000000000000000000000000000000000000000000000000000000000000000000000000000000000000000000000000000000000000000000000000000000000000000CE00000000000000000000000000000000F500000000000000000000000000002D0000000000000000000000000000
310
F50000000000002800000000000000000000000000002800000000F5000000000000F5F500000000000000002D00000000000000F5F5F50000000000F5000000002800000000000000000000000000000000000000000000000000000000000000000000000000000000000000000000000000000000000000000000000000
310
0000000000000000000000CE00000000000000000000000000000000000000000000000000000000000000000000000000000000000000000000000000000000000000000000000000000000000000000000CE00000000000000000000000000000000F500000000000000000000000000002D000000000000000000000000
310
0000F5000000000000282800000000000000000000000000280000000000F5000000000000F5F5F5F500000000002D00000000F5F5F5F5000000000000F50000000000280000000000000000000000000000000000000000000000000000000000000000000000000000000000000000000000000000000000000000000000
310
00000000000000000000000000CE00000000000000000000000000000000000000000000000000000000000000000000000000000000000000000000000000000000000000000000000000000000000000000000CE00000000000000000000000000000000F500000000000000000000000000002D00000000000000000000
310
00000000F500000000000028280000000000000000000000000028000000000000F5F5000000000000F5F5F5F5F5F5F5F5F5F5F5F5F5F5000000000000F5F500000000000028000000000000000000000000000000000000000000000000000000000000000000000000000000000000000000000000000000000000000000
310
000000000000000000000000000000CE00000000000000000000000000000000000000000000000000000000000000000000000000000000000000000000000000000000000000000000000000000000000000000000CE00000000000000000000000000000000BEF5F5BEF5BEF5BEF5F5BEF5BEF5BEF5F5BEF5BEF5BEF5F5
310
BEF5BEF5BEBEF5282828282828282800000000000000000000000000280000000000000000F50000000000000000F5F5F5F5F5F5F5F5F500000000000000F500000000000000002800000000000000000000000000000000000000000000000000000000000000000000000000000000000000000000000000000000000000
310
0000000000000000000000000000000000CE00000000000000000000000000000000000000000000000000000000000000000000000000000000000000000000000000000000000000000000000000000000000000000000CE0000000000000000000000000000000000BEBE00BE00BE00BE0000BE00BE00BE0000BE00BE00
310
BE0000BE00BEBEF50000000000000000000000000000000000000000000028000000000000000000F5F5000000000000000000002D000000000000000000F5F5000000000000000000280000000000000000000000000000000000000000000000000000000000000000000000000000000000000000000000000000000000
310
00000000000000000000000000000000000000CE00000000000000000000000000000000000000000000000000000000000000000000000000000000000000000000000000000000000000000000000000000000000000000000CE00000000000000000000000000000000000000F5F5BE00BE00BEBE00BE00BEBEBEBE00BE
310
00BEBEBE00F5BEF5000000000000000000000000000000000000000000000000280000000000000000000000F5F500000000000000002D00000000000000F5F5000000000000000000000028000000000000000000000000000000000000000000000000000000000000000000000000000000000000000000000000000000
310
000000000000000000000000000000000000000000CE00000000000000000000000000000000000000000000000000000000000000000000000000000000000000000000000000000000000000000000000000000000000000000000CE000000000000000000000000000000000000000000F5BEF5BE0000BE00BE002DBE00
310
BE00BEF5F5BEBE0000000000000000000000000000000000000000000000000000002800000000000000000000000000F5F5F500000000002D00000000F5F5F5000000000000000000000000002800000000000000000000000000000000000000000000000000000000000000000000000000000000000000000000000000
310
0000000000000000000000000000000000000000000000CE00000000000000000000000000000000000000000000000000000000000000000000000000000000000000000000000000000000000000000000000000000000000000000000CE00000000000000000000000000000000000000000000000000BEF5F5BEF5BEF5
310
F5BEF5BEF5BE0000000000000000000000000000000000000000000000000000000000002800000000000000000000000000000000F5F5F5F5F5F5F5F5F5F500000000000000000000000000000000280000000000000000000000000000000000000000000000000000000000000000000000000000000000000000000000
310
00000000000000000000000000000000000000000000000000CE00000000000000000000000000000000000000000000000000000000000000000000000000000000000000000000000000000000000000000000000000000000000000000000CE000000000000000000000000000000000000000000000000000000000000
310
002D000000000000000000000000000000000000000000000000000000000000000000000000280000000000000000000000000000000000000000002D000000000000000000000000000000000000000028000000000000000000000000000000000000000000000000000000000000000000000000000000000000000000
310
000000000000000000000000000000000000000000000000000000CE00000000000000000000000000000000000000000000000000000000000000000000000000000000000000000000000000000000000000000000000000000000000000000000CE00000000000000000000000000000000000000000000000000000000
310
0000002D000000000000000000000000000000000000000000000000000000000000000000000000280000000000000000000000000000000000000000002D00000000000000000000000000000000000000002800000000000000000000000000000000000000000000000000000000000000000000000000000000000000
310
0000000000000000000000000000000000000000000000000000000000CE00000000000000000000000000000000000000000000000000000000000000000000000000000000000000000000000000000000000000000000000000000000000000000000CE0000000000000000000000000000000000000000000000000000
310
00000000000000000000000000000000000000000000000000000000000000000000000000000000000028000000000000000000000000000000000000000000000000000000000000000000000000000000000000280000000000000000000000000000000000000000000000000000000000000000000000000000000000
310
00000000000000000000000000000000000000000000000000000000000000CE00000000000000000000000000000000000000000000000000000000000000000000000000000000000000000000000000000000000000000000000000000000000000000000CE000000000000000000000000000000000000000000000000
310
00000000000000000000000000000000000000000000000000000000000000000000000000000000000000002800000000000000000000000000000000000000000000000000000000000000000000000000000000000028000000000000000000000000000000000000000000000000000000000000000000000000000000
310
000000000000000000000000000000000000000000000000000000000000000000CE00000000000000000000000000000000000000000000000000000000000000000000000000000000000000000000000000000000000000000000000000000000000000000000CE00000000000000000000000000000000000000000000
310
00000000000000000000000000000000000000000000000000000000000000000000000000000000000000000000280000000000000000000000000000000000000000000000000000000000000000000000000000000000002800000000000000000000000000000000000000000000000000000000000000000000000000
310
0000000000000000000000000000000000000000000000000000000000000000000000CE00000000000000000000000000000000000000000000000000000000000000000000000000000000000000000000000000000000000000000000000000000000000000000000CE0000000000000000000000000000000000000000
310
00000000000000000000000000000000000000000000000000000000000000000000000000000000000000000000000028002800000000000000000000000000000000000000000000000000000000000000000000000000002800280000000000000000000000000000000000000000000000000000000000000000000000
310
00000000000000000000000000000000000000000000000000000000000000000000000000CE00000000000000000000000000000000000000000000000000000000000000000000000000000000000000000000000000000000000000000000000000000000000000000000CE000000000000000000000000000000000000
310
00000000000000000000000000000000000000000000000000000000000000000000000000000000000000000000000000002828282828282828282828282828282828282828282828282828282828282828282828282828282828282828000000000000000000000000000000000000000000000000000000000000000000
310
000000000000000000000000000000000000000000000000000000000000000000000000000000CE00000000000000000000000000000000000000000000000000000000000000000000000000000000000000000000000000000000000000000000000000000000000000000000CE00000000000000000000000000000000
310
000000000000000000000000000000000000000000000000000000000000000000000000000000000000000000000000000000000000000000000000000000000000000000000000DCDCDCDCDC0000000000000000000000000000000000000000000000000000000000000000000000000000000000000000000000000000
310
0000000000000000000000000000000000000000000000000000000000000000000000000000000000CE00000000000000000000000000000000000000000000000000000000000000000000000000000000000000000000000000000000000000000000000000000000000000000000CE0000000000000000000000000000
310
0000280028000000000000000000000000000000000000000000000000002800280000000000000000000000000000000000000000000000000000000000000000000000000000000000DCDCDCDCDC000000000000000000000000000000000000000000000000000000000000000000000000000000000000000000000000
310
00000000000000000000000000000000000000000000000000000000000000000000000000000000000000CE00000000000000000000000000000000000000000000000000000000000000000000000000000000000000000000000000000000000000000000000000000000000000000000CE000000000000000000000000
310
0000000028282828282828282828282828282828282828282828282828282828282828000000000000000000000000000000000000000000000000000000000000000000000000000000000000DCDCDCDC00000000000000000000000000000000000000000000000000000000000000000000000000000000000000000000
310
000000000000000000000000000000000000000000000000000000000000000000000000000000000000000000CE00000000000000000000000000000000000000000000000000000000000000000000000000000000000000000000000000000000000000000000000000000000000000000000CE00000000000000000000
310
000000000000280000000000000000000000000000DC000000000000000000000000000028000000000000000000000000000000000000000000000000000000000000000000000000000000000000000000000000000000000000000000000000000000000000000000000000000000000000000000000000000000000000
310
0000000000000000000000000000000000000000000000000000000000000000000000000000000000000000000000CE00000000000000000000000000000000000000000000000000000000000000000000000000000000000000000000000000000000000000000000000000000000000000000000CE0000000000000000
310
00000000000000002800000000000000000000000000DCDC00000000000000000000000000002800000000000000000000000000000000000000000000000000000000000000000000000000000000000000000000000000000000000000000000000000000000000000000000000000000000000000000000000000000000
310
00000000000000000000000000000000000000000000000000000000000000000000000000000000000000000000000000CE00000000000000000000000000000000000000000000000000000000000000000000000000000000000000000000000000000000000000000000000000000000000000000000CE000000000000
310
000000000000000000002800000000000000000000000000DCDC0000000000000000000000000000280000000000000000000000000000000000000000000000000000000000000000000000000000000000000000000000000000000000000000000000000000000000000000000000000000000000000000000000000000
310
000000000000000000000000000000000000000000000000000000000000000000000000000000000000000000000000000000CE00000000000000000000000000000000000000000000000000000000000000000000000000000000000000000000000000000000000000000000000000000000000000000000CE00000000
310
00000000000000000000000028000000000000000000000000000000000000000000000000000000000028000000000000000000000000000000000000000000000000000000000000000000000000000000000000000000000000000000000000000000000000000000000000000000000000000000000000000000000000
310
0000000000000000000000000000000000000000000000000000000000000000000000000000000000000000000000000000000000CE00000000000000000000000000000000000000000000000000000000000000000000000000000000000000000000000000000000000000000000000000000000000000000000CE0000
310
00000000000000000000000000002800000000000000000000000000002D00000000000000000000000000002800000000000000000000000000000000000000000000000000000000000000000000000000000000000000000000000000000000000000000000000000000000000000000000000000000000000000000000
310
00000000000000000000000000000000000000000000000000000000000000000000000000000000000000000000000000000000000000CE00000000000000000000000000000000000000000000000000000000000000000000000000000000000000000000000000000000000000000000000000000000000000000000CE
310
000000000000000000000000000000002800000000000000000000000000002D0000000000000000000000000000280000000000000000000000000000000000000000000000000000000000000000000000000000000000000000000000000000000000000000000000000000000000000000000000000000000000000000
310
000000000000000000000000000000000000000000000000000000000000000000000000000000000000000000000000000000000000000000CE000000000000000000000000000000000000000000000000000000000000000000000000000000000000000000000000000000000000000000000000000000000000000000
310
00CE0000000000000000000000000000000028000000000000000000F5F5F5F5F5F5F5F5F5F5F500000000000000000028000000000000000000000000000000000000000000000000000000000000000000000000000000000000000000000000000000000000000000000000000000000000000000000000000000000000
310
0000000000000000000000000000000000000000000000000000000000000000000000000000000000000000000000000000000000000000000000CE00000000000000000000000000000000000000000000000000000000000000000000000000000000000000000000000000000000000000000000000000000000000000
310
000000CE00000000000000000000000000000000280000000000F5F5F5F500000000002D0000000000F5F5F50000000000002800000000000000000000000000000000000000000000000000000000000000000000000000000000000000000000000000000000000000000000000000000000000000000000000000000000
310
00000000000000000000000000000000000000000000000000000000000000000000000000000000000000000000000000000000000000000000000000CE0000000000000000000000000000000000000000000000000000000000000000000000000000000000000000000000000000000000000000000000000000000000
310
0000000000CE00000000000000000000000000000000280000F5F5F50000000000000000002D0000000000000000F5F5F5000000280000000000000000000000000000000000000000000000000000000000000000000000000000000000000000000000000000000000000000000000000000000000000000000000000000
310
000000000000000000000000000000000000000000000000000000000000000000000000000000000000000000000000000000000000000000000000000000CE000000000000000000000000000000000000000000000000000000000000000000000000000000000000000000000000000000000000000000000000000000
310
00000000000000CE0000000000000000000000000000000028F5F50000000000000000000000002D0000000000000000000000F5F50028000000000000000000000000000000000000000000000000000000000000000000000000000000000000000000000000000000000000000000000000000000000000000000000000
310
0000000000000000000000000000000000000000000000000000000000000000000000000000000000000000000000000000000000000000000000000000000000CE00000000000000000000000000000000000000000000000000000000000000000000000000000000000000000000000000000000000000000000000000
310
000000000000000000CE00000000000000000000000000000000F500000000000000000000000000002D00000000000000000000000000F5F500000000000000000000000000000000000000000000000000000000000000000000000000000000000000000000000000000000000000000000000000000000000000000000
310
00000000000000000000000000000000000000000000000000000000000000000000000000000000000000000000000000000000000000000000000000000000000000CE0000000000000000000000000000000000000000000000000000000000000000000000000000000000000000000000000000000000000000000000
310
0000000000000000000000CE00000000000000000000000000000000F500000000000000000000000000002D0000000000000000000000000000F50000000000000000000000000000000000000000000000000000000000000000000000000000000000000000000000000000000000000000000000000000000000000000
310
000000000000000000000000000000000000000000000000000000000000000000000000000000000000000000000000000000000000000000000000000000000000000000CE000000000000000000000000000000000000000000000000000000000000000000000000000000000000000000000000000000000000000000
310
00000000000000000000000000CE00000000000000000000000000000000F500000000000000000000000000002D0000000000000000000000000000F5000000000000000000000000000000000000000000000000000000000000000000000000000000000000000000000000000000000000000000000000000000000000
310
0000000000000000000000000000000000000000000000000000000000000000000000000000000000000000000000000000000000000000000000000000000000000000000000CE00000000000000000000000000000000000000000000000000000000000000000000000000000000000000000000000000000000000000
310
000000000000000000000000000000CE00000000000000000000000000000000F500000000000000000000000000002D0000000000000000000000000000F500000000000000000000000000000000000000000000000000000000000000000000000000000000000000000000000000000000000000000000000000000000
310
00000000000000000000000000000000000000000000000000000000000000000000000000000000000000000000000000000000000000000000000000000000000000000000000000CE0000000000000000000000000000000000000000000000000000000000000000000000000000000000000000000000000000000000
310
0000000000000000000000000000000000CE00000000000000000000000000000000F500000000000000000000000000002D0000000000000000000000000000F50000000000000000000000000000000000000000000000000000000000000000000000000000000000000000000000000000000000000000000000000000
310
000000000000000000000000000000000000000000000000000000000000000000000000000000000000000000000000000000000000000000000000000000000000000000000000000000CE000000000000000000000000000000000000000000000000000000000000000000000000000000000000000000000000000000
310
00000000000000000000000000000000000000CE00000000000000000000000000000000F500000000000000000000000000002D0000000000000000000000000000F5000000000000000000000000000000000000000000000000000000000000000000000000000000000000000000000000000000000000000000000000
310
0000000000000000000000000000000000000000000000000000000000000000000000000000000000000000000000000000000000000000000000000000000000000000000000000000000000CE00000000000000000000000000000000000000000000000000000000000000000000000000000000000000000000000000
310
000000000000000000000000000000000000000000CE00000000000000000000000000000000F500000000000000000000000000002D0000000000000000000000000000F500000000000000000000000000000000000000000000000000000000000000000000000000000000000000000000000000000000000000000000
310
00000000000000000000000000000000000000000000000000000000000000000000000000000000000000000000000000000000000000000000000000000000000000000000000000000000000000CE0000000000000000000000000000000000000000000000000000000000000000000000000000000000000000000000
310
0000000000000000000000000000000000000000000000CE00000000000000000000000000000000F500000000000000000000000000002D0000000000000000000000000000F50000000000000000000000000000000000000000000000000000000000000000000000000000000000000000000000000000000000000000
310
000000000000000000000000000000000000000000000000000000000000000000000000000000000000000000000000000000000000000000000000000000000000000000000000000000000000000000CE000000000000000000000000000000000000000000000000000000000000000000000000000000000000000000
310
00000000000000000000000000000000000000000000000000CE00000000000000000000000000000000F500000000000000000000000000002D0000000000000000000000000000F5000000000000000000000000000000000000000000000000000000000000000000000000000000000000000000000000000000000000
310
0000000000000000000000000000000000000000000000000000000000000000000000000000000000000000000000000000000000000000000000000000000000000000000000000000000000000000000000CE00000000000000000000000000000000000000000000000000000000000000000000000000000000000000
310
000000000000000000000000000000000000000000000000000000CE00000000000000000000000000000000F500000000000000000000000000002D0000000000000000000000000000F500000000000000000000000000000000000000000000000000000000000000000000000000000000000000000000000000000000
310
00000000000000000000000000000000000000000000000000000000000000000000000000000000000000000000000000000000000000000000000000000000000000000000000000000000000000000000000000CE0000000000000000000000000000000000000000000000000000000000000000000000000000000000
310
0000000000000000000000000000000000000000000000000000000000CE00000000000000000000000000000000F500000000000000000000000000002D0000000000000000000000000000F50000000000000000000000000000000000000000000000000000000000000000000000000000000000000000000000000000
310
000000000000000000000000000000000000000000000000000000000000000000000000000000000000000000000000000000000000000000000000000000000000000000000000000000000000000000000000000000CE000000000000000000000000000000000000000000000000000000000000000000000000000000
310
00000000000000000000000000000000000000000000000000000000000000CE00000000000000000000000000000000F500000000000000000000000000002D0000000000000000000000000000F5000000000000000000000000000000000000000000000000000000000000000000000000000000000000000000000000
310
0000000000000000000000000000000000000000000000000000000000000000000000000000000000000000000000000000000000000000000000000000000000000000000000000000000000000000000000000000000000CE00000000000000000000000000000000000000000000000000000000000000000000000000
310
000000000000000000000000000000000000000000000000000000000000000000CE00000000000000000000000000000000F500000000000000000000000000002D0000000000000000000000000000F500000000000000000000000000000000000000000000000000000000000000000000000000000000000000000000
310
00000000000000000000000000000000000000000000000000000000000000000000000000000000000000000000000000000000000000000000000000000000000000000000000000000000000000000000000000000000000000CE0000000000000000000000000000000000000000000000000000000000000000000000
310
0000000000000000000000000000000000000000000000000000000000000000000000CE00000000000000000000000000000000F500000000000000000000000000002D0000000000000000000000000000F50000000000000000000000000000000000000000000000000000000000000000000000000000000000000000
310
000000000000000000000000000000000000000000000000000000000000000000000000000000000000000000000000000000000000000000000000000000000000000000000000000000000000000000000000000000000000000000CE000000000000000000000000000000000000000000000000000000000000000000
310
00000000000000000000000000000000000000000000000000000000000000000000000000CE00000000000000000000000000000000F500000000000000000000000000002D0000000000000000000000000000F5000000000000000000000000000000000000000000000000000000000000000000000000000000000000
310
0000000000000000000000000000000000000000000000000000000000000000000000000000000000000000000000000000000000000000000000000000000000000000000000000000000000000000000000000000000000000000000000CE00000000000000000000000000000000000000000000000000000000000000
310
000000000000000000000000000000000000000000000000000000000000000000000000000000CE00000000000000000000000000000000F500000000000000000000000000002D0000000000000000000000000000F500000000000000000000000000000000000000000000000000000000000000000000000000000000
310
00000000000000000000000000000000000000000000000000000000000000000000000000000000000000000000000000000000000000000000000000000000000000000000000000000000000000000000000000000000000000000000000000CE0000000000000000000000000000000000000000000000000000000000
310
0000000000000000000000000000000000000000000000000000000000000000000000000000000000CE00000000000000000000000000000000F500000000000000000000000000002D0000000000000000000000000000F50000000000000000000000000000000000000000000000000000000000000000000000000000
310
000000000000000000000000000000000000000000000000000000000000000000000000000000000000000000000000000000000000000000000000000000000000000000000000000000000000000000000000000000000000000000000000000000CE000000000000000000000000000000000000000000000000000000
310
00000000000000000000000000000000000000000000000000000000000000000000000000000000000000CE00000000000000000000000000002D2DF52D2D2D2D2D2D2D2D2D2D2D2D2D2D2D2D2D2D2D2D2D2D2D2D2D2D2D2D2DF52D0000000000000000000000000000000000000000000000000000000000000000000000
310
0000000000000000000000000000000000000000000000000000000000000000000000000000000000000000000000000000000000000000000000000000000000000000000000000000000000000000000000000000000000000000000000000000000000CE00000000000000000000000000000000000000000000000000
310
000000000000000000000000000000000000000000000000000000000000000000000000000000000000000000CE00000000000000000000000000000000F500000000000000000000000000002D0000000000000000000000000000F500000000000000000000000000000000000000000000000000000000000000000000
310
00000000000000000000000000000000000000000000000000000000000000000000000000000000000000000000000000000000000000000000000000000000000000000000000000000000000000000000000000000000000000000000000000000000000000CE0000000000000000000000000000000000000000000000
310
0000000000000000000000000000000000000000000000000000000000000000000000000000000000000000000000CE00000000000000000000000000000000F500000000000000000000000000002D0000000000000000000000000000F50000000000000000000000000000000000000000000000000000000000000000
310
000000000000000000000000000000000000000000000000000000000000000000000000000000000000000000000000000000000000000000000000000000000000000000000000000000000000000000000000000000000000000000000000000000000000000000CE000000000000000000000000000000000000000000
310
00000000000000000000000000000000000000000000000000000000000000000000000000000000000000000000000000CE00000000000000000000000000000000F500000000000000000000000000002D0000000000000000000000000000F5000000000000000000000000000000000000000000000000000000000000
310
0000000000000000000000000000000000000000000000000000000000000000000000000000000000000000000000000000000000000000000000000000000000000000000000000000000000000000000000000000000000000000000000000000000000000000000000CE00000000000000000000000000000000000000
310
000000000000000000000000000000000000000000000000000000000000000000000000000000000000000000000000000000CE00000000000000000000000000000000F500000000000000000000000000002D0000000000000000000000000000F500000000000000000000000000000000000000000000000000000000
310
00000000000000000000000000000000000000000000000000000000000000000000000000000000000000000000000000000000000000000000000000000000000000000000000000000000000000000000000000000000000000000000000000000000000000000000000000CE0000000000000000000000000000000000
310
0000000000000000000000000000000000000000000000000000000000000000000000000000000000000000000000000000000000CE00000000000000000000000000000000F500000000000000000000000000002D0000000000000000000000000000F50000000000000000000000000000000000000000000000000000
310
000000000000000000000000000000000000000000000000000000000000000000000000000000000000000000000000000000000000000000000000000000000000000000000000000000000000000000000000000000000000000000000000000000000000000000000000000000CE000000000000000000000000000000
310
00000000000000000000000000000000000000000000000000000000000000000000000000000000000000000000000000000000000000CE00000000000000000000000000000000F500000000000000000000000000002D0000000000000000000000000000F5000000000000000000000000000000000000000000000000
310
0000000000000000000000000000000000000000000000000000000000000000000000000000000000000000000000000000000000000000000000000000000000000000000000000000000000000000000000000000000000000000000000000000000000000000000000000000000000CE00000000000000000000000000
310
000000000000000000000000000000000000000000000000000000000000000000000000000000000000000000000000000000000000000000CE00000000000000000000000000000000F500000000000000000000000000002D0000000000000000000000000000F500000000000000000000000000000000000000000000
310
00000000000000000000000000000000000000000000000000000000000000000000000000000000000000000000000000000000000000000000000000000000000000000000000000000000000000000000000000000000000000000000000000000000000000000000000000000000000000CE0000000000000000000000
310
0000000000000000000000000000000000000000000000000000000000000000000000000000000000000000000000000000000000000000000000CE00000000000000000000000000000000F500000000000000000000000000002D0000000000000000000000000000F50000000000000000000000000000000000000000
310
000000000000000000000000000000000000000000000000000000000000000000000000000000000000000000000000000000000000000000000000000000000000000000000000000000000000000000000000000000000000000000000000000000000000000000000000000000000000000000CE000000000000000000
310
00000000000000000000000000000000000000000000000000000000000000000000000000000000000000000000000000000000000000000000000000CE00000000000000000000000000000000F500000000000000000000000000002D0000000000000000000000000000F5000000000000000000000000000000000000
310
0000000000000000000000000000000000000000000000000000000000000000000000000000000000000000000000000000000000000000000000000000000000000000000000000000000000000000000000000000000000000000000000000000000000000000000000000000000000000000000000CE00000000000000
310
000000000000000000000000000000000000000000000000000000000000000000000000000000000000000000000000000000000000000000000000000000CE00000000000000000000000000000000F500000000000000000000000000002D0000000000000000000000000000F500000000000000000000000000000000
310
00000000000000000000000000000000000000000000000000000000000000000000000000000000000000000000000000000000000000000000000000000000000000000000000000000000000000000000000000000000000000000000000000000000000000000000000000000000000000000000000000CE0000000000
310
0000000000000000000000000000000000000000000000000000000000000000000000000000000000000000000000000000000000000000000000000000000000CE00000000000000000000000000000000F500000000000000000000000000002D0000000000000000000000000000F50000000000000000000000000000
310
000000000000000000000000000000000000000000000000000000000000000000000000000000000000000000000000000000000000000000000000000000000000000000000000000000000000000000000000000000000000000000000000000000000000000000000000000000000000000000000000000000CE000000
310
00000000000000000000000000000000000000000000000000000000000000000000000000000000000000000000000000000000000000000000000000000000000000CE00000000000000000000000000000000F500000000000000000000000000002D0000000000000000000000000000F5000000000000000000000000
310
0000000000000000000000000000000000000000000000000000000000000000000000000000000000000000000000000000000000000000000000000000000000000000000000000000000000000000000000000000000000000000000000000000000000000000000000000000000000000000000000000000000000CE00
310
000000000000000000000000000000000000000000000000000000000000000000000000000000000000000000000000000000000000000000000000000000000000000000CE00000000000000000000000000000000F500000000000000000000000000002D0000000000000000000000000000F500000000000000000000
310
00000000000000000000000000000000000000000000000000000000000000000000000000000000000000000000000000000000000000000000000000000000000000000000000000000000000000000000000000000000000000000000000000000000000000000000000000000000000000000000000000000000000000
310
CE00000000000000000000000000000000000000000000000000000000000000000000000000000000000000000000000000000000000000000000000000000000000000000000CE00000000000000000000000000000000F500000000000000000000000000002D0000000000000000000000000000F50000000000000000
310
00000000000000000000000000000000000000000000000000000000000000000000000000000000000000000000000000000000000000000000000000000000000000000000000000000000000000000000000000000000000000000000000000000000000000000000000000000000000000000000000000000000000000
310
0000CE00000000000000000000000000000000000000000000000000000000000000000000000000000000000000000000000000000000000000000000000000000000000000000000CE00000000000000000000000000000000F500000000000000000000000000002D0000000000000000000000000000F5000000000000
310
00000000000000000000000000000000000000000000000000000000000000000000000000000000000000000000000000000000000000000000000000000000000000000000000000000000000000000000000000000000000000000000000000000000000000000000000000000000000000000000000000000000000000
310
00000000CE00000000000000000000000000000000000000000000000000000000000000000000000000000000000000000000000000000000000000000000000000000000000000000000CE00000000000000000000000000000000F500000000000000000000000000002D0000000000000000000000000000F500000000
310
00000000000000000000000000000000000000000000000000000000000000000000000000000000000000000000000000000000000000000000000000000000000000000000000000000000000000000000000000000000000000000000000000000000000000000000000000000000000000000000000000000000000000
310
000000000000CE00000000000000000000000000000000000000000000000000000000000000000000000000000000000000000000000000000000000000000000000000000000000000000000CE00000000000000000000000000000000F500000000000000000000000000002D0000000000000000000000000000F50000
310
00000000000000000000000000000000000000000000000000000000000000000000000000000000000000000000000000000000000000000000000000000000000000000000000000000000000000000000000000000000000000000000000000000000000000000000000000000000000000000000000000000000000000
310
0000000000000000CE00000000000000000000000000000000000000000000000000000000000000000000000000000000000000000000000000000000000000000000000000000000000000000000CE0000000000000000000000000000000000F5F50000000000000000000000002D000000000000000000000000F5F500
310
00000000000000000000000000000000000000000000000000000000000000000000000000000000000000000000000000000000000000000000000000000000000000000000000000000000000000000000000000000000000000000000000000000000000000000000000000000000000000000000000000000000000000
310
00000000000000000000CE00000000000000000000000000000000000000000000000000000000000000000000000000000000000000000000000000000000000000000000000000000000000000000000CE00000000000000000000000000000000000000F5F5000000000000000000002D000000000000000000F5F5F500
310
00000000000000000000000000000000000000000000000000000000000000000000000000000000000000000000000000000000000000000000000000000000000000000000000000000000000000000000000000000000000000000000000000000000000000000000000000000000000000000000000000000000000000
310
000000000000000000000000CE00000000000000000000000000000000000000000000000000000000000000000000000000000000000000000000000000000000000000000000000000000000000000000000CE000000000000000000000000000000000000000000F5F5F5F50000000000002D0000000000F5F5F5F50000
310
00000000000000000000000000000000000000000000000000000000000000000000000000000000000000000000000000000000000000000000000000000000000000000000000000000000000000000000000000000000000000000000000000000000000000000000000000000000000000000000000000000000000000
310
0000000000000000000000000000CE0000000000000000000000000000000000000000000000000000000000000000000000000000000000000000000000000000000000000000000000000000000000F500000000CE00000000000000000000000000000000000000000000000000F5F5F5F5F5F5F5F5F5F5F5F500000000
310
00000000000000000000000000000000000000000000000000000000000000000000000000000000000000000000000000000000000000000000000000000000000000000000000000000000000000000000000000000000000000000000000000000000000000000000000000000000000000000000000000000000000000
310
00000000000000000000000000000000CE00000000F5000000000000000000000000000000000000000000000000000000000000000000000000000000000000000000000000000000000000000000000000F500000000CE000000000000000000000000000000000000000000000000000000000000002D00000000000000
310
00000000000000000000000000000000000000000000000000000000000000000000000000000000000000000000000000000000000000000000000000000000000000000000000000000000000000000000000000000000000000000000000000000000000000000000000000000000000000000000000000000000000000
310
000000000000000000000000000000000000CE00000000F5000000000000000000000000000000000000000000000000000000000000000000000000000000000000000000000000000000000000000000000000F500000000CE000000000000000000000000000000000000000000000000000000000000002D0000000000
310
00000000000000000000000000000000000000000000000000000000000000000000000000000000000000000000000000000000000000000000000000000000000000000000000000000000000000000000000000000000000000000000000000000000000000000000000000000000000000000000000000000000000000
310
0000000000000000000000000000000000000000CE00000000F5000000000000000000000000000000000000000000000000000000000000000000000000000000000000000000000000000000000000000000000000F500000000CE0000000000000000000000000000000000000000000000000000000000000000000000
310
00000000000000000000000000000000000000000000000000000000000000000000000000000000000000000000000000000000000000000000000000000000000000000000000000000000000000000000000000000000000000000000000000000000000000000000000000000000000000000000000000000000000000
310
00000000000000000000000000000000000000000000CE00000000F5000000000000000000000000000000000000000000000000000000000000000000000000000000000000000000000000000000000000000000000000F500000000CE000000000000000000000000000000000000000000000000000000000000000000
310
00000000000000000000000000000000000000000000000000000000000000000000000000000000000000000000000000000000000000000000000000000000000000000000000000000000000000000000000000000000000000000000000000000000000000000000000000000000000000000000000000000000000000
310
000000000000000000000000000000000000000000000000CE00000000F5000000000000000000000000000000000000000000000000000000000000000000000000000000000000000000000000000000000000000000000000F500000000CECECECECECECECECECECECECECECECECECECECECECECECECECECECECECECECE
310
CECECECECECECECECECECECECECECECECECECECECECECECECECECECECECECECECECECECECECECECECECECECECECECECECECECECECECECECECECECECECECECECECECECECECECECECECECECECECECECECECECECECECECECECECECECECECECECECECECECECECECECECECECECECECECECECECECECECECECECECECECECECECECECE
310
CECECECECECECECECECECECECECECECECECECECECECECECECECECE00000000F5000000000000000000000000000000000000000000000000000000000000000000000000000000000000000000000000000000000000000000000000F500000000000000000000000000000000000000000000000000000000000000000000
310
00000000000000000000000000000000000000000000000000000000000000000000000000000000000000000000000000000000000000000000000000000000000000000000000000000000000000000000000000000000000000000000000000000000000000000000000000000000000000000000000000000000000000
310
000000000000000000000000000000000000000000000000000000000000000000F5000000000000000000000000000000000000000000000000000000000000000000000000000000000000000000000000000000000000000000000000F50000000000000000000000000000000000000000000000000000000000000000
310
00000000000000000000000000000000000000000000000000000000000000000000000000000000000000000000000000000000000000000000000000000000000000000000000000000000000000000000000000000000000000000000000000000000000000000000000000000000000000000000000000000000000000
310
0000000000000000000000000000000000000000000000000000000000000000000000F5000000000000000000000000000000000000000000000000000000000000000000000000000000000000000000000000000000000000000000000000F5000000000000000000000000000000000000000000000000000000000000
310
00000000000000000000000000000000000000000000000000000000000000000000000000000000000000000000000000000000000000000000000000000000000000000000000000000000000000000000000000000000000000000000000000000000000000000000000000000000000000000000000000000000000000
310
00000000000000000000000000000000000000000000000000000000000000000000000000F5000000000000000000000000000000000000000000000000000000000000000000000000000000000000000000000000000000000000000000000000F500000000000000000000000000000000000000000000000000000000
310
00000000000000000000000000000000000000000000000000000000000000000000000000000000000000000000000000000000000000000000000000000000000000000000000000000000000000000000000000000000000000000000000000000000000000000000000000000000000000000000000000000000000000
310
000000000000000000000000000000000000000000000000000000000000000000000000000000F5000000000000000000000000000000000000000000000000000000000000000000000000000000000000000000000000000000000000000000000000F5F5F5F5F5F5F5F5F5F5F500000000000000000000000000000000
310
00000000000000000000000000000000000000000000000000000000000000000000000000000000000000000000000000000000000000000000000000000000000000000000000000000000000000000000000000000000000000000000000000000000000000000000000000000000000000000000000000000000000000
310
00000000000000000000000000000000000000000000000000000000000000F5F5F5F5F5F5F5F5F5F5F5000000000000000000000000000000000000000000000000000000000000
  0
XRECORD
  5
5163
102
{ACAD_REACTORS
330
5162
102
}
330
5162
100
AcDbXrecord
280
     1
102
SHADEPLOT
 70
     0
102
SHADEPLOTRESLEVEL
 70
     2
102
SHADEPLOTCUSTOMDPI
 70
   300
  0
XRECORD
  5
5166
102
{ACAD_REACTORS
330
5165
102
}
330
5165
100
AcDbXrecord
280
     1
102
SHADEPLOT
 70
     0
102
SHADEPLOTRESLEVEL
 70
     2
102
SHADEPLOTCUSTOMDPI
 70
   300
  0
XRECORD
  5
516A
102
{ACAD_REACTORS
330
5169
102
}
330
5169
100
AcDbXrecord
280
     1
102
MATERIAL
148
0.0
149
0.0
149
0.0
 93
        0
 94
       63
282
     0
 72
     1
 77
     1
171
     1
175
     1
179
     1
273
     0
  0
XRECORD
  5
5168
102
{ACAD_REACTORS
330
5167
102
}
330
5167
100
AcDbXrecord
280
     1
102
MATERIAL
148
0.0
149
0.0
149
0.0
 93
        0
 94
       63
282
     0
 72
     1
 77
     1
171
     1
175
     1
179
     1
273
     0
  0
XRECORD
  5
516C
102
{ACAD_REACTORS
330
516B
102
}
330
516B
100
AcDbXrecord
280
     1
102
MATERIAL
148
0.0
149
0.0
149
0.0
 93
        0
 94
       63
282
     0
 72
     1
 77
     1
171
     1
175
     1
179
     1
273
     0
  0
CELLSTYLEMAP
  5
515A
102
{ACAD_REACTORS
330
229F
102
}
330
229F
100
AcDbCellStyleMap
 90
        3
300
CELLSTYLE
  1
TABLEFORMAT_BEGIN
 90
        5
170
     1
 91
        0
 92
    32768
 62
   257
 93
        1
300
CONTENTFORMAT
  1
CONTENTFORMAT_BEGIN
 90
        0
 91
        0
 92
      512
 93
        0
300

 40
0.0
140
1.0
 94
        5
 62
     0
340
11
144
6.0
309
CONTENTFORMAT_END
171
     1
301
MARGIN
  1
CELLMARGIN_BEGIN
 40
1.5
 40
1.5
 40
1.5
 40
1.5
 40
0.18
 40
0.18
309
CELLMARGIN_END
 94
        6
 95
        1
302
GRIDFORMAT
  1
GRIDFORMAT_BEGIN
 90
        0
 91
        1
 62
     0
 92
       -2
340
0
 93
        0
 40
0.045
309
GRIDFORMAT_END
 95
        2
302
GRIDFORMAT
  1
GRIDFORMAT_BEGIN
 90
        0
 91
        1
 62
     0
 92
       -2
340
0
 93
        0
 40
0.045
309
GRIDFORMAT_END
 95
        4
302
GRIDFORMAT
  1
GRIDFORMAT_BEGIN
 90
        0
 91
        1
 62
     0
 92
       -2
340
0
 93
        0
 40
0.045
309
GRIDFORMAT_END
 95
        8
302
GRIDFORMAT
  1
GRIDFORMAT_BEGIN
 90
        0
 91
        1
 62
     0
 92
       -2
340
0
 93
        0
 40
0.045
309
GRIDFORMAT_END
 95
       16
302
GRIDFORMAT
  1
GRIDFORMAT_BEGIN
 90
        0
 91
        1
 62
     0
 92
       -2
340
0
 93
        0
 40
0.045
309
GRIDFORMAT_END
 95
       32
302
GRIDFORMAT
  1
GRIDFORMAT_BEGIN
 90
        0
 91
        1
 62
     0
 92
       -2
340
0
 93
        0
 40
0.045
309
GRIDFORMAT_END
309
TABLEFORMAT_END
  1
CELLSTYLE_BEGIN
 90
        1
 91
        1
300
_TITLE
309
CELLSTYLE_END
300
CELLSTYLE
  1
TABLEFORMAT_BEGIN
 90
        5
170
     1
 91
        0
 92
        0
 62
   257
 93
        1
300
CONTENTFORMAT
  1
CONTENTFORMAT_BEGIN
 90
        0
 91
        0
 92
      512
 93
        0
300

 40
0.0
140
1.0
 94
        5
 62
     0
340
11
144
4.5
309
CONTENTFORMAT_END
171
     1
301
MARGIN
  1
CELLMARGIN_BEGIN
 40
1.5
 40
1.5
 40
1.5
 40
1.5
 40
0.18
 40
0.18
309
CELLMARGIN_END
 94
        6
 95
        1
302
GRIDFORMAT
  1
GRIDFORMAT_BEGIN
 90
        0
 91
        1
 62
     0
 92
       -2
340
0
 93
        0
 40
0.045
309
GRIDFORMAT_END
 95
        2
302
GRIDFORMAT
  1
GRIDFORMAT_BEGIN
 90
        0
 91
        1
 62
     0
 92
       -2
340
0
 93
        0
 40
0.045
309
GRIDFORMAT_END
 95
        4
302
GRIDFORMAT
  1
GRIDFORMAT_BEGIN
 90
        0
 91
        1
 62
     0
 92
       -2
340
0
 93
        0
 40
0.045
309
GRIDFORMAT_END
 95
        8
302
GRIDFORMAT
  1
GRIDFORMAT_BEGIN
 90
        0
 91
        1
 62
     0
 92
       -2
340
0
 93
        0
 40
0.045
309
GRIDFORMAT_END
 95
       16
302
GRIDFORMAT
  1
GRIDFORMAT_BEGIN
 90
        0
 91
        1
 62
     0
 92
       -2
340
0
 93
        0
 40
0.045
309
GRIDFORMAT_END
 95
       32
302
GRIDFORMAT
  1
GRIDFORMAT_BEGIN
 90
        0
 91
        1
 62
     0
 92
       -2
340
0
 93
        0
 40
0.045
309
GRIDFORMAT_END
309
TABLEFORMAT_END
  1
CELLSTYLE_BEGIN
 90
        2
 91
        1
300
_HEADER
309
CELLSTYLE_END
300
CELLSTYLE
  1
TABLEFORMAT_BEGIN
 90
        5
170
     1
 91
        0
 92
        0
 62
   257
 93
        1
300
CONTENTFORMAT
  1
CONTENTFORMAT_BEGIN
 90
        0
 91
        0
 92
      512
 93
        0
300

 40
0.0
140
1.0
 94
        2
 62
     0
340
11
144
4.5
309
CONTENTFORMAT_END
171
     1
301
MARGIN
  1
CELLMARGIN_BEGIN
 40
1.5
 40
1.5
 40
1.5
 40
1.5
 40
0.18
 40
0.18
309
CELLMARGIN_END
 94
        6
 95
        1
302
GRIDFORMAT
  1
GRIDFORMAT_BEGIN
 90
        0
 91
        1
 62
     0
 92
       -2
340
0
 93
        0
 40
0.045
309
GRIDFORMAT_END
 95
        2
302
GRIDFORMAT
  1
GRIDFORMAT_BEGIN
 90
        0
 91
        1
 62
     0
 92
       -2
340
0
 93
        0
 40
0.045
309
GRIDFORMAT_END
 95
        4
302
GRIDFORMAT
  1
GRIDFORMAT_BEGIN
 90
        0
 91
        1
 62
     0
 92
       -2
340
0
 93
        0
 40
0.045
309
GRIDFORMAT_END
 95
        8
302
GRIDFORMAT
  1
GRIDFORMAT_BEGIN
 90
        0
 91
        1
 62
     0
 92
       -2
340
0
 93
        0
 40
0.045
309
GRIDFORMAT_END
 95
       16
302
GRIDFORMAT
  1
GRIDFORMAT_BEGIN
 90
        0
 91
        1
 62
     0
 92
       -2
340
0
 93
        0
 40
0.045
309
GRIDFORMAT_END
 95
       32
302
GRIDFORMAT
  1
GRIDFORMAT_BEGIN
 90
        0
 91
        1
 62
     0
 92
       -2
340
0
 93
        0
 40
0.045
309
GRIDFORMAT_END
309
TABLEFORMAT_END
  1
CELLSTYLE_BEGIN
 90
        3
 91
        2
300
_DATA
309
CELLSTYLE_END
  0
XRECORD
  5
518D
102
{ACAD_REACTORS
330
229F
102
}
330
229F
100
AcDbXrecord
280
     1
102
ACAD_ROUNDTRIP_PRE2007_TABLESTYLE
 90
      512
 91
        0
  1

 92
      512
 93
        0
  2

 94
      512
 95
        0
  3

  0
XRECORD
  5
5178
102
{ACAD_REACTORS
330
5177
102
}
330
5177
100
AcDbXrecord
280
     1
102
RTVSPropertyOp0
 70
     1
102
RTVSPropertyOp1
 70
     1
102
RTVSPropertyOp2
 70
     1
102
RTVSPropertyOp3
 70
     1
102
RTVSPropertyOp4
 70
     1
102
RTVSPropertyOp5
 70
     1
102
RTVSPropertyOp6
 70
     1
102
RTVSPropertyOp7
 70
     1
102
RTVSPropertyOp8
 70
     1
102
RTVSPropertyOp9
 70
     1
102
RTVSPropertyOp10
 70
     1
102
RTVSPropertyOp11
 70
     1
102
RTVSPropertyOp12
 70
     1
102
RTVSPropertyOp13
 70
     1
102
RTVSPropertyOp14
 70
     1
102
RTVSPropertyOp15
 70
     1
102
RTVSPropertyOp16
 70
     1
102
RTVSPropertyOp17
 70
     1
102
RTVSPropertyOp18
 70
     1
102
RTVSPropertyOp19
 70
     1
102
RTVSPropertyOp20
 70
     1
102
RTVSPropertyOp21
 70
     1
102
RTVSPropertyOp22
 70
     1
102
RTVSPropertyOp23
 70
     1
102
RTVSPropertyOp24
 70
     1
102
RTVSPropertyOp25
 70
     1
102
RTVSPropertyOp26
 70
     1
102
RTVSPropertyOp27
 70
     1
102
RTVSPropertyOp28
 70
     1
102
RTVSPropertyOp29
 70
     1
102
RTVSPropertyOp30
 70
     1
102
RTVSPropertyOp31
 70
     1
102
RTVSPropertyOp32
 70
     1
  0
XRECORD
  5
517C
102
{ACAD_REACTORS
330
517B
102
}
330
517B
100
AcDbXrecord
280
     1
102
RTVSPropertyOp0
 70
     1
102
RTVSPropertyOp1
 70
     1
102
RTVSPropertyOp2
 70
     1
102
RTVSPropertyOp3
 70
     1
102
RTVSPropertyOp4
 70
     1
102
RTVSPropertyOp5
 70
     1
102
RTVSPropertyOp6
 70
     1
102
RTVSPropertyOp7
 70
     1
102
RTVSPropertyOp8
 70
     1
102
RTVSPropertyOp9
 70
     1
102
RTVSPropertyOp10
 70
     1
102
RTVSPropertyOp11
 70
     1
102
RTVSPropertyOp12
 70
     1
102
RTVSPropertyOp13
 70
     1
102
RTVSPropertyOp14
 70
     1
102
RTVSPropertyOp15
 70
     1
102
RTVSPropertyOp16
 70
     1
102
RTVSPropertyOp17
 70
     1
102
RTVSPropertyOp18
 70
     1
102
RTVSPropertyOp19
 70
     1
102
RTVSPropertyOp20
 70
     1
102
RTVSPropertyOp21
 70
     1
102
RTVSPropertyOp22
 70
     1
102
RTVSPropertyOp23
 70
     1
102
RTVSPropertyOp24
 70
     1
102
RTVSPropertyOp25
 70
     1
102
RTVSPropertyOp26
 70
     1
102
RTVSPropertyOp27
 70
     1
102
RTVSPropertyOp28
 70
     1
102
RTVSPropertyOp29
 70
     1
102
RTVSPropertyOp30
 70
     1
102
RTVSPropertyOp31
 70
     1
102
RTVSPropertyOp32
 70
     1
  0
XRECORD
  5
517A
102
{ACAD_REACTORS
330
5179
102
}
330
5179
100
AcDbXrecord
280
     1
102
RTVSPropertyOp0
 70
     1
102
RTVSPropertyOp1
 70
     1
102
RTVSPropertyOp2
 70
     1
102
RTVSPropertyOp3
 70
     1
102
RTVSPropertyOp4
 70
     1
102
RTVSPropertyOp5
 70
     1
102
RTVSPropertyOp6
 70
     1
102
RTVSPropertyOp7
 70
     1
102
RTVSPropertyOp8
 70
     1
102
RTVSPropertyOp9
 70
     1
102
RTVSPropertyOp10
 70
     1
102
RTVSPropertyOp11
 70
     1
102
RTVSPropertyOp12
 70
     1
102
RTVSPropertyOp13
 70
     1
102
RTVSPropertyOp14
 70
     1
102
RTVSPropertyOp15
 70
     1
102
RTVSPropertyOp16
 70
     1
102
RTVSPropertyOp17
 70
     1
102
RTVSPropertyOp18
 70
     1
102
RTVSPropertyOp19
 70
     1
102
RTVSPropertyOp20
 70
     1
102
RTVSPropertyOp21
 70
     1
102
RTVSPropertyOp22
 70
     1
102
RTVSPropertyOp23
 70
     1
102
RTVSPropertyOp24
 70
     1
102
RTVSPropertyOp25
 70
     1
102
RTVSPropertyOp26
 70
     1
102
RTVSPropertyOp27
 70
     1
102
RTVSPropertyOp28
 70
     1
102
RTVSPropertyOp29
 70
     1
102
RTVSPropertyOp30
 70
     1
102
RTVSPropertyOp31
 70
     1
102
RTVSPropertyOp32
 70
     1
  0
XRECORD
  5
5176
102
{ACAD_REACTORS
330
5175
102
}
330
5175
100
AcDbXrecord
280
     1
102
RTVSPropertyOp0
 70
     1
102
RTVSPropertyOp1
 70
     1
102
RTVSPropertyOp2
 70
     1
102
RTVSPropertyOp3
 70
     1
102
RTVSPropertyOp4
 70
     1
102
RTVSPropertyOp5
 70
     1
102
RTVSPropertyOp6
 70
     1
102
RTVSPropertyOp7
 70
     1
102
RTVSPropertyOp8
 70
     1
102
RTVSPropertyOp9
 70
     1
102
RTVSPropertyOp10
 70
     1
102
RTVSPropertyOp11
 70
     1
102
RTVSPropertyOp12
 70
     1
102
RTVSPropertyOp13
 70
     1
102
RTVSPropertyOp14
 70
     1
102
RTVSPropertyOp15
 70
     1
102
RTVSPropertyOp16
 70
     1
102
RTVSPropertyOp17
 70
     1
102
RTVSPropertyOp18
 70
     1
102
RTVSPropertyOp19
 70
     1
102
RTVSPropertyOp20
 70
     1
102
RTVSPropertyOp21
 70
     1
102
RTVSPropertyOp22
 70
     1
102
RTVSPropertyOp23
 70
     1
102
RTVSPropertyOp24
 70
     1
102
RTVSPropertyOp25
 70
     1
102
RTVSPropertyOp26
 70
     1
102
RTVSPropertyOp27
 70
     1
102
RTVSPropertyOp28
 70
     1
102
RTVSPropertyOp29
 70
     1
102
RTVSPropertyOp30
 70
     1
102
RTVSPropertyOp31
 70
     1
102
RTVSPropertyOp32
 70
     1
  0
XRECORD
  5
5184
102
{ACAD_REACTORS
330
5183
102
}
330
5183
100
AcDbXrecord
280
     1
102
RTVSPropertyOp0
 70
     1
102
RTVSPropertyOp1
 70
     1
102
RTVSPropertyOp2
 70
     1
102
RTVSPropertyOp3
 70
     1
102
RTVSPropertyOp4
 70
     1
102
RTVSPropertyOp5
 70
     1
102
RTVSPropertyOp6
 70
     1
102
RTVSPropertyOp7
 70
     1
102
RTVSPropertyOp8
 70
     1
102
RTVSPropertyOp9
 70
     1
102
RTVSPropertyOp10
 70
     1
102
RTVSPropertyOp11
 70
     1
102
RTVSPropertyOp12
 70
     1
102
RTVSPropertyOp13
 70
     1
102
RTVSPropertyOp14
 70
     1
102
RTVSPropertyOp15
 70
     1
102
RTVSPropertyOp16
 70
     1
102
RTVSPropertyOp17
 70
     1
102
RTVSPropertyOp18
 70
     1
102
RTVSPropertyOp19
 70
     1
102
RTVSPropertyOp20
 70
     1
102
RTVSPropertyOp21
 70
     1
102
RTVSPropertyOp22
 70
     1
102
RTVSPropertyOp23
 70
     1
102
RTVSPropertyOp24
 70
     1
102
RTVSPropertyOp25
 70
     1
102
RTVSPropertyOp26
 70
     1
102
RTVSPropertyOp27
 70
     1
102
RTVSPropertyOp28
 70
     1
102
RTVSPropertyOp29
 70
     1
102
RTVSPropertyOp30
 70
     1
102
RTVSPropertyOp31
 70
     1
102
RTVSPropertyOp32
 70
     1
  0
XRECORD
  5
518C
102
{ACAD_REACTORS
330
518B
102
}
330
518B
100
AcDbXrecord
280
     1
102
RTVSPropertyOp0
 70
     1
102
RTVSPropertyOp1
 70
     1
102
RTVSPropertyOp2
 70
     1
102
RTVSPropertyOp3
 70
     1
102
RTVSPropertyOp4
 70
     1
102
RTVSPropertyOp5
 70
     1
102
RTVSPropertyOp6
 70
     1
102
RTVSPropertyOp7
 70
     1
102
RTVSPropertyOp8
 70
     1
102
RTVSPropertyOp9
 70
     1
102
RTVSPropertyOp10
 70
     1
102
RTVSPropertyOp11
 70
     1
102
RTVSPropertyOp12
 70
     1
102
RTVSPropertyOp13
 70
     1
102
RTVSPropertyOp14
 70
     1
102
RTVSPropertyOp15
 70
     1
102
RTVSPropertyOp16
 70
     1
102
RTVSPropertyOp17
 70
     1
102
RTVSPropertyOp18
 70
     1
102
RTVSPropertyOp19
 70
     1
102
RTVSPropertyOp20
 70
     1
102
RTVSPropertyOp21
 70
     1
102
RTVSPropertyOp22
 70
     1
102
RTVSPropertyOp23
 70
     1
102
RTVSPropertyOp24
 70
     1
102
RTVSPropertyOp25
 70
     1
102
RTVSPropertyOp26
 70
     1
102
RTVSPropertyOp27
 70
     1
102
RTVSPropertyOp28
 70
     1
102
RTVSPropertyOp29
 70
     1
102
RTVSPropertyOp30
 70
     1
102
RTVSPropertyOp31
 70
     1
102
RTVSPropertyOp32
 70
     1
  0
XRECORD
  5
517E
102
{ACAD_REACTORS
330
517D
102
}
330
517D
100
AcDbXrecord
280
     1
102
RTVSPropertyOp0
 70
     1
102
RTVSPropertyOp1
 70
     1
102
RTVSPropertyOp2
 70
     1
102
RTVSPropertyOp3
 70
     1
102
RTVSPropertyOp4
 70
     1
102
RTVSPropertyOp5
 70
     1
102
RTVSPropertyOp6
 70
     1
102
RTVSPropertyOp7
 70
     1
102
RTVSPropertyOp8
 70
     1
102
RTVSPropertyOp9
 70
     1
102
RTVSPropertyOp10
 70
     1
102
RTVSPropertyOp11
 70
     1
102
RTVSPropertyOp12
 70
     1
102
RTVSPropertyOp13
 70
     1
102
RTVSPropertyOp14
 70
     1
102
RTVSPropertyOp15
 70
     1
102
RTVSPropertyOp16
 70
     1
102
RTVSPropertyOp17
 70
     1
102
RTVSPropertyOp18
 70
     1
102
RTVSPropertyOp19
 70
     1
102
RTVSPropertyOp20
 70
     1
102
RTVSPropertyOp21
 70
     1
102
RTVSPropertyOp22
 70
     1
102
RTVSPropertyOp23
 70
     1
102
RTVSPropertyOp24
 70
     1
102
RTVSPropertyOp25
 70
     1
102
RTVSPropertyOp26
 70
     1
102
RTVSPropertyOp27
 70
     1
102
RTVSPropertyOp28
 70
     1
102
RTVSPropertyOp29
 70
     1
102
RTVSPropertyOp30
 70
     1
102
RTVSPropertyOp31
 70
     1
102
RTVSPropertyOp32
 70
     1
  0
XRECORD
  5
5182
102
{ACAD_REACTORS
330
5181
102
}
330
5181
100
AcDbXrecord
280
     1
102
RTVSPropertyOp0
 70
     1
102
RTVSPropertyOp1
 70
     1
102
RTVSPropertyOp2
 70
     1
102
RTVSPropertyOp3
 70
     1
102
RTVSPropertyOp4
 70
     1
102
RTVSPropertyOp5
 70
     1
102
RTVSPropertyOp6
 70
     1
102
RTVSPropertyOp7
 70
     1
102
RTVSPropertyOp8
 70
     1
102
RTVSPropertyOp9
 70
     1
102
RTVSPropertyOp10
 70
     1
102
RTVSPropertyOp11
 70
     1
102
RTVSPropertyOp12
 70
     1
102
RTVSPropertyOp13
 70
     1
102
RTVSPropertyOp14
 70
     1
102
RTVSPropertyOp15
 70
     1
102
RTVSPropertyOp16
 70
     1
102
RTVSPropertyOp17
 70
     1
102
RTVSPropertyOp18
 70
     1
102
RTVSPropertyOp19
 70
     1
102
RTVSPropertyOp20
 70
     1
102
RTVSPropertyOp21
 70
     1
102
RTVSPropertyOp22
 70
     1
102
RTVSPropertyOp23
 70
     1
102
RTVSPropertyOp24
 70
     1
102
RTVSPropertyOp25
 70
     1
102
RTVSPropertyOp26
 70
     1
102
RTVSPropertyOp27
 70
     1
102
RTVSPropertyOp28
 70
     1
102
RTVSPropertyOp29
 70
     1
102
RTVSPropertyOp30
 70
     1
102
RTVSPropertyOp31
 70
     1
102
RTVSPropertyOp32
 70
     1
  0
XRECORD
  5
51A1
102
{ACAD_REACTORS
330
51A0
102
}
330
51A0
100
AcDbXrecord
280
     1
102
RTVSPropertyOp0
 70
     0
102
RTVSPropertyOp1
 70
     0
102
RTVSPropertyOp2
 70
     0
102
RTVSPropertyOp3
 70
     0
102
RTVSPropertyOp4
 70
     0
102
RTVSPropertyOp5
 70
     0
102
RTVSPropertyOp6
 70
     0
102
RTVSPropertyOp7
 70
     0
102
RTVSPropertyOp8
 70
     0
102
RTVSPropertyOp9
 70
     0
102
RTVSPropertyOp10
 70
     0
102
RTVSPropertyOp11
 70
     0
102
RTVSPropertyOp12
 70
     0
102
RTVSPropertyOp13
 70
     0
102
RTVSPropertyOp14
 70
     2
102
RTVSPropertyOp15
 70
     0
102
RTVSPropertyOp16
 70
     0
102
RTVSPropertyOp17
 70
     0
102
RTVSPropertyOp18
 70
     0
102
RTVSPropertyOp19
 70
     0
102
RTVSPropertyOp20
 70
     0
102
RTVSPropertyOp21
 70
     0
102
RTVSPropertyOp22
 70
     0
102
RTVSPropertyOp23
 70
     0
102
RTVSPropertyOp24
 70
     0
102
RTVSPropertyOp25
 70
     0
102
RTVSPropertyOp26
 70
     0
102
RTVSPropertyOp27
 70
     0
102
RTVSPropertyOp28
 70
     0
102
RTVSPropertyOp29
 70
     0
102
RTVSPropertyOp30
 70
     0
102
RTVSPropertyOp31
 70
     0
102
RTVSPropertyOp32
 70
     0
  0
XRECORD
  5
518A
102
{ACAD_REACTORS
330
5189
102
}
330
5189
100
AcDbXrecord
280
     1
102
RTVSPropertyOp0
 70
     1
102
RTVSPropertyOp1
 70
     1
102
RTVSPropertyOp2
 70
     1
102
RTVSPropertyOp3
 70
     1
102
RTVSPropertyOp4
 70
     1
102
RTVSPropertyOp5
 70
     1
102
RTVSPropertyOp6
 70
     1
102
RTVSPropertyOp7
 70
     1
102
RTVSPropertyOp8
 70
     1
102
RTVSPropertyOp9
 70
     1
102
RTVSPropertyOp10
 70
     1
102
RTVSPropertyOp11
 70
     1
102
RTVSPropertyOp12
 70
     1
102
RTVSPropertyOp13
 70
     1
102
RTVSPropertyOp14
 70
     1
102
RTVSPropertyOp15
 70
     1
102
RTVSPropertyOp16
 70
     1
102
RTVSPropertyOp17
 70
     1
102
RTVSPropertyOp18
 70
     1
102
RTVSPropertyOp19
 70
     1
102
RTVSPropertyOp20
 70
     1
102
RTVSPropertyOp21
 70
     1
102
RTVSPropertyOp22
 70
     1
102
RTVSPropertyOp23
 70
     1
102
RTVSPropertyOp24
 70
     1
102
RTVSPropertyOp25
 70
     1
102
RTVSPropertyOp26
 70
     1
102
RTVSPropertyOp27
 70
     1
102
RTVSPropertyOp28
 70
     1
102
RTVSPropertyOp29
 70
     1
102
RTVSPropertyOp30
 70
     1
102
RTVSPropertyOp31
 70
     1
102
RTVSPropertyOp32
 70
     1
  0
XRECORD
  5
516E
102
{ACAD_REACTORS
330
516D
102
}
330
516D
100
AcDbXrecord
280
     1
102
RTVSPropertyOp0
 70
     1
102
RTVSPropertyOp1
 70
     1
102
RTVSPropertyOp2
 70
     1
102
RTVSPropertyOp3
 70
     1
102
RTVSPropertyOp4
 70
     1
102
RTVSPropertyOp5
 70
     1
102
RTVSPropertyOp6
 70
     1
102
RTVSPropertyOp7
 70
     1
102
RTVSPropertyOp8
 70
     1
102
RTVSPropertyOp9
 70
     1
102
RTVSPropertyOp10
 70
     1
102
RTVSPropertyOp11
 70
     1
102
RTVSPropertyOp12
 70
     1
102
RTVSPropertyOp13
 70
     1
102
RTVSPropertyOp14
 70
     1
102
RTVSPropertyOp15
 70
     1
102
RTVSPropertyOp16
 70
     1
102
RTVSPropertyOp17
 70
     1
102
RTVSPropertyOp18
 70
     1
102
RTVSPropertyOp19
 70
     1
102
RTVSPropertyOp20
 70
     1
102
RTVSPropertyOp21
 70
     1
102
RTVSPropertyOp22
 70
     1
102
RTVSPropertyOp23
 70
     1
102
RTVSPropertyOp24
 70
     1
102
RTVSPropertyOp25
 70
     1
102
RTVSPropertyOp26
 70
     1
102
RTVSPropertyOp27
 70
     1
102
RTVSPropertyOp28
 70
     1
102
RTVSPropertyOp29
 70
     1
102
RTVSPropertyOp30
 70
     1
102
RTVSPropertyOp31
 70
     1
102
RTVSPropertyOp32
 70
     1
  0
XRECORD
  5
5170
102
{ACAD_REACTORS
330
516F
102
}
330
516F
100
AcDbXrecord
280
     1
102
RTVSPropertyOp0
 70
     1
102
RTVSPropertyOp1
 70
     1
102
RTVSPropertyOp2
 70
     1
102
RTVSPropertyOp3
 70
     1
102
RTVSPropertyOp4
 70
     1
102
RTVSPropertyOp5
 70
     1
102
RTVSPropertyOp6
 70
     1
102
RTVSPropertyOp7
 70
     1
102
RTVSPropertyOp8
 70
     1
102
RTVSPropertyOp9
 70
     1
102
RTVSPropertyOp10
 70
     1
102
RTVSPropertyOp11
 70
     1
102
RTVSPropertyOp12
 70
     1
102
RTVSPropertyOp13
 70
     1
102
RTVSPropertyOp14
 70
     1
102
RTVSPropertyOp15
 70
     1
102
RTVSPropertyOp16
 70
     1
102
RTVSPropertyOp17
 70
     1
102
RTVSPropertyOp18
 70
     1
102
RTVSPropertyOp19
 70
     1
102
RTVSPropertyOp20
 70
     1
102
RTVSPropertyOp21
 70
     1
102
RTVSPropertyOp22
 70
     1
102
RTVSPropertyOp23
 70
     1
102
RTVSPropertyOp24
 70
     1
102
RTVSPropertyOp25
 70
     1
102
RTVSPropertyOp26
 70
     1
102
RTVSPropertyOp27
 70
     1
102
RTVSPropertyOp28
 70
     1
102
RTVSPropertyOp29
 70
     1
102
RTVSPropertyOp30
 70
     1
102
RTVSPropertyOp31
 70
     1
102
RTVSPropertyOp32
 70
     1
  0
XRECORD
  5
5172
102
{ACAD_REACTORS
330
5171
102
}
330
5171
100
AcDbXrecord
280
     1
102
RTVSPropertyOp0
 70
     1
102
RTVSPropertyOp1
 70
     1
102
RTVSPropertyOp2
 70
     1
102
RTVSPropertyOp3
 70
     1
102
RTVSPropertyOp4
 70
     1
102
RTVSPropertyOp5
 70
     1
102
RTVSPropertyOp6
 70
     1
102
RTVSPropertyOp7
 70
     1
102
RTVSPropertyOp8
 70
     1
102
RTVSPropertyOp9
 70
     1
102
RTVSPropertyOp10
 70
     1
102
RTVSPropertyOp11
 70
     1
102
RTVSPropertyOp12
 70
     1
102
RTVSPropertyOp13
 70
     1
102
RTVSPropertyOp14
 70
     1
102
RTVSPropertyOp15
 70
     1
102
RTVSPropertyOp16
 70
     1
102
RTVSPropertyOp17
 70
     1
102
RTVSPropertyOp18
 70
     1
102
RTVSPropertyOp19
 70
     1
102
RTVSPropertyOp20
 70
     1
102
RTVSPropertyOp21
 70
     1
102
RTVSPropertyOp22
 70
     1
102
RTVSPropertyOp23
 70
     1
102
RTVSPropertyOp24
 70
     1
102
RTVSPropertyOp25
 70
     1
102
RTVSPropertyOp26
 70
     1
102
RTVSPropertyOp27
 70
     1
102
RTVSPropertyOp28
 70
     1
102
RTVSPropertyOp29
 70
     1
102
RTVSPropertyOp30
 70
     1
102
RTVSPropertyOp31
 70
     1
102
RTVSPropertyOp32
 70
     1
  0
XRECORD
  5
5174
102
{ACAD_REACTORS
330
5173
102
}
330
5173
100
AcDbXrecord
280
     1
102
RTVSPropertyOp0
 70
     1
102
RTVSPropertyOp1
 70
     1
102
RTVSPropertyOp2
 70
     1
102
RTVSPropertyOp3
 70
     1
102
RTVSPropertyOp4
 70
     1
102
RTVSPropertyOp5
 70
     1
102
RTVSPropertyOp6
 70
     1
102
RTVSPropertyOp7
 70
     1
102
RTVSPropertyOp8
 70
     1
102
RTVSPropertyOp9
 70
     1
102
RTVSPropertyOp10
 70
     1
102
RTVSPropertyOp11
 70
     1
102
RTVSPropertyOp12
 70
     1
102
RTVSPropertyOp13
 70
     1
102
RTVSPropertyOp14
 70
     1
102
RTVSPropertyOp15
 70
     1
102
RTVSPropertyOp16
 70
     1
102
RTVSPropertyOp17
 70
     1
102
RTVSPropertyOp18
 70
     1
102
RTVSPropertyOp19
 70
     1
102
RTVSPropertyOp20
 70
     1
102
RTVSPropertyOp21
 70
     1
102
RTVSPropertyOp22
 70
     1
102
RTVSPropertyOp23
 70
     1
102
RTVSPropertyOp24
 70
     1
102
RTVSPropertyOp25
 70
     1
102
RTVSPropertyOp26
 70
     1
102
RTVSPropertyOp27
 70
     1
102
RTVSPropertyOp28
 70
     1
102
RTVSPropertyOp29
 70
     1
102
RTVSPropertyOp30
 70
     1
102
RTVSPropertyOp31
 70
     1
102
RTVSPropertyOp32
 70
     1
  0
XRECORD
  5
5191
102
{ACAD_REACTORS
330
5190
102
}
330
5190
100
AcDbXrecord
280
     1
102
RTVSPropertyOp0
 70
     1
102
RTVSPropertyOp1
 70
     1
102
RTVSPropertyOp2
 70
     1
102
RTVSPropertyOp3
 70
     1
102
RTVSPropertyOp4
 70
     1
102
RTVSPropertyOp5
 70
     1
102
RTVSPropertyOp6
 70
     1
102
RTVSPropertyOp7
 70
     1
102
RTVSPropertyOp8
 70
     1
102
RTVSPropertyOp9
 70
     1
102
RTVSPropertyOp10
 70
     1
102
RTVSPropertyOp11
 70
     1
102
RTVSPropertyOp12
 70
     1
102
RTVSPropertyOp13
 70
     1
102
RTVSPropertyOp14
 70
     1
102
RTVSPropertyOp15
 70
     1
102
RTVSPropertyOp16
 70
     1
102
RTVSPropertyOp17
 70
     1
102
RTVSPropertyOp18
 70
     1
102
RTVSPropertyOp19
 70
     1
102
RTVSPropertyOp20
 70
     1
102
RTVSPropertyOp21
 70
     1
102
RTVSPropertyOp22
 70
     1
102
RTVSPropertyOp23
 70
     1
102
RTVSPropertyOp24
 70
     1
102
RTVSPropertyOp25
 70
     1
102
RTVSPropertyOp26
 70
     1
102
RTVSPropertyOp27
 70
     1
102
RTVSPropertyOp28
 70
     1
102
RTVSPropertyOp29
 70
     1
102
RTVSPropertyOp30
 70
     1
102
RTVSPropertyOp31
 70
     1
102
RTVSPropertyOp32
 70
     1
  0
XRECORD
  5
519D
102
{ACAD_REACTORS
330
519C
102
}
330
519C
100
AcDbXrecord
280
     1
102
RTVSPropertyOp0
 70
     0
102
RTVSPropertyOp1
 70
     0
102
RTVSPropertyOp2
 70
     0
102
RTVSPropertyOp3
 70
     0
102
RTVSPropertyOp4
 70
     0
102
RTVSPropertyOp5
 70
     0
102
RTVSPropertyOp6
 70
     0
102
RTVSPropertyOp7
 70
     0
102
RTVSPropertyOp8
 70
     0
102
RTVSPropertyOp9
 70
     0
102
RTVSPropertyOp10
 70
     0
102
RTVSPropertyOp11
 70
     0
102
RTVSPropertyOp12
 70
     0
102
RTVSPropertyOp13
 70
     0
102
RTVSPropertyOp14
 70
     2
102
RTVSPropertyOp15
 70
     0
102
RTVSPropertyOp16
 70
     0
102
RTVSPropertyOp17
 70
     0
102
RTVSPropertyOp18
 70
     0
102
RTVSPropertyOp19
 70
     0
102
RTVSPropertyOp20
 70
     0
102
RTVSPropertyOp21
 70
     0
102
RTVSPropertyOp22
 70
     0
102
RTVSPropertyOp23
 70
     0
102
RTVSPropertyOp24
 70
     0
102
RTVSPropertyOp25
 70
     0
102
RTVSPropertyOp26
 70
     0
102
RTVSPropertyOp27
 70
     0
102
RTVSPropertyOp28
 70
     0
102
RTVSPropertyOp29
 70
     0
102
RTVSPropertyOp30
 70
     0
102
RTVSPropertyOp31
 70
     0
102
RTVSPropertyOp32
 70
     0
  0
XRECORD
  5
5188
102
{ACAD_REACTORS
330
5187
102
}
330
5187
100
AcDbXrecord
280
     1
102
RTVSPropertyOp0
 70
     1
102
RTVSPropertyOp1
 70
     1
102
RTVSPropertyOp2
 70
     1
102
RTVSPropertyOp3
 70
     1
102
RTVSPropertyOp4
 70
     1
102
RTVSPropertyOp5
 70
     1
102
RTVSPropertyOp6
 70
     1
102
RTVSPropertyOp7
 70
     1
102
RTVSPropertyOp8
 70
     1
102
RTVSPropertyOp9
 70
     1
102
RTVSPropertyOp10
 70
     1
102
RTVSPropertyOp11
 70
     1
102
RTVSPropertyOp12
 70
     1
102
RTVSPropertyOp13
 70
     1
102
RTVSPropertyOp14
 70
     1
102
RTVSPropertyOp15
 70
     1
102
RTVSPropertyOp16
 70
     1
102
RTVSPropertyOp17
 70
     1
102
RTVSPropertyOp18
 70
     1
102
RTVSPropertyOp19
 70
     1
102
RTVSPropertyOp20
 70
     1
102
RTVSPropertyOp21
 70
     1
102
RTVSPropertyOp22
 70
     1
102
RTVSPropertyOp23
 70
     1
102
RTVSPropertyOp24
 70
     1
102
RTVSPropertyOp25
 70
     1
102
RTVSPropertyOp26
 70
     1
102
RTVSPropertyOp27
 70
     1
102
RTVSPropertyOp28
 70
     1
102
RTVSPropertyOp29
 70
     1
102
RTVSPropertyOp30
 70
     1
102
RTVSPropertyOp31
 70
     1
102
RTVSPropertyOp32
 70
     1
  0
XRECORD
  5
519F
102
{ACAD_REACTORS
330
519E
102
}
330
519E
100
AcDbXrecord
280
     1
102
RTVSPropertyOp0
 70
     0
102
RTVSPropertyOp1
 70
     0
102
RTVSPropertyOp2
 70
     0
102
RTVSPropertyOp3
 70
     0
102
RTVSPropertyOp4
 70
     0
102
RTVSPropertyOp5
 70
     0
102
RTVSPropertyOp6
 70
     0
102
RTVSPropertyOp7
 70
     0
102
RTVSPropertyOp8
 70
     0
102
RTVSPropertyOp9
 70
     0
102
RTVSPropertyOp10
 70
     0
102
RTVSPropertyOp11
 70
     0
102
RTVSPropertyOp12
 70
     0
102
RTVSPropertyOp13
 70
     0
102
RTVSPropertyOp14
 70
     2
102
RTVSPropertyOp15
 70
     0
102
RTVSPropertyOp16
 70
     0
102
RTVSPropertyOp17
 70
     0
102
RTVSPropertyOp18
 70
     0
102
RTVSPropertyOp19
 70
     0
102
RTVSPropertyOp20
 70
     0
102
RTVSPropertyOp21
 70
     0
102
RTVSPropertyOp22
 70
     0
102
RTVSPropertyOp23
 70
     0
102
RTVSPropertyOp24
 70
     0
102
RTVSPropertyOp25
 70
     0
102
RTVSPropertyOp26
 70
     0
102
RTVSPropertyOp27
 70
     0
102
RTVSPropertyOp28
 70
     0
102
RTVSPropertyOp29
 70
     0
102
RTVSPropertyOp30
 70
     0
102
RTVSPropertyOp31
 70
     0
102
RTVSPropertyOp32
 70
     0
  0
XRECORD
  5
5180
102
{ACAD_REACTORS
330
517F
102
}
330
517F
100
AcDbXrecord
280
     1
102
RTVSPropertyOp0
 70
     1
102
RTVSPropertyOp1
 70
     1
102
RTVSPropertyOp2
 70
     1
102
RTVSPropertyOp3
 70
     1
102
RTVSPropertyOp4
 70
     1
102
RTVSPropertyOp5
 70
     1
102
RTVSPropertyOp6
 70
     1
102
RTVSPropertyOp7
 70
     1
102
RTVSPropertyOp8
 70
     1
102
RTVSPropertyOp9
 70
     1
102
RTVSPropertyOp10
 70
     1
102
RTVSPropertyOp11
 70
     1
102
RTVSPropertyOp12
 70
     1
102
RTVSPropertyOp13
 70
     1
102
RTVSPropertyOp14
 70
     1
102
RTVSPropertyOp15
 70
     1
102
RTVSPropertyOp16
 70
     1
102
RTVSPropertyOp17
 70
     1
102
RTVSPropertyOp18
 70
     1
102
RTVSPropertyOp19
 70
     1
102
RTVSPropertyOp20
 70
     1
102
RTVSPropertyOp21
 70
     1
102
RTVSPropertyOp22
 70
     1
102
RTVSPropertyOp23
 70
     1
102
RTVSPropertyOp24
 70
     1
102
RTVSPropertyOp25
 70
     1
102
RTVSPropertyOp26
 70
     1
102
RTVSPropertyOp27
 70
     1
102
RTVSPropertyOp28
 70
     1
102
RTVSPropertyOp29
 70
     1
102
RTVSPropertyOp30
 70
     1
102
RTVSPropertyOp31
 70
     1
102
RTVSPropertyOp32
 70
     1
  0
XRECORD
  5
519B
102
{ACAD_REACTORS
330
519A
102
}
330
519A
100
AcDbXrecord
280
     1
102
RTVSPropertyOp0
 70
     1
102
RTVSPropertyOp1
 70
     1
102
RTVSPropertyOp2
 70
     1
102
RTVSPropertyOp3
 70
     1
102
RTVSPropertyOp4
 70
     1
102
RTVSPropertyOp5
 70
     1
102
RTVSPropertyOp6
 70
     1
102
RTVSPropertyOp7
 70
     1
102
RTVSPropertyOp8
 70
     1
102
RTVSPropertyOp9
 70
     1
102
RTVSPropertyOp10
 70
     1
102
RTVSPropertyOp11
 70
     1
102
RTVSPropertyOp12
 70
     1
102
RTVSPropertyOp13
 70
     1
102
RTVSPropertyOp14
 70
     1
102
RTVSPropertyOp15
 70
     1
102
RTVSPropertyOp16
 70
     1
102
RTVSPropertyOp17
 70
     1
102
RTVSPropertyOp18
 70
     1
102
RTVSPropertyOp19
 70
     1
102
RTVSPropertyOp20
 70
     1
102
RTVSPropertyOp21
 70
     1
102
RTVSPropertyOp22
 70
     1
102
RTVSPropertyOp23
 70
     1
102
RTVSPropertyOp24
 70
     1
102
RTVSPropertyOp25
 70
     1
102
RTVSPropertyOp26
 70
     1
102
RTVSPropertyOp27
 70
     1
102
RTVSPropertyOp28
 70
     1
102
RTVSPropertyOp29
 70
     1
102
RTVSPropertyOp30
 70
     1
102
RTVSPropertyOp31
 70
     1
102
RTVSPropertyOp32
 70
     1
  0
XRECORD
  5
5199
102
{ACAD_REACTORS
330
5198
102
}
330
5198
100
AcDbXrecord
280
     1
102
RTVSPropertyOp0
 70
     1
102
RTVSPropertyOp1
 70
     1
102
RTVSPropertyOp2
 70
     1
102
RTVSPropertyOp3
 70
     1
102
RTVSPropertyOp4
 70
     1
102
RTVSPropertyOp5
 70
     1
102
RTVSPropertyOp6
 70
     1
102
RTVSPropertyOp7
 70
     1
102
RTVSPropertyOp8
 70
     1
102
RTVSPropertyOp9
 70
     1
102
RTVSPropertyOp10
 70
     1
102
RTVSPropertyOp11
 70
     1
102
RTVSPropertyOp12
 70
     1
102
RTVSPropertyOp13
 70
     1
102
RTVSPropertyOp14
 70
     1
102
RTVSPropertyOp15
 70
     1
102
RTVSPropertyOp16
 70
     1
102
RTVSPropertyOp17
 70
     1
102
RTVSPropertyOp18
 70
     1
102
RTVSPropertyOp19
 70
     1
102
RTVSPropertyOp20
 70
     1
102
RTVSPropertyOp21
 70
     1
102
RTVSPropertyOp22
 70
     1
102
RTVSPropertyOp23
 70
     1
102
RTVSPropertyOp24
 70
     1
102
RTVSPropertyOp25
 70
     1
102
RTVSPropertyOp26
 70
     1
102
RTVSPropertyOp27
 70
     1
102
RTVSPropertyOp28
 70
     1
102
RTVSPropertyOp29
 70
     1
102
RTVSPropertyOp30
 70
     1
102
RTVSPropertyOp31
 70
     1
102
RTVSPropertyOp32
 70
     1
  0
XRECORD
  5
5193
102
{ACAD_REACTORS
330
5192
102
}
330
5192
100
AcDbXrecord
280
     1
102
RTVSPropertyOp0
 70
     1
102
RTVSPropertyOp1
 70
     1
102
RTVSPropertyOp2
 70
     1
102
RTVSPropertyOp3
 70
     1
102
RTVSPropertyOp4
 70
     1
102
RTVSPropertyOp5
 70
     1
102
RTVSPropertyOp6
 70
     1
102
RTVSPropertyOp7
 70
     1
102
RTVSPropertyOp8
 70
     1
102
RTVSPropertyOp9
 70
     1
102
RTVSPropertyOp10
 70
     1
102
RTVSPropertyOp11
 70
     1
102
RTVSPropertyOp12
 70
     1
102
RTVSPropertyOp13
 70
     1
102
RTVSPropertyOp14
 70
     1
102
RTVSPropertyOp15
 70
     1
102
RTVSPropertyOp16
 70
     1
102
RTVSPropertyOp17
 70
     1
102
RTVSPropertyOp18
 70
     1
102
RTVSPropertyOp19
 70
     1
102
RTVSPropertyOp20
 70
     1
102
RTVSPropertyOp21
 70
     1
102
RTVSPropertyOp22
 70
     1
102
RTVSPropertyOp23
 70
     1
102
RTVSPropertyOp24
 70
     1
102
RTVSPropertyOp25
 70
     1
102
RTVSPropertyOp26
 70
     1
102
RTVSPropertyOp27
 70
     1
102
RTVSPropertyOp28
 70
     1
102
RTVSPropertyOp29
 70
     1
102
RTVSPropertyOp30
 70
     1
102
RTVSPropertyOp31
 70
     1
102
RTVSPropertyOp32
 70
     1
  0
XRECORD
  5
5195
102
{ACAD_REACTORS
330
5194
102
}
330
5194
100
AcDbXrecord
280
     1
102
RTVSPropertyOp0
 70
     1
102
RTVSPropertyOp1
 70
     1
102
RTVSPropertyOp2
 70
     1
102
RTVSPropertyOp3
 70
     1
102
RTVSPropertyOp4
 70
     1
102
RTVSPropertyOp5
 70
     1
102
RTVSPropertyOp6
 70
     1
102
RTVSPropertyOp7
 70
     1
102
RTVSPropertyOp8
 70
     1
102
RTVSPropertyOp9
 70
     1
102
RTVSPropertyOp10
 70
     1
102
RTVSPropertyOp11
 70
     1
102
RTVSPropertyOp12
 70
     1
102
RTVSPropertyOp13
 70
     1
102
RTVSPropertyOp14
 70
     1
102
RTVSPropertyOp15
 70
     1
102
RTVSPropertyOp16
 70
     1
102
RTVSPropertyOp17
 70
     1
102
RTVSPropertyOp18
 70
     1
102
RTVSPropertyOp19
 70
     1
102
RTVSPropertyOp20
 70
     1
102
RTVSPropertyOp21
 70
     1
102
RTVSPropertyOp22
 70
     1
102
RTVSPropertyOp23
 70
     1
102
RTVSPropertyOp24
 70
     1
102
RTVSPropertyOp25
 70
     1
102
RTVSPropertyOp26
 70
     1
102
RTVSPropertyOp27
 70
     1
102
RTVSPropertyOp28
 70
     1
102
RTVSPropertyOp29
 70
     1
102
RTVSPropertyOp30
 70
     1
102
RTVSPropertyOp31
 70
     1
102
RTVSPropertyOp32
 70
     1
  0
XRECORD
  5
5186
102
{ACAD_REACTORS
330
5185
102
}
330
5185
100
AcDbXrecord
280
     1
102
RTVSPropertyOp0
 70
     1
102
RTVSPropertyOp1
 70
     1
102
RTVSPropertyOp2
 70
     1
102
RTVSPropertyOp3
 70
     1
102
RTVSPropertyOp4
 70
     1
102
RTVSPropertyOp5
 70
     1
102
RTVSPropertyOp6
 70
     1
102
RTVSPropertyOp7
 70
     1
102
RTVSPropertyOp8
 70
     1
102
RTVSPropertyOp9
 70
     1
102
RTVSPropertyOp10
 70
     1
102
RTVSPropertyOp11
 70
     1
102
RTVSPropertyOp12
 70
     1
102
RTVSPropertyOp13
 70
     1
102
RTVSPropertyOp14
 70
     1
102
RTVSPropertyOp15
 70
     1
102
RTVSPropertyOp16
 70
     1
102
RTVSPropertyOp17
 70
     1
102
RTVSPropertyOp18
 70
     1
102
RTVSPropertyOp19
 70
     1
102
RTVSPropertyOp20
 70
     1
102
RTVSPropertyOp21
 70
     1
102
RTVSPropertyOp22
 70
     1
102
RTVSPropertyOp23
 70
     1
102
RTVSPropertyOp24
 70
     1
102
RTVSPropertyOp25
 70
     1
102
RTVSPropertyOp26
 70
     1
102
RTVSPropertyOp27
 70
     1
102
RTVSPropertyOp28
 70
     1
102
RTVSPropertyOp29
 70
     1
102
RTVSPropertyOp30
 70
     1
102
RTVSPropertyOp31
 70
     1
102
RTVSPropertyOp32
 70
     1
  0
XRECORD
  5
518F
102
{ACAD_REACTORS
330
518E
102
}
330
518E
100
AcDbXrecord
280
     1
102
RTVSPropertyOp0
 70
     1
102
RTVSPropertyOp1
 70
     1
102
RTVSPropertyOp2
 70
     1
102
RTVSPropertyOp3
 70
     1
102
RTVSPropertyOp4
 70
     1
102
RTVSPropertyOp5
 70
     1
102
RTVSPropertyOp6
 70
     1
102
RTVSPropertyOp7
 70
     1
102
RTVSPropertyOp8
 70
     1
102
RTVSPropertyOp9
 70
     1
102
RTVSPropertyOp10
 70
     1
102
RTVSPropertyOp11
 70
     1
102
RTVSPropertyOp12
 70
     1
102
RTVSPropertyOp13
 70
     1
102
RTVSPropertyOp14
 70
     1
102
RTVSPropertyOp15
 70
     1
102
RTVSPropertyOp16
 70
     1
102
RTVSPropertyOp17
 70
     1
102
RTVSPropertyOp18
 70
     1
102
RTVSPropertyOp19
 70
     1
102
RTVSPropertyOp20
 70
     1
102
RTVSPropertyOp21
 70
     1
102
RTVSPropertyOp22
 70
     1
102
RTVSPropertyOp23
 70
     1
102
RTVSPropertyOp24
 70
     1
102
RTVSPropertyOp25
 70
     1
102
RTVSPropertyOp26
 70
     1
102
RTVSPropertyOp27
 70
     1
102
RTVSPropertyOp28
 70
     1
102
RTVSPropertyOp29
 70
     1
102
RTVSPropertyOp30
 70
     1
102
RTVSPropertyOp31
 70
     1
102
RTVSPropertyOp32
 70
     1
  0
XRECORD
  5
5197
102
{ACAD_REACTORS
330
5196
102
}
330
5196
100
AcDbXrecord
280
     1
102
RTVSPropertyOp0
 70
     1
102
RTVSPropertyOp1
 70
     1
102
RTVSPropertyOp2
 70
     1
102
RTVSPropertyOp3
 70
     1
102
RTVSPropertyOp4
 70
     1
102
RTVSPropertyOp5
 70
     1
102
RTVSPropertyOp6
 70
     1
102
RTVSPropertyOp7
 70
     1
102
RTVSPropertyOp8
 70
     1
102
RTVSPropertyOp9
 70
     1
102
RTVSPropertyOp10
 70
     1
102
RTVSPropertyOp11
 70
     1
102
RTVSPropertyOp12
 70
     1
102
RTVSPropertyOp13
 70
     1
102
RTVSPropertyOp14
 70
     1
102
RTVSPropertyOp15
 70
     1
102
RTVSPropertyOp16
 70
     1
102
RTVSPropertyOp17
 70
     1
102
RTVSPropertyOp18
 70
     1
102
RTVSPropertyOp19
 70
     1
102
RTVSPropertyOp20
 70
     1
102
RTVSPropertyOp21
 70
     1
102
RTVSPropertyOp22
 70
     1
102
RTVSPropertyOp23
 70
     1
102
RTVSPropertyOp24
 70
     1
102
RTVSPropertyOp25
 70
     1
102
RTVSPropertyOp26
 70
     1
102
RTVSPropertyOp27
 70
     1
102
RTVSPropertyOp28
 70
     1
102
RTVSPropertyOp29
 70
     1
102
RTVSPropertyOp30
 70
     1
102
RTVSPropertyOp31
 70
     1
102
RTVSPropertyOp32
 70
     1
  0
DICTIONARY
  5
51A2
330
31E2
100
AcDbDictionary
280
     1
281
     1
  3
ACAD_XREC_ROUNDTRIP
360
51A3
  0
XRECORD
  5
51A3
102
{ACAD_REACTORS
330
51A2
102
}
330
51A2
100
AcDbXrecord
280
     1
102
SHADEPLOT
 70
     0
102
SHADEPLOTRESLEVEL
 70
     2
102
SHADEPLOTCUSTOMDPI
 70
   300
  0
ENDSEC
  0
EOF
