  0
SECTION
  2
HEADER
  9
$ACADVER
  1
AC1015
  9
$ACADMAINTVER
 70
    20
  9
$DWGCODEPAGE
  3
ANSI_932
  9
$INSBASE
 10
0.0
 20
0.0
 30
0.0
  9
$EXTMIN
 10
253.5605723729653
 20
208.0635741144596
 30
-0.000000000000013
  9
$EXTMAX
 10
344.813626717297
 20
282.9412366874434
 30
0.0000000000000023
  9
$LIMMIN
 10
222.770076765816
 20
167.1114176541369
  9
$LIMMAX
 10
432.7915053372445
 20
315.611417654137
  9
$ORTHOMODE
 70
     0
  9
$REGENMODE
 70
     1
  9
$FILLMODE
 70
     1
  9
$QTEXTMODE
 70
     0
  9
$MIRRTEXT
 70
     1
  9
$LTSCALE
 40
0.5
  9
$ATTMODE
 70
     1
  9
$TEXTSIZE
 40
1.5
  9
$TRACEWID
 40
1.0
  9
$TEXTSTYLE
  7
STANDARD
  9
$CLAYER
  8
0
  9
$CELTYPE
  6
ByLayer
  9
$CECOLOR
 62
   256
  9
$CELTSCALE
 40
1.0
  9
$DISPSILH
 70
     0
  9
$DIMSCALE
 40
0.5
  9
$DIMASZ
 40
2.5
  9
$DIMEXO
 40
1.0
  9
$DIMDLI
 40
10.0
  9
$DIMRND
 40
0.0
  9
$DIMDLE
 40
0.0
  9
$DIMEXE
 40
1.0
  9
$DIMTP
 40
0.1
  9
$DIMTM
 40
0.1
  9
$DIMTXT
 40
3.5
  9
$DIMCEN
 40
0.0
  9
$DIMTSZ
 40
0.0
  9
$DIMTOL
 70
     0
  9
$DIMLIM
 70
     0
  9
$DIMTIH
 70
     0
  9
$DIMTOH
 70
     0
  9
$DIMSE1
 70
     0
  9
$DIMSE2
 70
     0
  9
$DIMTAD
 70
     3
  9
$DIMZIN
 70
     8
  9
$DIMBLK
  1
Open30
  9
$DIMASO
 70
     1
  9
$DIMSHO
 70
     1
  9
$DIMPOST
  1

  9
$DIMAPOST
  1
"
  9
$DIMALT
 70
     0
  9
$DIMALTD
 70
     2
  9
$DIMALTF
 40
0.0393701
  9
$DIMLFAC
 40
1.0
  9
$DIMTOFL
 70
     1
  9
$DIMTVP
 40
0.0
  9
$DIMTIX
 70
     0
  9
$DIMSOXD
 70
     0
  9
$DIMSAH
 70
     0
  9
$DIMBLK1
  1
Open30
  9
$DIMBLK2
  1
Open30
  9
$DIMSTYLE
  2
AM_JIS
  9
$DIMCLRD
 70
   256
  9
$DIMCLRE
 70
   256
  9
$DIMCLRT
 70
     2
  9
$DIMTFAC
 40
0.71
  9
$DIMGAP
 40
1.5
  9
$DIMJUST
 70
     0
  9
$DIMSD1
 70
     0
  9
$DIMSD2
 70
     0
  9
$DIMTOLJ
 70
     0
  9
$DIMTZIN
 70
     8
  9
$DIMALTZ
 70
     0
  9
$DIMALTTZ
 70
     0
  9
$DIMUPT
 70
     0
  9
$DIMDEC
 70
     2
  9
$DIMTDEC
 70
     3
  9
$DIMALTU
 70
     2
  9
$DIMALTTD
 70
     4
  9
$DIMTXSTY
  7
STANDARD
  9
$DIMAUNIT
 70
     0
  9
$DIMADEC
 70
     0
  9
$DIMALTRND
 40
0.0
  9
$DIMAZIN
 70
     2
  9
$DIMDSEP
 70
    46
  9
$DIMATFIT
 70
     3
  9
$DIMFRAC
 70
     0
  9
$DIMLDRBLK
  1
Open30
  9
$DIMLUNIT
 70
     2
  9
$DIMLWD
 70
    -1
  9
$DIMLWE
 70
    -1
  9
$DIMTMOVE
 70
     0
  9
$LUNITS
 70
     2
  9
$LUPREC
 70
     2
  9
$SKETCHINC
 40
1.0
  9
$FILLETRAD
 40
0.5
  9
$AUNITS
 70
     0
  9
$AUPREC
 70
     0
  9
$MENU
  1
.
  9
$ELEVATION
 40
0.0
  9
$PELEVATION
 40
0.0
  9
$THICKNESS
 40
0.0
  9
$LIMCHECK
 70
     0
  9
$CHAMFERA
 40
2.5
  9
$CHAMFERB
 40
2.5
  9
$CHAMFERC
 40
20.0
  9
$CHAMFERD
 40
0.0
  9
$SKPOLY
 70
     0
  9
$TDCREATE
 40
2454784.375539815
  9
$TDUCREATE
 40
2454784.000539814
  9
$TDUPDATE
 40
2456042.699407778
  9
$TDUUPDATE
 40
2456042.324407778
  9
$TDINDWG
 40
0.4452773611
  9
$TDUSRTIMER
 40
0.4452771875
  9
$USRTIMER
 70
     1
  9
$ANGBASE
 50
0.0
  9
$ANGDIR
 70
     0
  9
$PDMODE
 70
     0
  9
$PDSIZE
 40
0.0
  9
$PLINEWID
 40
0.0
  9
$SPLFRAME
 70
     0
  9
$SPLINETYPE
 70
     6
  9
$SPLINESEGS
 70
     8
  9
$HANDSEED
  5
6E42
  9
$SURFTAB1
 70
     6
  9
$SURFTAB2
 70
     6
  9
$SURFTYPE
 70
     6
  9
$SURFU
 70
     6
  9
$SURFV
 70
     6
  9
$UCSBASE
  2

  9
$UCSNAME
  2

  9
$UCSORG
 10
0.0
 20
0.0
 30
0.0
  9
$UCSXDIR
 10
1.0
 20
0.0
 30
0.0
  9
$UCSYDIR
 10
0.0
 20
1.0
 30
0.0
  9
$UCSORTHOREF
  2

  9
$UCSORTHOVIEW
 70
     0
  9
$UCSORGTOP
 10
0.0
 20
0.0
 30
0.0
  9
$UCSORGBOTTOM
 10
0.0
 20
0.0
 30
0.0
  9
$UCSORGLEFT
 10
0.0
 20
0.0
 30
0.0
  9
$UCSORGRIGHT
 10
0.0
 20
0.0
 30
0.0
  9
$UCSORGFRONT
 10
0.0
 20
0.0
 30
0.0
  9
$UCSORGBACK
 10
0.0
 20
0.0
 30
0.0
  9
$PUCSBASE
  2

  9
$PUCSNAME
  2

  9
$PUCSORG
 10
0.0
 20
0.0
 30
0.0
  9
$PUCSXDIR
 10
1.0
 20
0.0
 30
0.0
  9
$PUCSYDIR
 10
0.0
 20
1.0
 30
0.0
  9
$PUCSORTHOREF
  2

  9
$PUCSORTHOVIEW
 70
     0
  9
$PUCSORGTOP
 10
0.0
 20
0.0
 30
0.0
  9
$PUCSORGBOTTOM
 10
0.0
 20
0.0
 30
0.0
  9
$PUCSORGLEFT
 10
0.0
 20
0.0
 30
0.0
  9
$PUCSORGRIGHT
 10
0.0
 20
0.0
 30
0.0
  9
$PUCSORGFRONT
 10
0.0
 20
0.0
 30
0.0
  9
$PUCSORGBACK
 10
0.0
 20
0.0
 30
0.0
  9
$USERI1
 70
     0
  9
$USERI2
 70
     0
  9
$USERI3
 70
     0
  9
$USERI4
 70
     0
  9
$USERI5
 70
     0
  9
$USERR1
 40
0.0
  9
$USERR2
 40
0.0
  9
$USERR3
 40
0.0
  9
$USERR4
 40
0.0
  9
$USERR5
 40
0.0
  9
$WORLDVIEW
 70
     1
  9
$SHADEDGE
 70
     3
  9
$SHADEDIF
 70
    70
  9
$TILEMODE
 70
     1
  9
$MAXACTVP
 70
    64
  9
$PINSBASE
 10
0.0
 20
0.0
 30
0.0
  9
$PLIMCHECK
 70
     0
  9
$PEXTMIN
 10
1.000000000000000E+20
 20
1.000000000000000E+20
 30
1.000000000000000E+20
  9
$PEXTMAX
 10
-1.000000000000000E+20
 20
-1.000000000000000E+20
 30
-1.000000000000000E+20
  9
$PLIMMIN
 10
0.0
 20
0.0
  9
$PLIMMAX
 10
420.0
 20
297.0
  9
$UNITMODE
 70
     0
  9
$VISRETAIN
 70
     1
  9
$PLINEGEN
 70
     0
  9
$PSLTSCALE
 70
     1
  9
$TREEDEPTH
 70
  3020
  9
$CMLSTYLE
  2
Standard
  9
$CMLJUST
 70
     0
  9
$CMLSCALE
 40
20.0
  9
$PROXYGRAPHICS
 70
     1
  9
$MEASUREMENT
 70
     1
  9
$CELWEIGHT
370
    -1
  9
$ENDCAPS
280
     0
  9
$JOINSTYLE
280
     0
  9
$LWDISPLAY
290
     0
  9
$INSUNITS
 70
     4
  9
$HYPERLINKBASE
  1

  9
$STYLESHEET
  1
IMAGIO.ctb
  9
$XEDIT
290
     1
  9
$CEPSNTYPE
380
     0
  9
$PSTYLEMODE
290
     1
  9
$FINGERPRINTGUID
  2
{195D72E8-7936-4A99-BEE5-8CE1A826B80A}
  9
$VERSIONGUID
  2
{C26715AE-4C6E-4D13-8E05-6FEEA280F4D7}
  9
$EXTNAMES
290
     1
  9
$PSVPSCALE
 40
0.0
  9
$OLESTARTUP
290
     0
  0
ENDSEC
  0
SECTION
  2
CLASSES
  0
CLASS
  1
ACDBDICTIONARYWDFLT
  2
AcDbDictionaryWithDefault
  3
ObjectDBX Classes
 90
        0
280
     0
281
     0
  0
CLASS
  1
ACDBPLACEHOLDER
  2
AcDbPlaceHolder
  3
ObjectDBX Classes
 90
        0
280
     0
281
     0
  0
CLASS
  1
LAYOUT
  2
AcDbLayout
  3
ObjectDBX Classes
 90
        0
280
     0
281
     0
  0
CLASS
  1
AMGSETTINGSOBJ
  2
AmgSettingsObj
  3
"AcadM|Product Description: AutoCAD Mechanical|Company: Autodesk, Inc."
 90
     1024
280
     0
281
     0
  0
CLASS
  1
ACME_DOCUMENT
  2
AcMeDbDoc
  3
AcMeServices
 90
     1024
280
     0
281
     0
  0
CLASS
  1
ACMESCOPE
  2
AcMeScope
  3
AcMeServices
 90
     1024
280
     0
281
     0
  0
CLASS
  1
ACMECOMMANDHISTORY
  2
AcMeCommandHistory
  3
AcMeServices
 90
     1024
280
     0
281
     0
  0
CLASS
  1
DICTIONARYVAR
  2
AcDbDictionaryVar
  3
ObjectDBX Classes
 90
        0
280
     0
281
     0
  0
CLASS
  1
ACIMSYSVARMAN
  2
AcImSysVarManager
  3
AcMeServices
 90
     1024
280
     0
281
     0
  0
CLASS
  1
ACIMREALSYSVAR
  2
AcImRealSysVar
  3
AcMeServices
 90
     1024
280
     0
281
     0
  0
CLASS
  1
ACIMINTSYSVAR
  2
AcImIntSysVar
  3
AcMeServices
 90
     1024
280
     0
281
     0
  0
CLASS
  1
ACMEDRAWINGMAN
  2
AcMeDrawingMan
  3
AcMeServices
 90
    33792
280
     0
281
     0
  0
CLASS
  1
ACMEVIEW
  2
AcMeView
  3
AcMeServices
 90
    33792
280
     0
281
     0
  0
CLASS
  1
ACDBENTITYCACHE
  2
AcMeEntityCache
  3
AcMeServices
 90
     1024
280
     0
281
     0
  0
CLASS
  1
GSMANAGER
  2
AcMeGSManager
  3
AcMeServices
 90
    32768
280
     0
281
     0
  0
CLASS
  1
AMDTINTERNALREACTOR
  2
AmdtInternalReactor
  3
AcMeServices
 90
     1024
280
     0
281
     0
  0
CLASS
  1
ACMESTATEMGR
  2
AcMeStateMgr
  3
AcMeServices
 90
     1024
280
     0
281
     0
  0
CLASS
  1
ACME_DATABASE
  2
AcMeDbDatabase
  3
AcMeServices
 90
     1024
280
     0
281
     0
  0
CLASS
  1
ACRFINSADJUSTERMGR
  2
AcRfInsAdjusterMgr
  3
AcMeServices
 90
     1024
280
     0
281
     0
  0
CLASS
  1
ACMDATADICTIONARY
  2
AcmDataDictionary
  3
"AcmSymBB|Product Description: AutoCAD Mechanical|Company: Autodesk, Inc."
 90
     1024
280
     0
281
     0
  0
CLASS
  1
ACMDATAENTRYBLOCK
  2
AcmDataEntryBlock
  3
AcmSymBB|Product Description: AutoCAD Mechanical|Company: Autodesk, Inc.
 90
     1024
280
     0
281
     0
  0
CLASS
  1
AMGOBJPROPCFG
  2
AmgObjPropCfg
  3
"AmgLay|Product Description: AutoCAD Mechanical|Company: Autodesk, Inc."
 90
     1025
280
     0
281
     0
  0
CLASS
  1
ACAMGFILTERDAT
  2
AcAmgFilterDat
  3
"AcadM|Product Description: AutoCAD Mechanical|Company: Autodesk, Inc."
 90
     1024
280
     0
281
     0
  0
CLASS
  1
LAYER_INDEX
  2
AcDbLayerIndex
  3
ObjectDBX Classes
 90
    32768
280
     0
281
     0
  0
CLASS
  1
IDBUFFER
  2
AcDbIdBuffer
  3
ObjectDBX Classes
 90
    32768
280
     0
281
     0
  0
CLASS
  1
ACIMSTRSYSVAR
  2
AcImStrSysVar
  3
AcMeServices
 90
     1024
280
     0
281
     0
  0
CLASS
  1
ACMSTANDARDJIS
  2
AcmStandardJIS
  3
"Amdt_StdImp|Product Description: AutoCAD Mechanical|Company: Autodesk, Inc."
 90
     1024
280
     0
281
     0
  0
CLASS
  1
ACMSURFSTANDARDJIS
  2
AcmSurfTextStdJIS
  3
"Amdt_StdImp|Product Description: AutoCAD Mechanical|Company: Autodesk, Inc."
 90
     1024
280
     0
281
     0
  0
CLASS
  1
ACMFCFSTANDARDJIS
  2
AcmFCFStdJIS
  3
"Amdt_StdImp|Product Description: AutoCAD Mechanical|Company: Autodesk, Inc."
 90
     1024
280
     0
281
     0
  0
CLASS
  1
ACMWELDSTANDARDJIS
  2
AcmWeldingStdJIS
  3
"Amdt_StdImp|Product Description: AutoCAD Mechanical|Company: Autodesk, Inc."
 90
     1024
280
     0
281
     0
  0
CLASS
  1
ACMIDSTANDARDJIS
  2
AcmIdStdJIS
  3
"Amdt_StdImp|Product Description: AutoCAD Mechanical|Company: Autodesk, Inc."
 90
     1024
280
     0
281
     0
  0
CLASS
  1
ACMDATUMSTANDARDJIS
  2
AcmDatumStdJIS
  3
"Amdt_StdImp|Product Description: AutoCAD Mechanical|Company: Autodesk, Inc."
 90
     1024
280
     0
281
     0
  0
CLASS
  1
ACMBOMSTANDARDJIS
  2
AcmBOMStdJIS
  3
"Amdt_StdImp|Product Description: AutoCAD Mechanical|Company: Autodesk, Inc."
 90
     1024
280
     0
281
     0
  0
CLASS
  1
MATERIAL
  2
AcDbMaterial
  3
ObjectDBX Classes
 90
     1153
280
     0
281
     0
  0
CLASS
  1
VISUALSTYLE
  2
AcDbVisualStyle
  3
ObjectDBX Classes
 90
     4095
280
     0
281
     0
  0
CLASS
  1
TABLESTYLE
  2
AcDbTableStyle
  3
ObjectDBX Classes
 90
     4095
280
     0
281
     0
  0
CLASS
  1
ACGREFMASTER
  2
AcGrefMaster
  3
AcAttribServices
 90
     1024
280
     0
281
     0
  0
CLASS
  1
AM_DRAWING_MGR
  2
AcDmDwgMgr
  3
AcMechDwgViewMgmt
 90
     1024
280
     0
281
     0
  0
CLASS
  1
AM_DWG_DOCUMENT
  2
AcDmDwgDocument
  3
AcMechDwgViewMgmt
 90
     1024
280
     0
281
     0
  0
CLASS
  1
AM_DWG_SHEET
  2
AcDmSheet
  3
AcMechDwgViewMgmt
 90
     1024
280
     0
281
     0
  0
CLASS
  1
AM_VIEWDIMPARMAP
  2
AcDmViewDimParMap
  3
AcMechDwgViewMgmt
 90
     1024
280
     0
281
     0
  0
CLASS
  1
AM_DWGMGR_NAME
  2
AcDmDwgMgrName
  3
AcMechDwgViewMgmt
 90
     1024
280
     0
281
     0
  0
CLASS
  1
ACGREFACADMASTER
  2
AcGrefacadMaster
  3
AcGrefServices
 90
     1024
280
     0
281
     0
  0
CLASS
  1
AMDTMENUSTATEMGR
  2
AmdtMenuStateMgr
  3
McadcomServices
 90
     1024
280
     0
281
     0
  0
CLASS
  1
AMDTMCOMMENUSTATE
  2
AmdtMcomMenuState
  3
McadcomServices
 90
     1024
280
     0
281
     0
  0
CLASS
  1
AMIMASTER
  2
AmiMaster
  3
AmiServices
 90
     1024
280
     0
281
     0
  0
CLASS
  1
MAPIAMMOUDLE
  2
MApiAmModule
  3
MApiAmServices
 90
     1024
280
     0
281
     0
  0
CLASS
  1
AMDTADMENUSTATE
  2
AmdtAdMenuState
  3
DesignerServices
 90
    32768
280
     0
281
     0
  0
CLASS
  1
ADAPPL
  2
AcAdAppl
  3
DesignerAssemblies
 90
    33792
280
     0
281
     0
  0
CLASS
  1
DEPMGR
  2
AcAdDepMgr
  3
DesignerAssemblies
 90
    33792
280
     0
281
     0
  0
CLASS
  1
PARAMMGR
  2
AcAdParamMgr
  3
DesignerAssemblies
 90
    33792
280
     0
281
     0
  0
CLASS
  1
PARAMSCOPE
  2
AcAdParamScope
  3
DesignerAssemblies
 90
    33792
280
     0
281
     0
  0
CLASS
  1
NAMEDAPPL
  2
AcAdNamedAppl
  3
DesignerAssemblies
 90
    33792
280
     0
281
     0
  0
CLASS
  1
AMDTDMMENUSTATE
  2
AmdtDmMenuState
  3
AcMechDwgViewMgmt
 90
     1024
280
     0
281
     0
  0
CLASS
  1
AMDTAMMENUSTATE
  2
AmdtAmMenuState
  3
DesignerAssemblies
 90
     1024
280
     0
281
     0
  0
CLASS
  1
ACAMPROJECT
  2
AcAmProject
  3
DesignerAssemblies
 90
     1024
280
     0
281
     0
  0
CLASS
  1
ACAMGRCOMPDEF
  2
AcAmGrCompDef
  3
DesignerAssemblies
 90
     1024
280
     0
281
     0
  0
CLASS
  1
ACCMCONTEXT
  2
AcCmContext
  3
DesignerAssemblies
 90
     1024
280
     0
281
     0
  0
CLASS
  1
ACAMCOMPDEF
  2
AcAmCompDef
  3
DesignerAssemblies
 90
     1024
280
     0
281
     0
  0
CLASS
  1
ACAMCOMPDEFMGR
  2
AcAmCompDefMgr
  3
DesignerAssemblies
 90
     1024
280
     0
281
     0
  0
CLASS
  1
AMCONTEXTMGR
  2
AcAmContextMgr
  3
DesignerAssemblies
 90
     1024
280
     0
281
     0
  0
CLASS
  1
ACAMCONTEXTMODELER
  2
AcAmContextModeler
  3
DesignerAssemblies
 90
     1024
280
     0
281
     0
  0
CLASS
  1
ACRFATTGENMGR
  2
AcRfAttGeneralMgr
  3
AcAttribServices
 90
     1024
280
     0
281
     0
  0
CLASS
  1
ACRFOBJATTMGR
  2
AcRfObjAttGroupMgr
  3
AcAttribServices
 90
     1024
280
     0
281
     0
  0
CLASS
  1
ACRFMCADAPIATTHOLDER
  2
AcRfMCADAPIAttHolder
  3
AcAttribServices
 90
     1024
280
     0
281
     0
  0
CLASS
  1
AMDTSYSATTR
  2
AmdtSystemAttribute
  3
AcAttribServices
 90
     1024
280
     0
281
     0
  0
CLASS
  1
ACAMGTITLESTD
  2
AcAmgTitleStd
  3
"AmgTitle|Product Description: AutoCAD Mechanical|Company: Autodesk, Inc."
 90
     4095
280
     0
281
     0
  0
CLASS
  1
ACMDETAILSTANDARDJIS
  2
AmdtDetailSymStdJIS
  3
"Amdt_StdImp|Product Description: AutoCAD Mechanical|Company: Autodesk, Inc."
 90
     1024
280
     0
281
     0
  0
CLASS
  1
ACMSECTIONSTANDARDJIS
  2
AmdtSectionSymStdJIS
  3
"Amdt_StdImp|Product Description: AutoCAD Mechanical|Company: Autodesk, Inc."
 90
     1024
280
     0
281
     0
  0
CLASS
  1
ACMCENTERLINESTANDARDJIS
  2
AmdtCenterLineStdJIS
  3
"Amdt_StdImp|Product Description: AutoCAD Mechanical|Company: Autodesk, Inc."
 90
     1024
280
     0
281
     0
  0
CLASS
  1
ACMTHREADLINESTANDARDJIS
  2
AmdtThreadLineStdJIS
  3
"Amdt_StdImp|Product Description: AutoCAD Mechanical|Company: Autodesk, Inc."
 90
     1024
280
     0
281
     0
  0
CLASS
  1
ACMNOTESTANDARDJIS
  2
AmdtNoteStdJIS
  3
"Amdt_StdImp|Product Description: AutoCAD Mechanical|Company: Autodesk, Inc."
 90
     1024
280
     0
281
     0
  0
CLASS
  1
AMDTNOTETEMPLATEDB
  2
AmdtNoteTemplateDB
  3
AcmSymBB|Product Description: AutoCAD Mechanical|Company: Autodesk, Inc.
 90
     1024
280
     0
281
     0
  0
CLASS
  1
ACMTAPERSTANDARDJIS
  2
AcmTaperStdJIS
  3
"Amdt_StdImp|Product Description: AutoCAD Mechanical|Company: Autodesk, Inc."
 90
     1024
280
     0
281
     0
  0
CLASS
  1
ACAMGLAYSTD
  2
AcAmgLayStd
  3
"AmgLay|Product Description: AutoCAD Mechanical|Company: Autodesk, Inc."
 90
     1024
280
     0
281
     0
  0
CLASS
  1
ACAMGDIMSTD
  2
AcAmgDimStd
  3
"AmgDim|Product Description: AutoCAD Mechanical|Company: Autodesk, Inc."
 90
     1024
280
     0
281
     0
  0
CLASS
  1
ACAMGHOLECHARTSTDJIS
  2
AcAmgHoleChartStdJIS
  3
AmgDim|Product Description: AutoCAD Mechanical|Company: Autodesk, Inc.
 90
     1024
280
     0
281
     0
  0
CLASS
  1
CATALOGSTATE
  2
AcAmCatalogState
  3
DesignerAssemblies
 90
    33792
280
     0
281
     0
  0
CLASS
  1
ACAMGRCOMPDEFSET
  2
AcAmGrCompDefSet
  3
DesignerAssemblies
 90
     1024
280
     0
281
     0
  0
CLASS
  1
AMDTBROWSERDBTAB
  2
AmdtBrowserDbTab
  3
McadcomServices
 90
     1024
280
     0
281
     0
  0
CLASS
  1
CBROWSERAPPOBJECT
  2
CBrowserAppObject
  3
McadcomServices
 90
     1024
280
     0
281
     0
  0
CLASS
  1
DM_PLACEHOLDER
  2
AcDmSelsetPlaceholder
  3
AcMechDwgViewMgmt
 90
     1024
280
     0
281
     0
  0
CLASS
  1
CAMSSTRUCTBTNSTATE
  2
StructBtnState
  3
DesignerAssemblies
 90
     1024
280
     0
281
     0
  0
CLASS
  1
EXACXREFPANELOBJECT
  2
ExAcXREFPanelObject
  3
EXAC_ESW
 90
    33793
280
     0
281
     0
  0
CLASS
  1
NPOCOLLECTION
  2
AcDbImpNonPersistentObjectsCollection
  3
ObjectDBX Classes
 90
    33921
280
     0
281
     0
  0
CLASS
  1
DIMASSOC
  2
AcDbDimAssoc
  3
"AcDbDimAssoc|Product Desc:     AcDim ARX App For Dimension|Company:          Autodesk, Inc.|WEB Address:      www.autodesk.com"
 90
    32768
280
     0
281
     0
  0
CLASS
  1
ACMPARTREF
  2
AcmPartRef
  3
"AcmSymBB|Product Description: AutoCAD Mechanical|Company: Autodesk, Inc."
 90
     4095
280
     0
281
     1
  0
CLASS
  1
ACDBLINERES
  2
AcDbLineRes
  3
AcGrefServices
 90
     1024
280
     0
281
     0
  0
CLASS
  1
NEWSTDPARTPARLIST
  2
AmgNewParListFiler
  3
"AmgParList|Product Description: AutoCAD Mechanical|Company: Autodesk, Inc."
 90
    36863
280
     0
281
     0
  0
CLASS
  1
SORTENTSTABLE
  2
AcDbSortentsTable
  3
ObjectDBX Classes
 90
        0
280
     0
281
     0
  0
CLASS
  1
ACMDATAENTRYPART
  2
AcmDataEntryPart
  3
AcmSymBB|Product Description: AutoCAD Mechanical|Company: Autodesk, Inc.
 90
     1024
280
     0
281
     0
  0
CLASS
  1
AMDTNOTE
  2
AmdtNote
  3
"AcmSymBB|Product Description: AutoCAD Mechanical|Company: Autodesk, Inc."
 90
     4095
280
     0
281
     1
  0
CLASS
  1
AMDTFORMULAUPDATEDISPATCHER
  2
AmdtFormulaUpdateDispatcher
  3
AcMeServices
 90
     1024
280
     0
281
     0
  0
CLASS
  1
ACMSTANDARDISO
  2
AcmStandardISO
  3
"Amdt_StdImp|Product Description: AutoCAD Mechanical|Company: Autodesk, Inc."
 90
     1024
280
     0
281
     0
  0
CLASS
  1
AMDTEDGESTANDARDISO13715
  2
AmdtEdgeStdISO13715
  3
"Amdt_StdImp|Product Description: AutoCAD Mechanical|Company: Autodesk, Inc."
 90
     1024
280
     0
281
     0
  0
CLASS
  1
ACMSURFSTANDARDISO
  2
AcmSurfTextStdISO
  3
"Amdt_StdImp|Product Description: AutoCAD Mechanical|Company: Autodesk, Inc."
 90
     1024
280
     0
281
     0
  0
CLASS
  1
ACMFCFSTANDARDISO
  2
AcmFCFStdISO
  3
"Amdt_StdImp|Product Description: AutoCAD Mechanical|Company: Autodesk, Inc."
 90
     1024
280
     0
281
     0
  0
CLASS
  1
ACMWELDSTANDARDISO
  2
AcmWeldingStdISO
  3
"Amdt_StdImp|Product Description: AutoCAD Mechanical|Company: Autodesk, Inc."
 90
     1024
280
     0
281
     0
  0
CLASS
  1
ACMIDSTANDARDISO
  2
AcmIdStdISO
  3
"Amdt_StdImp|Product Description: AutoCAD Mechanical|Company: Autodesk, Inc."
 90
     1024
280
     0
281
     0
  0
CLASS
  1
ACMDATUMSTANDARDISO
  2
AcmDatumStdISO
  3
"Amdt_StdImp|Product Description: AutoCAD Mechanical|Company: Autodesk, Inc."
 90
     1024
280
     0
281
     0
  0
CLASS
  1
ACMBOMSTANDARDISO
  2
AcmBOMStdISO
  3
"Amdt_StdImp|Product Description: AutoCAD Mechanical|Company: Autodesk, Inc."
 90
     1024
280
     0
281
     0
  0
CLASS
  1
ACMDETAILSTANDARDISO
  2
AmdtDetailSymStdISO
  3
"Amdt_StdImp|Product Description: AutoCAD Mechanical|Company: Autodesk, Inc."
 90
     1024
280
     0
281
     0
  0
CLASS
  1
ACMSECTIONSTANDARDISO
  2
AmdtSectionSymStdISO
  3
"Amdt_StdImp|Product Description: AutoCAD Mechanical|Company: Autodesk, Inc."
 90
     1024
280
     0
281
     0
  0
CLASS
  1
ACMCENTERLINESTANDARDISO
  2
AmdtCenterLineStdISO
  3
"Amdt_StdImp|Product Description: AutoCAD Mechanical|Company: Autodesk, Inc."
 90
     1024
280
     0
281
     0
  0
CLASS
  1
ACMTHREADLINESTANDARDISO
  2
AmdtThreadLineStdISO
  3
"Amdt_StdImp|Product Description: AutoCAD Mechanical|Company: Autodesk, Inc."
 90
     1024
280
     0
281
     0
  0
CLASS
  1
ACMNOTESTANDARDISO
  2
AmdtNoteStdISO
  3
"Amdt_StdImp|Product Description: AutoCAD Mechanical|Company: Autodesk, Inc."
 90
     1024
280
     0
281
     0
  0
CLASS
  1
ACMTAPERSTANDARDISO
  2
AcmTaperStdISO
  3
"Amdt_StdImp|Product Description: AutoCAD Mechanical|Company: Autodesk, Inc."
 90
     1024
280
     0
281
     0
  0
CLASS
  1
ACAMGHOLECHARTSTDISO
  2
AcAmgHoleChartStdISO
  3
AmgDim|Product Description: AutoCAD Mechanical|Company: Autodesk, Inc.
 90
     1024
280
     0
281
     0
  0
CLASS
  1
ACMDATAENTRY
  2
AcmDataEntry
  3
AcmSymBB|Product Description: AutoCAD Mechanical|Company: Autodesk, Inc.
 90
     1024
280
     0
281
     0
  0
CLASS
  1
ACMBOM
  2
AcmBom
  3
"AcmSymBB|Product Description: AutoCAD Mechanical|Company: Autodesk, Inc."
 90
     1024
280
     0
281
     0
  0
CLASS
  1
ACMBOMROW
  2
AcmBomRow
  3
"AcmSymBB|Product Description: AutoCAD Mechanical|Company: Autodesk, Inc."
 90
     1024
280
     0
281
     0
  0
CLASS
  1
ACMPARTLIST
  2
AcmPartList
  3
"AcmSymBB|Product Description: AutoCAD Mechanical|Company: Autodesk, Inc."
 90
     4095
280
     0
281
     1
  0
CLASS
  1
ACDBOPPOLYLINERES
  2
AcDbOpPolylineRes
  3
AcGrefServices
 90
     1024
280
     0
281
     0
  0
CLASS
  1
ACRFINSADJ
  2
AcRfInsAdjuster
  3
AcMeServices
 90
     1024
280
     0
281
     0
  0
CLASS
  1
ACMPICKOBJ
  2
AcmPickEnt
  3
"AcmSymBB|Product Description: AutoCAD Mechanical|Company: Autodesk, Inc."
 90
    33792
280
     0
281
     1
  0
CLASS
  1
ACMBALLOON
  2
AcmBalloon
  3
"AcmSymBB|Product Description: AutoCAD Mechanical|Company: Autodesk, Inc."
 90
     4095
280
     0
281
     1
  0
CLASS
  1
ACDBDIMENSIONRES
  2
AcDbDimensionRes
  3
AcmSymBB|Product Description: AutoCAD Mechanical|Company: Autodesk, Inc.
 90
     1024
280
     0
281
     0
  0
CLASS
  1
ACDBCIRCARCRES
  2
AcDbCircArcRes
  3
AcGrefServices
 90
     1024
280
     0
281
     0
  0
CLASS
  1
SCALE
  2
AcDbScale
  3
ObjectDBX Classes
 90
     1153
280
     0
281
     0
  0
CLASS
  1
MLEADERSTYLE
  2
AcDbMLeaderStyle
  3
ACDB_MLEADERSTYLE_CLASS
 90
     4095
280
     0
281
     0
  0
CLASS
  1
ACMANOOTATIONVIEWSTANDARDJIS
  2
AmdtAnViewStdJIS
  3
"Amdt_StdImp|Product Description: AutoCAD Mechanical|Company: Autodesk, Inc."
 90
     1024
280
     0
281
     0
  0
CLASS
  1
AMDTEDGESTANDARDJIS
  2
AmdtEdgeStdJIS
  3
"Amdt_StdImp|Product Description: AutoCAD Mechanical|Company: Autodesk, Inc."
 90
     1024
280
     0
281
     0
  0
CLASS
  1
ACMANOOTATIONVIEWSTANDARDISO
  2
AmdtAnViewStdISO
  3
"Amdt_StdImp|Product Description: AutoCAD Mechanical|Company: Autodesk, Inc."
 90
     1024
280
     0
281
     0
  0
CLASS
  1
CELLSTYLEMAP
  2
AcDbCellStyleMap
  3
ObjectDBX Classes
 90
     1152
280
     0
281
     0
  0
CLASS
  1
AMDTACMWBLOCKBOMENTITY
  2
AmdtAcmWblockBomEntity
  3
"AcmSymBB|Product Description: AutoCAD Mechanical|Company: Autodesk, Inc."
 90
    36863
280
     0
281
     1
  0
CLASS
  1
PLOTSETTINGS
  2
AcDbPlotSettings
  3
ObjectDBX Classes
 90
        0
280
     0
281
     0
  0
CLASS
  1
ACAD_EVALUATION_GRAPH
  2
AcDbEvalGraph
  3
ObjectDBX Classes
 90
    33921
280
     0
281
     0
  0
CLASS
  1
ACAECUSTOBJ
  2
AcAeEditorObj
  3
AcAeEditorObj
 90
    33792
280
     0
281
     0
  0
CLASS
  1
ACDB_DYNAMICBLOCKPURGEPREVENTER_VERSION
  2
AcDbDynamicBlockPurgePreventer
  3
ObjectDBX Classes
 90
    33921
280
     0
281
     0
  0
ENDSEC
  0
SECTION
  2
TABLES
  0
TABLE
  2
VPORT
  5
8
102
{ACAD_XDICTIONARY
360
CA7
102
}
330
0
100
AcDbSymbolTable
 70
     1
  0
VPORT
  5
230
330
8
100
AcDbSymbolTableRecord
100
AcDbViewportTableRecord
  2
*Active
 70
     0
 10
0.0
 20
0.0
 11
1.0
 21
1.0
 12
292.8446453428922
 22
240.6014175308194
 13
0.0
 23
0.0
 14
1.25
 24
1.25
 15
5.0
 25
5.0
 16
0.0
 26
0.0
 36
1.0
 17
0.0
 27
0.0
 37
0.0
 40
120.589003739732
 41
1.825136612021857
 42
50.0
 43
0.0
 44
0.0
 50
0.0
 51
0.0
 71
     0
 72
   100
 73
     1
 74
     3
 75
     0
 76
     0
 77
     0
 78
     0
281
     0
 65
     1
110
0.0
120
0.0
130
0.0
111
1.0
121
0.0
131
0.0
112
0.0
122
1.0
132
0.0
 79
     0
146
0.0
  0
ENDTAB
  0
TABLE
  2
LTYPE
  5
5
330
0
100
AcDbSymbolTable
 70
    18
  0
LTYPE
  5
14
330
5
100
AcDbSymbolTableRecord
100
AcDbLinetypeTableRecord
  2
ByBlock
 70
     0
  3

 72
    65
 73
     0
 40
0.0
  0
LTYPE
  5
15
330
5
100
AcDbSymbolTableRecord
100
AcDbLinetypeTableRecord
  2
ByLayer
 70
     0
  3

 72
    65
 73
     0
 40
0.0
  0
LTYPE
  5
16
330
5
100
AcDbSymbolTableRecord
100
AcDbLinetypeTableRecord
  2
Continuous
 70
     0
  3
Solid line
 72
    65
 73
     0
 40
0.0
  0
LTYPE
  5
4B
330
5
100
AcDbSymbolTableRecord
100
AcDbLinetypeTableRecord
  2
AM_ISO02W050
 70
     0
  3
__ __ __ __ __ __ __ __ __ __ __ __ __ __ __
 72
    65
 73
     2
 40
7.5
 49
6.0
 74
     0
 49
-1.5
 74
     0
  0
LTYPE
  5
4C
330
5
100
AcDbSymbolTableRecord
100
AcDbLinetypeTableRecord
  2
AM_ISO08W050
 70
     0
  3
____ . ____ . ____ . ____ . ____ . ____ . ____
 72
    65
 73
     4
 40
18.0
 49
12.0
 74
     0
 49
-1.5
 74
     0
 49
3.0
 74
     0
 49
-1.5
 74
     0
  0
LTYPE
  5
4D
330
5
100
AcDbSymbolTableRecord
100
AcDbLinetypeTableRecord
  2
AM_ISO09W050
 70
     0
  3
_____ . . _____ . . _____ . . ____ .. ____
 72
    65
 73
     6
 40
22.5
 49
12.0
 74
     0
 49
-1.5
 74
     0
 49
3.0
 74
     0
 49
-1.5
 74
     0
 49
3.0
 74
     0
 49
-1.5
 74
     0
  0
LTYPE
  5
4E
330
5
100
AcDbSymbolTableRecord
100
AcDbLinetypeTableRecord
  2
Amconstr
 70
     0
  3
_______________________
 72
    65
 73
     2
 40
9999.0
 49
9999.0
 74
     0
 49
0.0
 74
     0
  0
LTYPE
  5
4F
330
5
100
AcDbSymbolTableRecord
100
AcDbLinetypeTableRecord
  2
AM_ISO02W050x2
 70
     0
  3
 _ _ _ _ _ _ _ _ _ _ _ _
 72
    65
 73
     2
 40
3.75
 49
3.0
 74
     0
 49
-0.75
 74
     0
  0
LTYPE
  5
50
330
5
100
AcDbSymbolTableRecord
100
AcDbLinetypeTableRecord
  2
AM_ISO08W050x2
 70
     0
  3
__ . __ . __ . __ . __ . __
 72
    65
 73
     4
 40
9.0
 49
6.0
 74
     0
 49
-0.75
 74
     0
 49
1.5
 74
     0
 49
-0.75
 74
     0
  0
LTYPE
  5
53
330
5
100
AcDbSymbolTableRecord
100
AcDbLinetypeTableRecord
  2
Amzigzag
 70
     0
  3
/\/-/\/-/\/-/\/-/\/-/\/
 72
    65
 73
     2
 40
11.0001
 49
0.0001
 74
     4
 75
   135
340
52
 46
0.04
 50
0.0
 44
0.0
 45
0.0
 49
-11.0
 74
     0
  0
LTYPE
  5
169
330
5
100
AcDbSymbolTableRecord
100
AcDbLinetypeTableRecord
  2
ACJISTGB
 70
     0
  3
__ . . __ . .
 72
    65
 73
     6
 40
9.0
 49
4.0
 74
     0
 49
-1.0
 74
     0
 49
1.0
 74
     0
 49
-1.0
 74
     0
 49
1.0
 74
     0
 49
-1.0
 74
     0
  0
LTYPE
  5
16A
330
5
100
AcDbSymbolTableRecord
100
AcDbLinetypeTableRecord
  2
ACJISTGL
 70
     0
  3
_ _ _ _ _
 72
    65
 73
     2
 40
3.0
 49
2.0
 74
     0
 49
-1.0
 74
     0
  0
LTYPE
  5
27A
330
5
100
AcDbSymbolTableRecord
100
AcDbLinetypeTableRecord
  2
HIDDEN
 70
     0
  3
Hidden __ __ __ __ __ __ __ __ __ __ __ __ __ _
 72
    65
 73
     2
 40
9.524999999999998
 49
6.349999999999999
 74
     0
 49
-3.174999999999999
 74
     0
  0
LTYPE
  5
27B
330
5
100
AcDbSymbolTableRecord
100
AcDbLinetypeTableRecord
  2
PHANTOM2
 70
     0
  3
Phantom (.5x) ___ _ _ ___ _ _ ___ _ _ ___ _ _
 72
    65
 73
     6
 40
31.75
 49
15.875
 74
     0
 49
-3.174999999999999
 74
     0
 49
3.174999999999999
 74
     0
 49
-3.174999999999999
 74
     0
 49
3.174999999999999
 74
     0
 49
-3.174999999999999
 74
     0
  0
LTYPE
  5
27C
330
5
100
AcDbSymbolTableRecord
100
AcDbLinetypeTableRecord
  2
CENTER
 70
     0
  3
Center ____ _ ____ _ ____ _ ____ _ ____ _ ____
 72
    65
 73
     4
 40
50.8
 49
31.75
 74
     0
 49
-6.349999999999999
 74
     0
 49
6.349999999999999
 74
     0
 49
-6.349999999999999
 74
     0
  0
LTYPE
  5
BB2
330
5
100
AcDbSymbolTableRecord
100
AcDbLinetypeTableRecord
  2
ACISOWELD
 70
     0
  3
_ _ _ _ _
 72
    65
 73
     2
 40
2.0
 49
2.0
 74
     0
 49
-1.0
 74
     0
  0
LTYPE
  5
BB3
330
5
100
AcDbSymbolTableRecord
100
AcDbLinetypeTableRecord
  2
ACISOTGB
 70
     0
  3
__ . . __ . .
 72
    65
 73
     6
 40
9.0
 49
4.0
 74
     0
 49
-1.0
 74
     0
 49
1.0
 74
     0
 49
-1.0
 74
     0
 49
1.0
 74
     0
 49
-1.0
 74
     0
  0
LTYPE
  5
BB4
330
5
100
AcDbSymbolTableRecord
100
AcDbLinetypeTableRecord
  2
ACISOTGL
 70
     0
  3
_ _ _ _ _
 72
    65
 73
     2
 40
3.0
 49
2.0
 74
     0
 49
-1.0
 74
     0
  0
ENDTAB
  0
TABLE
  2
LAYER
  5
2
102
{ACAD_XDICTIONARY
360
971
102
}
330
0
100
AcDbSymbolTable
 70
    14
  0
LAYER
  5
10
102
{ACAD_XDICTIONARY
360
227D
102
}
330
2
100
AcDbSymbolTableRecord
100
AcDbLayerTableRecord
  2
0
 70
     0
 62
     7
  6
Continuous
370
    -3
390
F
  0
LAYER
  5
59
102
{ACAD_XDICTIONARY
360
227F
102
}
330
2
100
AcDbSymbolTableRecord
100
AcDbLayerTableRecord
  2
AM_0
 70
     0
 62
     7
  6
Continuous
370
    50
390
F
  0
LAYER
  5
5A
102
{ACAD_XDICTIONARY
360
2281
102
}
330
2
100
AcDbSymbolTableRecord
100
AcDbLayerTableRecord
  2
AM_BOR
 70
     0
 62
     7
  6
Continuous
370
    50
390
F
  0
LAYER
  5
31B
102
{ACAD_XDICTIONARY
360
2283
102
}
330
2
100
AcDbSymbolTableRecord
100
AcDbLayerTableRecord
  2
AM_5
 70
     0
 62
     3
  6
Continuous
370
    25
390
F
1001
AcAecLayerStandard
1000

1000

  0
LAYER
  5
414
330
2
100
AcDbSymbolTableRecord
100
AcDbLayerTableRecord
  2
Defpoints
 70
     0
 62
     7
  6
Continuous
290
     0
370
    -3
390
F
  0
LAYER
  5
7C0
102
{ACAD_XDICTIONARY
360
2285
102
}
330
2
100
AcDbSymbolTableRecord
100
AcDbLayerTableRecord
  2
AM_7
 70
     0
 62
     4
  6
AM_ISO08W050
370
    25
390
F
  0
LAYER
  5
7C1
102
{ACAD_XDICTIONARY
360
2287
102
}
330
2
100
AcDbSymbolTableRecord
100
AcDbLayerTableRecord
  2
AM_8
 70
     0
 62
     1
  6
Continuous
370
    25
390
F
  0
LAYER
  5
7C2
102
{ACAD_XDICTIONARY
360
2289
102
}
330
2
100
AcDbSymbolTableRecord
100
AcDbLayerTableRecord
  2
AM_4
 70
     0
 62
     3
  6
Continuous
370
    25
390
F
  0
LAYER
  5
7C3
102
{ACAD_XDICTIONARY
360
228B
102
}
330
2
100
AcDbSymbolTableRecord
100
AcDbLayerTableRecord
  2
AM_11
 70
     0
 62
     3
  6
AM_ISO09W050
370
    25
390
F
  0
LAYER
  5
7C4
102
{ACAD_XDICTIONARY
360
228D
102
}
330
2
100
AcDbSymbolTableRecord
100
AcDbLayerTableRecord
  2
AM_12
 70
     0
 62
     7
  6
Continuous
290
     0
370
    50
390
F
  0
LAYER
  5
7C5
102
{ACAD_XDICTIONARY
360
228F
102
}
330
2
100
AcDbSymbolTableRecord
100
AcDbLayerTableRecord
  2
AM_PAREF
 70
     0
 62
     4
  6
Continuous
290
     0
370
    25
390
F
  0
LAYER
  5
1264
102
{ACAD_XDICTIONARY
360
2291
102
}
330
2
100
AcDbSymbolTableRecord
100
AcDbLayerTableRecord
  2
AM_12N
 70
     0
 62
     7
  6
Continuous
290
     0
370
    50
390
F
  0
LAYER
  5
2276
102
{ACAD_XDICTIONARY
360
2293
102
}
330
2
100
AcDbSymbolTableRecord
100
AcDbLayerTableRecord
  2
AM_CL
 70
     0
 62
     1
  6
Amconstr
370
    25
390
F
1001
AcAecLayerStandard
1000

1000

  0
LAYER
  5
386E
330
2
100
AcDbSymbolTableRecord
100
AcDbLayerTableRecord
  2
AM_3
 70
     0
 62
     6
  6
AM_ISO02W050
370
    25
390
F
  0
ENDTAB
  0
TABLE
  2
STYLE
  5
3
330
0
100
AcDbSymbolTable
 70
    10
  0
STYLE
  5
11
330
3
100
AcDbSymbolTableRecord
100
AcDbTextStyleTableRecord
  2
STANDARD
 70
     0
 40
0.0
 41
1.0
 50
0.0
 71
     0
 42
1.5
  3
ISOCP.SHX
  4
EXTFONT.SHX
  0
STYLE
  5
52
330
3
100
AcDbSymbolTableRecord
100
AcDbTextStyleTableRecord
  2

 70
     1
 40
0.0
 41
1.0
 50
0.0
 71
     0
 42
2.5
  3
ltypeshp.shx
  4

  0
STYLE
  5
161
330
3
100
AcDbSymbolTableRecord
100
AcDbTextStyleTableRecord
  2
ACJISTS
 70
     0
 40
1.0
 41
1.0
 50
0.0
 71
     0
 42
2.5
  3
isocp.shx
  4
bigfont.shx
  0
STYLE
  5
168
330
3
100
AcDbSymbolTableRecord
100
AcDbTextStyleTableRecord
  2
ACJISGDT
 70
     0
 40
0.0
 41
1.0
 50
0.0
 71
     0
 42
2.5
  3
amgdt.shx
  4

  0
STYLE
  5
7C6
330
3
100
AcDbSymbolTableRecord
100
AcDbTextStyleTableRecord
  2
ｽﾀｲﾙ1
 70
     0
 40
0.0
 41
1.0
 50
0.0
 71
     0
 42
44.62462130138407
  3

  4

1001
ACAD
1000
HGPSoeiKakugothicUB
1071
    32818
  0
STYLE
  5
BB6
330
3
100
AcDbSymbolTableRecord
100
AcDbTextStyleTableRecord
  2
ACISOTS
 70
     0
 40
1.0
 41
1.0
 50
0.0
 71
     0
 42
5.0
  3
isocp.shx
  4
extfont.shx
  0
STYLE
  5
BB7
330
3
100
AcDbSymbolTableRecord
100
AcDbTextStyleTableRecord
  2
ACISOGDT
 70
     0
 40
0.0
 41
1.0
 50
0.0
 71
     0
 42
5.0
  3
amgdt.shx
  4

  0
STYLE
  5
17C7
330
3
100
AcDbSymbolTableRecord
100
AcDbTextStyleTableRecord
  2
USER1
 70
     0
 40
0.0
 41
1.0
 50
0.0
 71
     0
 42
2.5
  3
TXT.SHX
  4

  0
STYLE
  5
17C8
330
3
100
AcDbSymbolTableRecord
100
AcDbTextStyleTableRecord
  2
USER2
 70
     0
 40
0.0
 41
1.0
 50
0.0
 71
     0
 42
2.5
  3
SIMPLEX.SHX
  4

  0
STYLE
  5
17C9
330
3
100
AcDbSymbolTableRecord
100
AcDbTextStyleTableRecord
  2
USER3
 70
     0
 40
0.0
 41
1.0
 50
0.0
 71
     0
 42
2.5
  3
ITALIC.SHX
  4

  0
ENDTAB
  0
TABLE
  2
VIEW
  5
6
330
0
100
AcDbSymbolTable
 70
     6
  0
VIEW
  5
7C
330
6
100
AcDbSymbolTableRecord
100
AcDbViewTableRecord
  2
AM_VIEW1
 70
     0
 40
74.25
 10
299.6082196229588
 20
278.486417654137
 41
153.6762857142857
 11
0.0
 21
0.0
 31
1.0
 12
0.0
 22
0.0
 32
0.0
 42
50.0
 43
0.0
 44
0.0
 50
0.0
 71
    16
281
     0
 72
     0
  0
VIEW
  5
7D
330
6
100
AcDbSymbolTableRecord
100
AcDbViewTableRecord
  2
AM_VIEW2
 70
     0
 40
74.25
 10
355.9533624801016
 20
278.486417654137
 41
153.6762857142857
 11
0.0
 21
0.0
 31
1.0
 12
0.0
 22
0.0
 32
0.0
 42
50.0
 43
0.0
 44
0.0
 50
0.0
 71
    16
281
     0
 72
     0
  0
VIEW
  5
7E
330
6
100
AcDbSymbolTableRecord
100
AcDbViewTableRecord
  2
AM_VIEW3
 70
     0
 40
74.25
 10
299.6082196229588
 20
204.236417654137
 41
153.6762857142857
 11
0.0
 21
0.0
 31
1.0
 12
0.0
 22
0.0
 32
0.0
 42
50.0
 43
0.0
 44
0.0
 50
0.0
 71
    16
281
     0
 72
     0
  0
VIEW
  5
7F
330
6
100
AcDbSymbolTableRecord
100
AcDbViewTableRecord
  2
AM_VIEW4
 70
     0
 40
74.25
 10
355.9533624801016
 20
204.236417654137
 41
153.6762857142857
 11
0.0
 21
0.0
 31
1.0
 12
0.0
 22
0.0
 32
0.0
 42
50.0
 43
0.0
 44
0.0
 50
0.0
 71
    16
281
     0
 72
     0
  0
VIEW
  5
80
330
6
100
AcDbSymbolTableRecord
100
AcDbViewTableRecord
  2
AM_VIEW5
 70
     0
 40
74.25
 10
327.7807910515302
 20
241.361417654137
 41
153.6762857142857
 11
0.0
 21
0.0
 31
1.0
 12
0.0
 22
0.0
 32
0.0
 42
50.0
 43
0.0
 44
0.0
 50
0.0
 71
    16
281
     0
 72
     0
  0
VIEW
  5
81
330
6
100
AcDbSymbolTableRecord
100
AcDbViewTableRecord
  2
AM_VIEW6
 70
     0
 40
148.498515
 10
327.7807910515302
 20
241.361417654137
 41
307.3494979028571
 11
0.0
 21
0.0
 31
1.0
 12
0.0
 22
0.0
 32
0.0
 42
50.0
 43
0.0
 44
0.0
 50
0.0
 71
    16
281
     0
 72
     0
  0
ENDTAB
  0
TABLE
  2
UCS
  5
7
330
0
100
AcDbSymbolTable
 70
     0
  0
ENDTAB
  0
TABLE
  2
APPID
  5
9
330
0
100
AcDbSymbolTable
 70
    46
  0
APPID
  5
12
330
9
100
AcDbSymbolTableRecord
100
AcDbRegAppTableRecord
  2
ACAD
 70
     0
  0
APPID
  5
30
330
9
100
AcDbSymbolTableRecord
100
AcDbRegAppTableRecord
  2
MCAD_NO_VIS
 70
     0
  0
APPID
  5
31
330
9
100
AcDbSymbolTableRecord
100
AcDbRegAppTableRecord
  2
ACAD_TEMP_GRAPHIC
 70
     0
  0
APPID
  5
5B
330
9
100
AcDbSymbolTableRecord
100
AcDbRegAppTableRecord
  2
GENIUS_GENREC_14
 70
     0
  0
APPID
  5
5C
330
9
100
AcDbSymbolTableRecord
100
AcDbRegAppTableRecord
  2
GENIUS_GENODEF_13
 70
     0
  0
APPID
  5
5D
330
9
100
AcDbSymbolTableRecord
100
AcDbRegAppTableRecord
  2
GENIUS_GENOBJ-N-REC_13
 70
     0
  0
APPID
  5
96
330
9
100
AcDbSymbolTableRecord
100
AcDbRegAppTableRecord
  2
GENIUS_GENOBJ-N-CEN_13
 70
     0
  0
APPID
  5
C1
330
9
100
AcDbSymbolTableRecord
100
AcDbRegAppTableRecord
  2
GENIUS_GENOBJ-N-TIT_13
 70
     0
  0
APPID
  5
C2
330
9
100
AcDbSymbolTableRecord
100
AcDbRegAppTableRecord
  2
GENIUS_GENTITLE_13
 70
     0
  0
APPID
  5
C3
330
9
100
AcDbSymbolTableRecord
100
AcDbRegAppTableRecord
  2
GENIUS_GENOENT_13
 70
     0
  0
APPID
  5
C4
330
9
100
AcDbSymbolTableRecord
100
AcDbRegAppTableRecord
  2
GENIUS_GENOREF_13
 70
     0
  0
APPID
  5
C5
330
9
100
AcDbSymbolTableRecord
100
AcDbRegAppTableRecord
  2
GENIUS_GENOLIS_13
 70
     0
  0
APPID
  5
C6
330
9
100
AcDbSymbolTableRecord
100
AcDbRegAppTableRecord
  2
GENIUS_GENZVEED_13
 70
     0
  0
APPID
  5
C7
330
9
100
AcDbSymbolTableRecord
100
AcDbRegAppTableRecord
  2
GENIUS_GENSCREG_15
 70
     0
  0
APPID
  5
C8
330
9
100
AcDbSymbolTableRecord
100
AcDbRegAppTableRecord
  2
GENIUS_GENOBJ-N-SDF_13
 70
     0
  0
APPID
  5
27E
330
9
100
AcDbSymbolTableRecord
100
AcDbRegAppTableRecord
  2
AD_DRAW
 70
     0
  0
APPID
  5
281
330
9
100
AcDbSymbolTableRecord
100
AcDbRegAppTableRecord
  2
ACATTRIBSERVICES
 70
     0
  0
APPID
  5
2A0
330
9
100
AcDbSymbolTableRecord
100
AcDbRegAppTableRecord
  2
DESIGNERASSEMBLIES
 70
     0
  0
APPID
  5
2B9
330
9
100
AcDbSymbolTableRecord
100
AcDbRegAppTableRecord
  2
ACADM_DIM_EDIT
 70
     0
  0
APPID
  5
2BA
330
9
100
AcDbSymbolTableRecord
100
AcDbRegAppTableRecord
  2
AMDT_DM_ADJ
 70
     0
  0
APPID
  5
31C
330
9
100
AcDbSymbolTableRecord
100
AcDbRegAppTableRecord
  2
AcAecLayerStandard
 70
     0
  0
APPID
  5
37C
330
9
100
AcDbSymbolTableRecord
100
AcDbRegAppTableRecord
  2
ACAD_PSEXT
 70
     0
  0
APPID
  5
729
330
9
100
AcDbSymbolTableRecord
100
AcDbRegAppTableRecord
  2
GENIUS_GENDIMSH_14
 70
     0
  0
APPID
  5
72B
330
9
100
AcDbSymbolTableRecord
100
AcDbRegAppTableRecord
  2
ACAD_EXEMPT_FROM_CAD_STANDARDS
 70
     0
  0
APPID
  5
7C8
330
9
100
AcDbSymbolTableRecord
100
AcDbRegAppTableRecord
  2
GENIUS_GENOBJ-N-FIL_13
 70
     0
  0
APPID
  5
7C9
330
9
100
AcDbSymbolTableRecord
100
AcDbRegAppTableRecord
  2
GENIUS_GEFSH_13
 70
     0
  0
APPID
  5
7CA
330
9
100
AcDbSymbolTableRecord
100
AcDbRegAppTableRecord
  2
GENIUS_GENOBJ-F-SHS_13
 70
     0
  0
APPID
  5
7CB
330
9
100
AcDbSymbolTableRecord
100
AcDbRegAppTableRecord
  2
GENIUS_GENFIL_13
 70
     0
  0
APPID
  5
7CC
330
9
100
AcDbSymbolTableRecord
100
AcDbRegAppTableRecord
  2
GENIUS_GENOBJ-N-CHA_13
 70
     0
  0
APPID
  5
7CD
330
9
100
AcDbSymbolTableRecord
100
AcDbRegAppTableRecord
  2
GENIUS_GENOBJ-N-HTC_13
 70
     0
  0
APPID
  5
7CE
330
9
100
AcDbSymbolTableRecord
100
AcDbRegAppTableRecord
  2
GENIUS_GENHATCH_13
 70
     0
  0
APPID
  5
978
330
9
100
AcDbSymbolTableRecord
100
AcDbRegAppTableRecord
  2
GENIUS_GENCEN_19
 70
     0
  0
APPID
  5
CBC
330
9
100
AcDbSymbolTableRecord
100
AcDbRegAppTableRecord
  2
ACAD_DSTYLE_DIMARC_LENGTH_SYMBOL
 70
     0
  0
APPID
  5
170C
330
9
100
AcDbSymbolTableRecord
100
AcDbRegAppTableRecord
  2
GENIUS_GENOBJ-N-CRS_13
 70
     0
  0
APPID
  5
2248
330
9
100
AcDbSymbolTableRecord
100
AcDbRegAppTableRecord
  2
GENIUS_GENDTOL_13
 70
     0
  0
APPID
  5
2249
330
9
100
AcDbSymbolTableRecord
100
AcDbRegAppTableRecord
  2
ACAD_DSTYLE_DIMINSPECT
 70
     0
  0
APPID
  5
22EC
330
9
100
AcDbSymbolTableRecord
100
AcDbRegAppTableRecord
  2
ACAD_MLEADERVER
 70
     0
  0
APPID
  5
31F5
330
9
100
AcDbSymbolTableRecord
100
AcDbRegAppTableRecord
  2
ACAD_DSTYLE_DIMJAG
 70
     0
  0
APPID
  5
31F6
330
9
100
AcDbSymbolTableRecord
100
AcDbRegAppTableRecord
  2
ACAD_DSTYLE_DIMBREAK
 70
     0
  0
APPID
  5
327F
330
9
100
AcDbSymbolTableRecord
100
AcDbRegAppTableRecord
  2
ACAD_DSTYLE_DIM_LINETYPE
 70
     0
  0
APPID
  5
3280
330
9
100
AcDbSymbolTableRecord
100
AcDbRegAppTableRecord
  2
ACAD_DSTYLE_DIM_EXT1_LINETYPE
 70
     0
  0
APPID
  5
3281
330
9
100
AcDbSymbolTableRecord
100
AcDbRegAppTableRecord
  2
ACAD_DSTYLE_DIM_EXT2_LINETYPE
 70
     0
  0
APPID
  5
42D0
330
9
100
AcDbSymbolTableRecord
100
AcDbRegAppTableRecord
  2
ACAD_DSTYLE_DIMANGULAR_EXTENSION
 70
     0
  0
APPID
  5
525F
330
9
100
AcDbSymbolTableRecord
100
AcDbRegAppTableRecord
  2
ACAUTHENVIRON
 70
     0
  0
APPID
  5
5262
330
9
100
AcDbSymbolTableRecord
100
AcDbRegAppTableRecord
  2
AcDbDynamicBlockTrueName
 70
     0
  0
APPID
  5
5263
330
9
100
AcDbSymbolTableRecord
100
AcDbRegAppTableRecord
  2
AcDbDynamicBlockGUID
 70
     0
  0
ENDTAB
  0
TABLE
  2
DIMSTYLE
  5
A
330
0
100
AcDbSymbolTable
 70
    19
100
AcDbDimStyleTable
 71
     1
340
8F
  0
DIMSTYLE
105
2C1
330
A
100
AcDbSymbolTableRecord
100
AcDbDimStyleTableRecord
  2
Standard
 70
     0
340
11
  0
DIMSTYLE
105
8F
330
A
100
AcDbSymbolTableRecord
100
AcDbDimStyleTableRecord
  2
AM_JIS
 70
     0
  4
"
 40
0.5
 41
2.5
 42
1.0
 43
10.0
 44
1.0
 47
0.1
 48
0.1
 73
     0
 74
     0
 77
     3
 78
     8
 79
     2
140
3.5
141
0.0
143
0.0393701
146
0.71
147
1.5
172
     1
176
   256
177
   256
178
     2
271
     2
272
     3
274
     4
283
     0
284
     8
340
11
341
84
342
84
343
84
344
84
371
    -1
372
    -1
1001
ACAD_DSTYLE_DIMJAG
1070
   388
1040
1.5
1001
ACAD_DSTYLE_DIMBREAK
1070
   391
1040
3.75
1001
ACAD_DSTYLE_DIMARC_LENGTH_SYMBOL
1070
   379
1070
     1
1001
ACAD_DSTYLE_DIM_LINETYPE
1070
   380
1005
14
1001
ACAD_DSTYLE_DIM_EXT1_LINETYPE
1070
   381
1005
14
1001
ACAD_DSTYLE_DIM_EXT2_LINETYPE
1070
   382
1005
14
  0
DIMSTYLE
105
90
330
A
100
AcDbSymbolTableRecord
100
AcDbDimStyleTableRecord
  2
AM_JIS$3
 70
     0
  4
"
 40
0.5
 41
2.5
 42
1.0
 43
10.0
 44
1.0
 47
0.1
 48
0.1
 73
     0
 77
     3
 78
     8
 79
     2
140
3.5
141
0.0
143
0.0393701
146
0.71
147
1.5
176
   256
177
   256
178
     2
271
     2
272
     3
274
     4
283
     0
284
     8
288
     1
289
     0
340
11
341
84
342
84
343
84
344
84
371
    -1
372
    -1
1001
ACAD_DSTYLE_DIMBREAK
1070
   391
1040
3.75
1001
ACAD_DSTYLE_DIMJAG
1070
   388
1040
1.5
1001
ACAD_DSTYLE_DIMARC_LENGTH_SYMBOL
1070
   379
1070
     1
1001
ACAD_DSTYLE_DIM_LINETYPE
1070
   380
1005
14
1001
ACAD_DSTYLE_DIM_EXT1_LINETYPE
1070
   381
1005
14
1001
ACAD_DSTYLE_DIM_EXT2_LINETYPE
1070
   382
1005
14
  0
DIMSTYLE
105
91
330
A
100
AcDbSymbolTableRecord
100
AcDbDimStyleTableRecord
  2
AM_JIS$4
 70
     0
  4
"
 40
0.5
 41
2.5
 42
1.0
 43
10.0
 44
1.0
 47
0.1
 48
0.1
 73
     0
 74
     0
 77
     3
 78
     8
 79
     2
140
3.5
141
0.0
143
0.0393701
146
0.71
147
1.5
172
     1
176
   256
177
   256
178
     2
271
     2
272
     3
274
     4
283
     0
284
     8
340
11
341
84
342
84
343
84
344
84
371
    -1
372
    -1
1001
ACAD_DSTYLE_DIMBREAK
1070
   391
1040
3.75
1001
ACAD_DSTYLE_DIMJAG
1070
   388
1040
1.5
1001
ACAD_DSTYLE_DIMARC_LENGTH_SYMBOL
1070
   379
1070
     1
1001
ACAD_DSTYLE_DIM_LINETYPE
1070
   380
1005
14
1001
ACAD_DSTYLE_DIM_EXT1_LINETYPE
1070
   381
1005
14
1001
ACAD_DSTYLE_DIM_EXT2_LINETYPE
1070
   382
1005
14
  0
DIMSTYLE
105
92
330
A
100
AcDbSymbolTableRecord
100
AcDbDimStyleTableRecord
  2
AM_JIS$6
 70
     0
  4
"
 40
0.5
 41
2.5
 42
1.0
 43
10.0
 44
1.0
 47
0.1
 48
0.1
 73
     0
 74
     0
 78
     8
 79
     2
140
3.5
141
0.0
143
0.0393701
146
0.71
147
1.5
172
     1
176
   256
177
   256
178
     2
271
     2
272
     3
274
     4
283
     0
284
     8
340
11
341
84
342
84
343
84
344
84
371
    -1
372
    -1
1001
ACAD_DSTYLE_DIMBREAK
1070
   391
1040
3.75
1001
ACAD_DSTYLE_DIMJAG
1070
   388
1040
1.5
1001
ACAD_DSTYLE_DIMARC_LENGTH_SYMBOL
1070
   379
1070
     1
1001
ACAD_DSTYLE_DIM_LINETYPE
1070
   380
1005
14
1001
ACAD_DSTYLE_DIM_EXT1_LINETYPE
1070
   381
1005
14
1001
ACAD_DSTYLE_DIM_EXT2_LINETYPE
1070
   382
1005
14
  0
DIMSTYLE
105
93
330
A
100
AcDbSymbolTableRecord
100
AcDbDimStyleTableRecord
  2
AM_JIS$7
 70
     0
  4
"
 40
0.5
 41
2.5
 42
1.0
 43
10.0
 44
1.0
 47
0.1
 48
0.1
 73
     0
 74
     0
 77
     3
 78
     8
 79
     2
140
3.5
141
0.0
143
0.0393701
146
0.71
147
1.5
172
     1
176
   256
177
   256
178
     2
271
     2
272
     3
274
     4
283
     0
284
     8
340
11
341
84
342
84
343
84
344
84
371
    -1
372
    -1
1001
ACAD_DSTYLE_DIMBREAK
1070
   391
1040
3.75
1001
ACAD_DSTYLE_DIMJAG
1070
   388
1040
1.5
1001
ACAD_DSTYLE_DIMARC_LENGTH_SYMBOL
1070
   379
1070
     1
1001
ACAD_DSTYLE_DIM_LINETYPE
1070
   380
1005
14
1001
ACAD_DSTYLE_DIM_EXT1_LINETYPE
1070
   381
1005
14
1001
ACAD_DSTYLE_DIM_EXT2_LINETYPE
1070
   382
1005
14
  0
DIMSTYLE
105
94
330
A
100
AcDbSymbolTableRecord
100
AcDbDimStyleTableRecord
  2
AM_JIS$SF
 70
     0
  4
"
 40
0.5
 41
2.5
 42
1.0
 43
10.0
 44
1.0
 47
0.1
 48
0.1
 73
     0
 74
     0
 75
     1
 76
     1
 77
     3
 78
     8
 79
     2
140
3.5
141
0.0
143
0.0393701
146
0.71
147
1.5
172
     1
176
   256
177
   256
178
     2
271
     2
272
     3
274
     4
283
     0
284
     8
340
11
341
84
342
84
343
84
344
84
371
    -1
372
    -1
1001
ACAD_DSTYLE_DIMBREAK
1070
   391
1040
3.75
1001
ACAD_DSTYLE_DIMJAG
1070
   388
1040
1.5
1001
ACAD_DSTYLE_DIMARC_LENGTH_SYMBOL
1070
   379
1070
     1
1001
ACAD_DSTYLE_DIM_LINETYPE
1070
   380
1005
14
1001
ACAD_DSTYLE_DIM_EXT1_LINETYPE
1070
   381
1005
14
1001
ACAD_DSTYLE_DIM_EXT2_LINETYPE
1070
   382
1005
14
  0
DIMSTYLE
105
95
330
A
100
AcDbSymbolTableRecord
100
AcDbDimStyleTableRecord
  2
AM_JIS$SH
 70
     0
  4
"
 40
0.5
 41
2.5
 42
1.0
 43
10.0
 44
1.0
 47
0.1
 48
0.1
 73
     0
 74
     0
 75
     1
 76
     1
 77
     3
 78
     8
 79
     2
140
3.5
141
0.0
143
0.0393701
144
2.0
146
0.71
147
1.5
172
     1
173
     1
176
   256
177
   256
178
     2
271
     2
272
     3
274
     4
283
     0
284
     8
340
11
341
84
342
84
343
8A
344
84
371
    -1
372
    -1
1001
ACAD_DSTYLE_DIMBREAK
1070
   391
1040
3.75
1001
ACAD_DSTYLE_DIMJAG
1070
   388
1040
1.5
1001
ACAD_DSTYLE_DIMARC_LENGTH_SYMBOL
1070
   379
1070
     1
1001
ACAD_DSTYLE_DIM_LINETYPE
1070
   380
1005
14
1001
ACAD_DSTYLE_DIM_EXT1_LINETYPE
1070
   381
1005
14
1001
ACAD_DSTYLE_DIM_EXT2_LINETYPE
1070
   382
1005
14
  0
DIMSTYLE
105
7C7
330
A
100
AcDbSymbolTableRecord
100
AcDbDimStyleTableRecord
  2
AM_JIS$0
 70
     0
  4
"
 40
0.5
 41
2.5
 42
1.0
 43
10.0
 44
1.0
 47
0.1
 48
0.1
 73
     0
 74
     0
 77
     3
 78
     8
 79
     2
140
3.5
141
0.0
143
0.0393701
146
0.71
147
1.5
172
     1
176
   256
177
   256
178
     2
271
     2
272
     3
274
     4
283
     0
284
     8
340
11
341
84
342
84
343
84
344
84
371
    -1
372
    -1
1001
ACAD_DSTYLE_DIMBREAK
1070
   391
1040
3.75
1001
ACAD_DSTYLE_DIMJAG
1070
   388
1040
1.5
1001
ACAD_DSTYLE_DIMARC_LENGTH_SYMBOL
1070
   379
1070
     1
1001
ACAD_DSTYLE_DIM_LINETYPE
1070
   380
1005
14
1001
ACAD_DSTYLE_DIM_EXT1_LINETYPE
1070
   381
1005
14
1001
ACAD_DSTYLE_DIM_EXT2_LINETYPE
1070
   382
1005
14
  0
DIMSTYLE
105
BB8
330
A
100
AcDbSymbolTableRecord
100
AcDbDimStyleTableRecord
  2
AM_ISO
 70
     0
  4
"
 41
2.5
 42
1.0
 43
10.0
 44
1.0
 47
0.1
 48
0.1
 73
     0
 74
     0
 77
     1
 78
     8
 79
     2
140
3.5
141
0.0
143
0.0393701
146
0.71
147
1.5
172
     1
176
   256
177
   256
178
     2
271
     2
272
     3
274
     4
283
     0
284
     8
340
11
371
    -1
372
    -1
1001
ACAD_DSTYLE_DIMARC_LENGTH_SYMBOL
1070
   379
1070
     1
  0
DIMSTYLE
105
BB9
330
A
100
AcDbSymbolTableRecord
100
AcDbDimStyleTableRecord
  2
AM_ISO$3
 70
     0
  4
"
 41
2.5
 42
1.0
 43
10.0
 44
1.0
 47
0.1
 48
0.1
 73
     0
 77
     1
 78
     8
 79
     2
140
3.5
141
0.0
143
0.0393701
146
0.71
147
1.5
176
   256
177
   256
178
     2
271
     2
272
     3
274
     4
283
     0
284
     8
288
     1
289
     0
340
11
371
    -1
372
    -1
1001
ACAD_DSTYLE_DIMARC_LENGTH_SYMBOL
1070
   379
1070
     1
  0
DIMSTYLE
105
BBA
330
A
100
AcDbSymbolTableRecord
100
AcDbDimStyleTableRecord
  2
AM_ISO$4
 70
     0
  4
"
 41
2.5
 42
1.0
 43
10.0
 44
1.0
 47
0.1
 48
0.1
 73
     0
 77
     1
 78
     8
 79
     2
140
3.5
141
0.0
143
0.0393701
146
0.71
147
1.5
176
   256
177
   256
178
     2
271
     2
272
     3
274
     4
283
     0
284
     8
288
     1
289
     0
340
11
371
    -1
372
    -1
1001
ACAD_DSTYLE_DIMARC_LENGTH_SYMBOL
1070
   379
1070
     1
  0
DIMSTYLE
105
BBB
330
A
100
AcDbSymbolTableRecord
100
AcDbDimStyleTableRecord
  2
AM_ISO$6
 70
     0
  4
"
 41
2.5
 42
1.0
 43
10.0
 44
1.0
 47
0.1
 48
0.1
 73
     0
 74
     0
 78
     8
 79
     2
140
3.5
141
0.0
143
0.0393701
146
0.71
147
1.5
172
     1
176
   256
177
   256
178
     2
271
     2
272
     3
274
     4
283
     0
284
     8
340
11
371
    -1
372
    -1
1001
ACAD_DSTYLE_DIMARC_LENGTH_SYMBOL
1070
   379
1070
     1
  0
DIMSTYLE
105
BBC
330
A
100
AcDbSymbolTableRecord
100
AcDbDimStyleTableRecord
  2
AM_ISO$7
 70
     0
  4
"
 41
2.5
 42
1.0
 43
10.0
 44
1.0
 47
0.1
 48
0.1
 73
     0
 74
     0
 77
     1
 78
     8
 79
     2
140
5.0
141
0.0
143
0.0393701
146
0.71
147
1.5
172
     1
176
   256
177
   256
178
     2
271
     2
272
     3
274
     4
283
     0
284
     8
340
11
371
    -1
372
    -1
1001
ACAD_DSTYLE_DIMARC_LENGTH_SYMBOL
1070
   379
1070
     1
  0
DIMSTYLE
105
BBD
330
A
100
AcDbSymbolTableRecord
100
AcDbDimStyleTableRecord
  2
AM_ISO$SF
 70
     0
  4
"
 41
2.5
 42
1.0
 43
10.0
 44
1.0
 47
0.1
 48
0.1
 73
     0
 74
     0
 75
     1
 76
     1
 77
     1
 78
     8
 79
     2
140
3.5
141
0.0
143
0.0393701
146
0.71
147
1.5
172
     1
176
   256
177
   256
178
     2
271
     2
272
     3
274
     4
283
     0
284
     8
340
11
371
    -1
372
    -1
1001
ACAD_DSTYLE_DIMARC_LENGTH_SYMBOL
1070
   379
1070
     1
  0
DIMSTYLE
105
BBE
330
A
100
AcDbSymbolTableRecord
100
AcDbDimStyleTableRecord
  2
AM_ISO$SH
 70
     0
  4
"
 41
2.5
 42
1.0
 43
10.0
 44
1.0
 47
0.1
 48
0.1
 73
     0
 74
     0
 75
     1
 76
     1
 77
     1
 78
     8
 79
     2
140
3.5
141
0.0
143
0.0393701
144
2.0
146
0.71
147
1.5
172
     1
173
     1
176
   256
177
   256
178
     2
271
     2
272
     3
274
     4
283
     0
284
     8
340
11
343
8A
371
    -1
372
    -1
1001
ACAD_DSTYLE_DIMARC_LENGTH_SYMBOL
1070
   379
1070
     1
  0
DIMSTYLE
105
17CA
330
A
100
AcDbSymbolTableRecord
100
AcDbDimStyleTableRecord
  2
ISO-25
 70
     0
 41
2.5
 42
0.625
 43
3.75
 44
1.25
 73
     0
 74
     0
 77
     1
 78
     8
140
2.5
141
2.5
143
0.03937007874016
147
0.625
171
     3
172
     1
271
     2
272
     2
274
     3
283
     0
284
     8
340
11
  0
DIMSTYLE
105
358B
330
A
100
AcDbSymbolTableRecord
100
AcDbDimStyleTableRecord
  2
AM_JIS$2
 70
     0
  4
"
 40
0.5
 41
2.5
 42
1.0
 43
10.0
 44
1.0
 47
0.1
 48
0.1
 73
     0
 74
     0
 77
     3
 78
     8
 79
     2
140
3.5
141
0.0
143
0.0393701
146
0.71
147
1.5
172
     1
176
   256
177
   256
178
     2
271
     2
272
     3
274
     4
283
     0
284
     8
340
11
341
84
342
84
343
84
344
84
371
    -1
372
    -1
1001
ACAD_DSTYLE_DIMBREAK
1070
   391
1040
3.75
1001
ACAD_DSTYLE_DIMJAG
1070
   388
1040
1.5
1001
ACAD_DSTYLE_DIMARC_LENGTH_SYMBOL
1070
   379
1070
     1
1001
ACAD_DSTYLE_DIM_LINETYPE
1070
   380
1005
14
1001
ACAD_DSTYLE_DIM_EXT1_LINETYPE
1070
   381
1005
14
1001
ACAD_DSTYLE_DIM_EXT2_LINETYPE
1070
   382
1005
14
  0
ENDTAB
  0
TABLE
  2
BLOCK_RECORD
  5
1
330
0
100
AcDbSymbolTable
 70
    27
  0
BLOCK_RECORD
  5
1F
102
{ACAD_XDICTIONARY
360
C9
102
}
330
1
100
AcDbSymbolTableRecord
100
AcDbBlockTableRecord
  2
*Model_Space
340
22
  0
BLOCK_RECORD
  5
1B
330
1
100
AcDbSymbolTableRecord
100
AcDbBlockTableRecord
  2
*Paper_Space
340
1E
  0
BLOCK_RECORD
  5
23
330
1
100
AcDbSymbolTableRecord
100
AcDbBlockTableRecord
  2
*Paper_Space0
340
26
  0
BLOCK_RECORD
  5
84
330
1
100
AcDbSymbolTableRecord
100
AcDbBlockTableRecord
  2
_Open30
340
0
102
{BLKREFS
331
64D5
331
64D6
331
64DE
331
64DF
331
66DF
331
66FA
331
67F6
331
67F7
331
67FF
331
6800
331
6823
331
6824
331
682D
331
682E
331
68C1
331
68C2
331
6B1F
102
}
  0
BLOCK_RECORD
  5
8A
330
1
100
AcDbSymbolTableRecord
100
AcDbBlockTableRecord
  2
GENAXEH
340
0
  0
BLOCK_RECORD
  5
BBF
102
{ACAD_XDICTIONARY
360
BCD
102
}
330
1
100
AcDbSymbolTableRecord
100
AcDbBlockTableRecord
  2
AA-3-BW
340
0
  0
BLOCK_RECORD
  5
176D
102
{ACAD_XDICTIONARY
360
179B
102
}
330
1
100
AcDbSymbolTableRecord
100
AcDbBlockTableRecord
  2
ASO1
340
0
  0
BLOCK_RECORD
  5
17A8
330
1
100
AcDbSymbolTableRecord
100
AcDbBlockTableRecord
  2
A$C2D292097
340
0
  0
BLOCK_RECORD
  5
17BD
102
{ACAD_XDICTIONARY
360
17BE
102
}
330
1
100
AcDbSymbolTableRecord
100
AcDbBlockTableRecord
  2
A$C676C2959
340
0
1001
ACAD
1000
DesignCenter Data
1002
{
1070
     1
1070
     4
1002
}
  0
BLOCK_RECORD
  5
17C2
102
{ACAD_XDICTIONARY
360
17C3
102
}
330
1
100
AcDbSymbolTableRecord
100
AcDbBlockTableRecord
  2
A$C1FED437B
340
0
1001
ACAD
1000
DesignCenter Data
1002
{
1070
     1
1070
     4
1002
}
  0
BLOCK_RECORD
  5
17CB
102
{ACAD_XDICTIONARY
360
525E
102
}
330
1
100
AcDbSymbolTableRecord
100
AcDbBlockTableRecord
  2
ASO-A
340
0
1001
AcDbDynamicBlockGUID
1000
{05057F60-BEC2-4C2A-8186-B529947D5F17}
  0
BLOCK_RECORD
  5
40CF
330
1
100
AcDbSymbolTableRecord
100
AcDbBlockTableRecord
  2
_None
340
0
  0
BLOCK_RECORD
  5
44AD
102
{ACAD_XDICTIONARY
360
44AF
102
}
330
1
100
AcDbSymbolTableRecord
100
AcDbBlockTableRecord
  2
A$C7E273EC7
340
0
1001
ACAD
1000
DesignCenter Data
1002
{
1070
     1
1070
     4
1002
}
  0
BLOCK_RECORD
  5
4ED4
102
{ACAD_XDICTIONARY
360
4EE8
102
}
330
1
100
AcDbSymbolTableRecord
100
AcDbBlockTableRecord
  2
A$C0FBD0FB6
340
0
1001
ACAD
1000
DesignCenter Data
1002
{
1070
     1
1070
     4
1002
}
  0
BLOCK_RECORD
  5
55DB
330
1
100
AcDbSymbolTableRecord
100
AcDbBlockTableRecord
  2
*D13
340
0
  0
BLOCK_RECORD
  5
55E7
330
1
100
AcDbSymbolTableRecord
100
AcDbBlockTableRecord
  2
*D14
340
0
  0
BLOCK_RECORD
  5
57C7
330
1
100
AcDbSymbolTableRecord
100
AcDbBlockTableRecord
  2
*D15
340
0
  0
BLOCK_RECORD
  5
5B0A
330
1
100
AcDbSymbolTableRecord
100
AcDbBlockTableRecord
  2
*D16
340
0
  0
BLOCK_RECORD
  5
5B20
330
1
100
AcDbSymbolTableRecord
100
AcDbBlockTableRecord
  2
*D17
340
0
  0
BLOCK_RECORD
  5
5D2C
330
1
100
AcDbSymbolTableRecord
100
AcDbBlockTableRecord
  2
*D18
340
0
  0
BLOCK_RECORD
  5
5DEE
330
1
100
AcDbSymbolTableRecord
100
AcDbBlockTableRecord
  2
*D19
340
0
  0
BLOCK_RECORD
  5
61D7
330
1
100
AcDbSymbolTableRecord
100
AcDbBlockTableRecord
  2
*D20
340
0
  0
BLOCK_RECORD
  5
61E1
330
1
100
AcDbSymbolTableRecord
100
AcDbBlockTableRecord
  2
*D21
340
0
  0
BLOCK_RECORD
  5
66E6
330
1
100
AcDbSymbolTableRecord
100
AcDbBlockTableRecord
  2
*D22
340
0
  0
BLOCK_RECORD
  5
69FF
330
1
100
AcDbSymbolTableRecord
100
AcDbBlockTableRecord
  2
*S23
340
0
  0
BLOCK_RECORD
  5
6A09
330
1
100
AcDbSymbolTableRecord
100
AcDbBlockTableRecord
  2
*S24
340
0
  0
ENDTAB
  0
ENDSEC
  0
SECTION
  2
BLOCKS
  0
BLOCK
  5
20
330
1F
100
AcDbEntity
  8
0
100
AcDbBlockBegin
  2
*Model_Space
 70
     0
 10
0.0
 20
0.0
 30
0.0
  3
*Model_Space
  1

  0
ENDBLK
  5
21
330
1F
100
AcDbEntity
  8
0
100
AcDbBlockEnd
  0
BLOCK
  5
1C
330
1B
100
AcDbEntity
 67
     1
  8
0
100
AcDbBlockBegin
  2
*Paper_Space
 70
     0
 10
0.0
 20
0.0
 30
0.0
  3
*Paper_Space
  1

  0
ENDBLK
  5
1D
330
1B
100
AcDbEntity
 67
     1
  8
0
100
AcDbBlockEnd
  0
BLOCK
  5
24
330
23
100
AcDbEntity
 67
     1
  8
0
100
AcDbBlockBegin
  2
*Paper_Space0
 70
     0
 10
0.0
 20
0.0
 30
0.0
  3
*Paper_Space0
  1

  0
ENDBLK
  5
25
330
23
100
AcDbEntity
 67
     1
  8
0
100
AcDbBlockEnd
  0
BLOCK
  5
88
330
84
100
AcDbEntity
  8
0
100
AcDbBlockBegin
  2
_Open30
 70
     0
 10
0.0
 20
0.0
 30
0.0
  3
_Open30
  1

  0
LINE
  5
85
330
84
100
AcDbEntity
  8
0
 62
     0
370
    -2
100
AcDbLine
 10
-1.0
 20
0.26794919
 30
0.0
 11
0.0
 21
0.0
 31
0.0
  0
LINE
  5
86
330
84
100
AcDbEntity
  8
0
 62
     0
370
    -2
100
AcDbLine
 10
0.0
 20
0.0
 30
0.0
 11
-1.0
 21
-0.26794919
 31
0.0
  0
LINE
  5
87
330
84
100
AcDbEntity
  8
0
 62
     0
370
    -2
100
AcDbLine
 10
0.0
 20
0.0
 30
0.0
 11
-1.0
 21
0.0
 31
0.0
  0
ENDBLK
  5
89
330
84
100
AcDbEntity
  8
0
100
AcDbBlockEnd
  0
BLOCK
  5
8C
330
8A
100
AcDbEntity
  8
0
100
AcDbBlockBegin
  2
GENAXEH
 70
     0
 10
0.0
 20
0.0
 30
0.0
  3
GENAXEH
  1

  0
LINE
  5
8B
330
8A
100
AcDbEntity
  8
0
100
AcDbLine
 10
-1.0
 20
0.0
 30
0.0
 11
1.0
 21
0.0
 31
0.0
  0
ENDBLK
  5
8D
330
8A
100
AcDbEntity
  8
0
100
AcDbBlockEnd
  0
BLOCK
  5
BCE
330
BBF
100
AcDbEntity
  8
0
100
AcDbBlockBegin
  2
AA-3-BW
 70
     0
 10
0.0
 20
0.0
 30
0.0
  3
AA-3-BW
  1

  0
LWPOLYLINE
  5
BC0
330
BBF
100
AcDbEntity
  8
AM_BOR
 62
   231
100
AcDbPolyline
 90
        4
 70
     1
 43
0.0
 10
11.31798825946299
 20
285.680442839147
 10
11.31798825946292
 20
11.31955716085312
 10
408.7322739737486
 20
11.31955716085296
 10
408.7322739737486
 20
285.680442839147
1001
GENIUS_GENREC_14
1002
{
1000
PYDIR
1011
408.7322739737486
1021
285.680442839147
1031
0.0
1002
}
1002
{
1000
PXDIR
1011
11.31798825946292
1021
11.31955716085312
1031
0.0
1002
}
1002
{
1000
PORI
1011
11.31798825946299
1021
285.680442839147
1031
0.0
1002
}
1002
{
1000
PINS
1011
11.31798825946299
1021
285.680442839147
1031
0.0
1002
}
1002
{
1000
HVAL
1000
281
1002
}
1002
{
1000
H
1070
     2
1002
}
1002
{
1000
WVAL
1000
183
1002
}
1002
{
1000
W
1070
     2
1002
}
1002
{
1000
C
1070
     1
1002
}
1001
GENIUS_GENODEF_13
1002
{
1000
HIER
1070
     0
1002
}
1002
{
1000
MANEDIT
1070
     0
1002
}
1002
{
1000
NOSEL
1070
     0
1002
}
1002
{
1000
BEHIND
1070
     0
1002
}
1002
{
1000
REACTOR
1002
}
1001
GENIUS_GENOBJ-N-REC_13
1002
{
1000
OWNER
1000
GEN
1002
}
  0
TEXT
  5
BC1
330
BBF
100
AcDbEntity
  8
AM_BOR
 60
     1
100
AcDbText
 10
420.0428571428571
 20
296.9999999999998
 30
0.0
 40
5.0
  1
!GENTITLE-MAX
100
AcDbText
  0
LINE
  5
BC2
330
BBF
100
AcDbEntity
  8
AM_BOR
100
AcDbLine
 10
0.0000000000000799
 20
297.0
 30
0.0
 11
0.0000000000000799
 21
275.7857142857142
 31
0.0
1001
GENIUS_GENREC_14
1002
{
1000
PYDIR
1011
420.0428571428571
1021
296.9999999999998
1031
0.0
1002
}
1002
{
1000
PXDIR
1011
0.0
1021
0.0
1031
0.0
1002
}
1002
{
1000
PORI
1011
0.0000000000000799
1021
297.0
1031
0.0
1002
}
1002
{
1000
PINS
1011
0.0000000000000799
1021
297.0
1031
0.0
1002
}
1002
{
1000
HVAL
1000
297
1002
}
1002
{
1000
H
1070
     2
1002
}
1002
{
1000
WVAL
1000
210
1002
}
1002
{
1000
W
1070
     2
1002
}
1002
{
1000
C
1070
     1
1002
}
1001
GENIUS_GENODEF_13
1002
{
1000
HIER
1070
     0
1002
}
1002
{
1000
MANEDIT
1070
     0
1002
}
1002
{
1000
NOSEL
1070
     0
1002
}
1002
{
1000
BEHIND
1070
     0
1002
}
1002
{
1000
REACTOR
1002
}
1001
GENIUS_GENOBJ-N-REC_13
1002
{
1000
OWNER
1000
GEN
1002
}
  0
LINE
  5
BC3
330
BBF
100
AcDbEntity
  8
AM_BOR
100
AcDbLine
 10
0.0
 20
0.0
 30
0.0
 11
21.21428571428571
 21
0.0
 31
0.0
1001
GENIUS_GENREC_14
1002
{
1000
PYDIR
1011
420.0428571428571
1021
296.9999999999998
1031
0.0
1002
}
1002
{
1000
PXDIR
1011
0.0
1021
0.0
1031
0.0
1002
}
1002
{
1000
PORI
1011
0.0000000000000799
1021
297.0
1031
0.0
1002
}
1002
{
1000
PINS
1011
0.0000000000000799
1021
297.0
1031
0.0
1002
}
1002
{
1000
HVAL
1000
297
1002
}
1002
{
1000
H
1070
     2
1002
}
1002
{
1000
WVAL
1000
210
1002
}
1002
{
1000
W
1070
     2
1002
}
1002
{
1000
C
1070
     1
1002
}
1001
GENIUS_GENODEF_13
1002
{
1000
HIER
1070
     0
1002
}
1002
{
1000
MANEDIT
1070
     0
1002
}
1002
{
1000
NOSEL
1070
     0
1002
}
1002
{
1000
BEHIND
1070
     0
1002
}
1002
{
1000
REACTOR
1002
}
1001
GENIUS_GENOBJ-N-REC_13
1002
{
1000
OWNER
1000
GEN
1002
}
  0
LINE
  5
BC4
330
BBF
100
AcDbEntity
  8
AM_BOR
100
AcDbLine
 10
420.0428571428571
 20
-0.0000000000000799
 30
0.0
 11
420.0428571428571
 21
21.21428571428563
 31
0.0
1001
GENIUS_GENREC_14
1002
{
1000
PYDIR
1011
420.0428571428571
1021
296.9999999999998
1031
0.0
1002
}
1002
{
1000
PXDIR
1011
0.0
1021
0.0
1031
0.0
1002
}
1002
{
1000
PORI
1011
0.0000000000000799
1021
297.0
1031
0.0
1002
}
1002
{
1000
PINS
1011
0.0000000000000799
1021
297.0
1031
0.0
1002
}
1002
{
1000
HVAL
1000
297
1002
}
1002
{
1000
H
1070
     2
1002
}
1002
{
1000
WVAL
1000
210
1002
}
1002
{
1000
W
1070
     2
1002
}
1002
{
1000
C
1070
     1
1002
}
1001
GENIUS_GENODEF_13
1002
{
1000
HIER
1070
     0
1002
}
1002
{
1000
MANEDIT
1070
     0
1002
}
1002
{
1000
NOSEL
1070
     0
1002
}
1002
{
1000
BEHIND
1070
     0
1002
}
1002
{
1000
REACTOR
1002
}
1001
GENIUS_GENOBJ-N-REC_13
1002
{
1000
OWNER
1000
GEN
1002
}
  0
LINE
  5
BC5
330
BBF
100
AcDbEntity
  8
AM_BOR
100
AcDbLine
 10
420.0428571428571
 20
296.9999999999998
 30
0.0
 11
398.8285714285715
 21
296.9999999999998
 31
0.0
1001
GENIUS_GENREC_14
1002
{
1000
PYDIR
1011
420.0428571428571
1021
296.9999999999998
1031
0.0
1002
}
1002
{
1000
PXDIR
1011
0.0
1021
0.0
1031
0.0
1002
}
1002
{
1000
PORI
1011
0.0000000000000799
1021
297.0
1031
0.0
1002
}
1002
{
1000
PINS
1011
0.0000000000000799
1021
297.0
1031
0.0
1002
}
1002
{
1000
HVAL
1000
297
1002
}
1002
{
1000
H
1070
     2
1002
}
1002
{
1000
WVAL
1000
210
1002
}
1002
{
1000
W
1070
     2
1002
}
1002
{
1000
C
1070
     1
1002
}
1001
GENIUS_GENODEF_13
1002
{
1000
HIER
1070
     0
1002
}
1002
{
1000
MANEDIT
1070
     0
1002
}
1002
{
1000
NOSEL
1070
     0
1002
}
1002
{
1000
BEHIND
1070
     0
1002
}
1002
{
1000
REACTOR
1002
}
1001
GENIUS_GENOBJ-N-REC_13
1002
{
1000
OWNER
1000
GEN
1002
}
  0
LINE
  5
BC6
330
BBF
100
AcDbEntity
  8
AM_BOR
100
AcDbLine
 10
21.2142857142858
 20
297.0
 30
0.0
 11
0.0000000000000799
 21
297.0
 31
0.0
1001
GENIUS_GENREC_14
1002
{
1000
PYDIR
1011
420.0428571428571
1021
296.9999999999998
1031
0.0
1002
}
1002
{
1000
PXDIR
1011
0.0
1021
0.0
1031
0.0
1002
}
1002
{
1000
PORI
1011
0.0000000000000799
1021
297.0
1031
0.0
1002
}
1002
{
1000
PINS
1011
0.0000000000000799
1021
297.0
1031
0.0
1002
}
1002
{
1000
HVAL
1000
297
1002
}
1002
{
1000
H
1070
     2
1002
}
1002
{
1000
WVAL
1000
210
1002
}
1002
{
1000
W
1070
     2
1002
}
1002
{
1000
C
1070
     1
1002
}
1001
GENIUS_GENODEF_13
1002
{
1000
HIER
1070
     0
1002
}
1002
{
1000
MANEDIT
1070
     0
1002
}
1002
{
1000
NOSEL
1070
     0
1002
}
1002
{
1000
BEHIND
1070
     0
1002
}
1002
{
1000
REACTOR
1002
}
1001
GENIUS_GENOBJ-N-REC_13
1002
{
1000
OWNER
1000
GEN
1002
}
  0
LINE
  5
BC7
330
BBF
100
AcDbEntity
  8
AM_BOR
100
AcDbLine
 10
420.0428571428571
 20
275.7857142857141
 30
0.0
 11
420.0428571428571
 21
296.9999999999998
 31
0.0
1001
GENIUS_GENREC_14
1002
{
1000
PYDIR
1011
420.0428571428571
1021
296.9999999999998
1031
0.0
1002
}
1002
{
1000
PXDIR
1011
0.0
1021
0.0
1031
0.0
1002
}
1002
{
1000
PORI
1011
0.0000000000000799
1021
297.0
1031
0.0
1002
}
1002
{
1000
PINS
1011
0.0000000000000799
1021
297.0
1031
0.0
1002
}
1002
{
1000
HVAL
1000
297
1002
}
1002
{
1000
H
1070
     2
1002
}
1002
{
1000
WVAL
1000
210
1002
}
1002
{
1000
W
1070
     2
1002
}
1002
{
1000
C
1070
     1
1002
}
1001
GENIUS_GENODEF_13
1002
{
1000
HIER
1070
     0
1002
}
1002
{
1000
MANEDIT
1070
     0
1002
}
1002
{
1000
NOSEL
1070
     0
1002
}
1002
{
1000
BEHIND
1070
     0
1002
}
1002
{
1000
REACTOR
1002
}
1001
GENIUS_GENOBJ-N-REC_13
1002
{
1000
OWNER
1000
GEN
1002
}
  0
LINE
  5
BC8
330
BBF
100
AcDbEntity
  8
AM_BOR
100
AcDbLine
 10
398.8285714285715
 20
-0.0000000000000799
 30
0.0
 11
420.0428571428571
 21
-0.0000000000000799
 31
0.0
1001
GENIUS_GENREC_14
1002
{
1000
PYDIR
1011
420.0428571428571
1021
296.9999999999998
1031
0.0
1002
}
1002
{
1000
PXDIR
1011
0.0
1021
0.0
1031
0.0
1002
}
1002
{
1000
PORI
1011
0.0000000000000799
1021
297.0
1031
0.0
1002
}
1002
{
1000
PINS
1011
0.0000000000000799
1021
297.0
1031
0.0
1002
}
1002
{
1000
HVAL
1000
297
1002
}
1002
{
1000
H
1070
     2
1002
}
1002
{
1000
WVAL
1000
210
1002
}
1002
{
1000
W
1070
     2
1002
}
1002
{
1000
C
1070
     1
1002
}
1001
GENIUS_GENODEF_13
1002
{
1000
HIER
1070
     0
1002
}
1002
{
1000
MANEDIT
1070
     0
1002
}
1002
{
1000
NOSEL
1070
     0
1002
}
1002
{
1000
BEHIND
1070
     0
1002
}
1002
{
1000
REACTOR
1002
}
1001
GENIUS_GENOBJ-N-REC_13
1002
{
1000
OWNER
1000
GEN
1002
}
  0
LINE
  5
BC9
330
BBF
100
AcDbEntity
  8
AM_BOR
100
AcDbLine
 10
0.0
 20
21.21428571428571
 30
0.0
 11
0.0
 21
0.0
 31
0.0
1001
GENIUS_GENREC_14
1002
{
1000
PYDIR
1011
420.0428571428571
1021
296.9999999999998
1031
0.0
1002
}
1002
{
1000
PXDIR
1011
0.0
1021
0.0
1031
0.0
1002
}
1002
{
1000
PORI
1011
0.0000000000000799
1021
297.0
1031
0.0
1002
}
1002
{
1000
PINS
1011
0.0000000000000799
1021
297.0
1031
0.0
1002
}
1002
{
1000
HVAL
1000
297
1002
}
1002
{
1000
H
1070
     2
1002
}
1002
{
1000
WVAL
1000
210
1002
}
1002
{
1000
W
1070
     2
1002
}
1002
{
1000
C
1070
     1
1002
}
1001
GENIUS_GENODEF_13
1002
{
1000
HIER
1070
     0
1002
}
1002
{
1000
MANEDIT
1070
     0
1002
}
1002
{
1000
NOSEL
1070
     0
1002
}
1002
{
1000
BEHIND
1070
     0
1002
}
1002
{
1000
REACTOR
1002
}
1001
GENIUS_GENOBJ-N-REC_13
1002
{
1000
OWNER
1000
GEN
1002
}
  0
TEXT
  5
BCA
330
BBF
100
AcDbEntity
  8
AM_0
 60
     1
100
AcDbText
 10
408.7322739737486
 20
285.680442839147
 30
0.0
 40
5.0
  1
!GENTITLE-RU
100
AcDbText
  0
TEXT
  5
BCB
330
BBF
100
AcDbEntity
  8
AM_0
 60
     1
100
AcDbText
 10
16.00523592247285
 20
16.0074545709034
 30
0.0
 40
5.0
  1
!GENTITLE-LL
100
AcDbText
  0
TEXT
  5
BCC
330
BBF
100
AcDbEntity
  8
AM_0
 60
     1
100
AcDbText
 10
408.7322739737486
 20
11.31955716085296
 30
0.0
 40
5.0
  1
!GENTITLE-INSERT
100
AcDbText
  0
ENDBLK
  5
BCF
330
BBF
100
AcDbEntity
  8
0
100
AcDbBlockEnd
  0
BLOCK
  5
179C
330
176D
100
AcDbEntity
  8
0
100
AcDbBlockBegin
  2
ASO1
 70
     2
 10
0.0
 20
0.0
 30
0.0
  3
ASO1
  1

  0
LINE
  5
176E
330
176D
100
AcDbEntity
  8
AM_BOR
 62
   211
100
AcDbLine
 10
-110.0
 20
0.0
 30
0.0
 11
0.0
 21
0.0
 31
0.0
1001
GENIUS_GENREC_14
1002
{
1000
PYDIR
1011
-110.0
1021
40.0
1031
0.0
1002
}
1002
{
1000
PXDIR
1011
0.0
1021
0.0
1031
0.0
1002
}
1002
{
1000
PORI
1011
-110.0
1021
0.0
1031
0.0
1002
}
1002
{
1000
PINS
1011
-110.0
1021
0.0
1031
0.0
1002
}
1002
{
1000
HVAL
1000
40
1002
}
1002
{
1000
H
1070
     2
1002
}
1002
{
1000
WVAL
1000
110
1002
}
1002
{
1000
W
1070
     2
1002
}
1002
{
1000
C
1070
     1
1002
}
1001
GENIUS_GENODEF_13
1002
{
1000
HIER
1070
     0
1002
}
1002
{
1000
MANEDIT
1070
     0
1002
}
1002
{
1000
NOSEL
1070
     0
1002
}
1002
{
1000
BEHIND
1070
     0
1002
}
1002
{
1000
REACTOR
1002
}
1001
GENIUS_GENOBJ-N-REC_13
1002
{
1000
OWNER
1000
GEN
1002
}
  0
LINE
  5
176F
330
176D
100
AcDbEntity
  8
AM_BOR
 62
   211
100
AcDbLine
 10
0.0
 20
0.0
 30
0.0
 11
0.0
 21
40.0
 31
0.0
1001
GENIUS_GENREC_14
1002
{
1000
PYDIR
1011
-110.0
1021
40.0
1031
0.0
1002
}
1002
{
1000
PXDIR
1011
0.0
1021
0.0
1031
0.0
1002
}
1002
{
1000
PORI
1011
-110.0
1021
0.0
1031
0.0
1002
}
1002
{
1000
PINS
1011
-110.0
1021
0.0
1031
0.0
1002
}
1002
{
1000
HVAL
1000
40
1002
}
1002
{
1000
H
1070
     2
1002
}
1002
{
1000
WVAL
1000
110
1002
}
1002
{
1000
W
1070
     2
1002
}
1002
{
1000
C
1070
     1
1002
}
1001
GENIUS_GENODEF_13
1002
{
1000
HIER
1070
     0
1002
}
1002
{
1000
MANEDIT
1070
     0
1002
}
1002
{
1000
NOSEL
1070
     0
1002
}
1002
{
1000
BEHIND
1070
     0
1002
}
1002
{
1000
REACTOR
1002
}
1001
GENIUS_GENOBJ-N-REC_13
1002
{
1000
OWNER
1000
GEN
1002
}
  0
LINE
  5
1770
330
176D
100
AcDbEntity
  8
AM_BOR
 62
   211
100
AcDbLine
 10
0.0
 20
40.0
 30
0.0
 11
-110.0
 21
40.00000000000001
 31
0.0
1001
GENIUS_GENREC_14
1002
{
1000
PYDIR
1011
-110.0
1021
40.0
1031
0.0
1002
}
1002
{
1000
PXDIR
1011
0.0
1021
0.0
1031
0.0
1002
}
1002
{
1000
PORI
1011
-110.0
1021
0.0
1031
0.0
1002
}
1002
{
1000
PINS
1011
-110.0
1021
0.0
1031
0.0
1002
}
1002
{
1000
HVAL
1000
40
1002
}
1002
{
1000
H
1070
     2
1002
}
1002
{
1000
WVAL
1000
110
1002
}
1002
{
1000
W
1070
     2
1002
}
1002
{
1000
C
1070
     1
1002
}
1001
GENIUS_GENODEF_13
1002
{
1000
HIER
1070
     0
1002
}
1002
{
1000
MANEDIT
1070
     0
1002
}
1002
{
1000
NOSEL
1070
     0
1002
}
1002
{
1000
BEHIND
1070
     0
1002
}
1002
{
1000
REACTOR
1002
}
1001
GENIUS_GENOBJ-N-REC_13
1002
{
1000
OWNER
1000
GEN
1002
}
  0
LINE
  5
1771
330
176D
100
AcDbEntity
  8
AM_BOR
 62
   211
100
AcDbLine
 10
-110.0
 20
40.00000000000001
 30
0.0
 11
-110.0
 21
0.0
 31
0.0
1001
GENIUS_GENREC_14
1002
{
1000
PYDIR
1011
-110.0
1021
40.0
1031
0.0
1002
}
1002
{
1000
PXDIR
1011
0.0
1021
0.0
1031
0.0
1002
}
1002
{
1000
PORI
1011
-110.0
1021
0.0
1031
0.0
1002
}
1002
{
1000
PINS
1011
-110.0
1021
0.0
1031
0.0
1002
}
1002
{
1000
HVAL
1000
40
1002
}
1002
{
1000
H
1070
     2
1002
}
1002
{
1000
WVAL
1000
110
1002
}
1002
{
1000
W
1070
     2
1002
}
1002
{
1000
C
1070
     1
1002
}
1001
GENIUS_GENODEF_13
1002
{
1000
HIER
1070
     0
1002
}
1002
{
1000
MANEDIT
1070
     0
1002
}
1002
{
1000
NOSEL
1070
     0
1002
}
1002
{
1000
BEHIND
1070
     0
1002
}
1002
{
1000
REACTOR
1002
}
1001
GENIUS_GENOBJ-N-REC_13
1002
{
1000
OWNER
1000
GEN
1002
}
  0
LINE
  5
1772
330
176D
100
AcDbEntity
  8
AM_BOR
 62
     5
100
AcDbLine
 10
-60.0
 20
9.999999999999992
 30
0.0
 11
0.0
 21
10.0
 31
0.0
1001
GENIUS_GENREC_14
1002
{
1000
PYDIR
1011
-110.0
1021
40.0
1031
0.0
1002
}
1002
{
1000
PXDIR
1011
0.0
1021
0.0
1031
0.0
1002
}
1002
{
1000
PORI
1011
-110.0
1021
0.0
1031
0.0
1002
}
1002
{
1000
PINS
1011
-110.0
1021
0.0
1031
0.0
1002
}
1002
{
1000
HVAL
1000
40
1002
}
1002
{
1000
H
1070
     2
1002
}
1002
{
1000
WVAL
1000
110
1002
}
1002
{
1000
W
1070
     2
1002
}
1002
{
1000
C
1070
     1
1002
}
  0
LINE
  5
1773
330
176D
100
AcDbEntity
  8
AM_BOR
 62
     5
100
AcDbLine
 10
-110.0
 20
19.0
 30
0.0
 11
0.0
 21
19.0
 31
0.0
1001
GENIUS_GENREC_14
1002
{
1000
PYDIR
1011
-110.0
1021
40.0
1031
0.0
1002
}
1002
{
1000
PXDIR
1011
0.0
1021
0.0
1031
0.0
1002
}
1002
{
1000
PORI
1011
-110.0
1021
0.0
1031
0.0
1002
}
1002
{
1000
PINS
1011
-110.0
1021
0.0
1031
0.0
1002
}
1002
{
1000
HVAL
1000
40
1002
}
1002
{
1000
H
1070
     2
1002
}
1002
{
1000
WVAL
1000
110
1002
}
1002
{
1000
W
1070
     2
1002
}
1002
{
1000
C
1070
     1
1002
}
1001
GENIUS_GENODEF_13
1002
{
1000
HIER
1070
     0
1002
}
1002
{
1000
MANEDIT
1070
     0
1002
}
1002
{
1000
NOSEL
1070
     0
1002
}
1002
{
1000
BEHIND
1070
     0
1002
}
1002
{
1000
REACTOR
1002
}
1001
GENIUS_GENOBJ-N-REC_13
1002
{
1000
OWNER
1000
GEN
1002
}
  0
LINE
  5
1774
330
176D
100
AcDbEntity
  8
AM_BOR
 62
     5
100
AcDbLine
 10
-110.0
 20
26.0
 30
0.0
 11
0.0
 21
26.0
 31
0.0
1001
GENIUS_GENREC_14
1002
{
1000
PYDIR
1011
-110.0
1021
40.0
1031
0.0
1002
}
1002
{
1000
PXDIR
1011
0.0
1021
0.0
1031
0.0
1002
}
1002
{
1000
PORI
1011
-110.0
1021
0.0
1031
0.0
1002
}
1002
{
1000
PINS
1011
-110.0
1021
0.0
1031
0.0
1002
}
1002
{
1000
HVAL
1000
40
1002
}
1002
{
1000
H
1070
     2
1002
}
1002
{
1000
WVAL
1000
110
1002
}
1002
{
1000
W
1070
     2
1002
}
1002
{
1000
C
1070
     1
1002
}
1001
GENIUS_GENODEF_13
1002
{
1000
HIER
1070
     0
1002
}
1002
{
1000
MANEDIT
1070
     0
1002
}
1002
{
1000
NOSEL
1070
     0
1002
}
1002
{
1000
BEHIND
1070
     0
1002
}
1002
{
1000
REACTOR
1002
}
1001
GENIUS_GENOBJ-N-REC_13
1002
{
1000
OWNER
1000
GEN
1002
}
  0
LINE
  5
1775
330
176D
100
AcDbEntity
  8
AM_BOR
 62
     5
100
AcDbLine
 10
-110.0
 20
33.0
 30
0.0
 11
0.0
 21
33.0
 31
0.0
1001
GENIUS_GENREC_14
1002
{
1000
PYDIR
1011
-110.0
1021
40.0
1031
0.0
1002
}
1002
{
1000
PXDIR
1011
0.0
1021
0.0
1031
0.0
1002
}
1002
{
1000
PORI
1011
-110.0
1021
0.0
1031
0.0
1002
}
1002
{
1000
PINS
1011
-110.0
1021
0.0
1031
0.0
1002
}
1002
{
1000
HVAL
1000
40
1002
}
1002
{
1000
H
1070
     2
1002
}
1002
{
1000
WVAL
1000
110
1002
}
1002
{
1000
W
1070
     2
1002
}
1002
{
1000
C
1070
     1
1002
}
1001
GENIUS_GENODEF_13
1002
{
1000
HIER
1070
     0
1002
}
1002
{
1000
MANEDIT
1070
     0
1002
}
1002
{
1000
NOSEL
1070
     0
1002
}
1002
{
1000
BEHIND
1070
     0
1002
}
1002
{
1000
REACTOR
1002
}
1001
GENIUS_GENOBJ-N-REC_13
1002
{
1000
OWNER
1000
GEN
1002
}
  0
LINE
  5
1776
330
176D
100
AcDbEntity
  8
AM_BOR
 62
     5
100
AcDbLine
 10
-85.0
 20
33.0
 30
0.0
 11
-85.0
 21
18.99999999999998
 31
0.0
1001
GENIUS_GENREC_14
1002
{
1000
PYDIR
1011
-110.0
1021
40.0
1031
0.0
1002
}
1002
{
1000
PXDIR
1011
0.0
1021
0.0
1031
0.0
1002
}
1002
{
1000
PORI
1011
-110.0
1021
0.0
1031
0.0
1002
}
1002
{
1000
PINS
1011
-110.0
1021
0.0
1031
0.0
1002
}
1002
{
1000
HVAL
1000
40
1002
}
1002
{
1000
H
1070
     2
1002
}
1002
{
1000
WVAL
1000
110
1002
}
1002
{
1000
W
1070
     2
1002
}
1002
{
1000
C
1070
     1
1002
}
1001
GENIUS_GENODEF_13
1002
{
1000
HIER
1070
     0
1002
}
1002
{
1000
MANEDIT
1070
     0
1002
}
1002
{
1000
NOSEL
1070
     0
1002
}
1002
{
1000
BEHIND
1070
     0
1002
}
1002
{
1000
REACTOR
1002
}
1001
GENIUS_GENOBJ-N-REC_13
1002
{
1000
OWNER
1000
GEN
1002
}
  0
LINE
  5
1777
330
176D
100
AcDbEntity
  8
AM_BOR
 62
     5
100
AcDbLine
 10
-60.0
 20
40.00000000000001
 30
0.0
 11
-60.0
 21
0.0
 31
0.0
1001
GENIUS_GENREC_14
1002
{
1000
PYDIR
1011
-110.0
1021
40.0
1031
0.0
1002
}
1002
{
1000
PXDIR
1011
0.0
1021
0.0
1031
0.0
1002
}
1002
{
1000
PORI
1011
-110.0
1021
0.0
1031
0.0
1002
}
1002
{
1000
PINS
1011
-110.0
1021
0.0
1031
0.0
1002
}
1002
{
1000
HVAL
1000
40
1002
}
1002
{
1000
H
1070
     2
1002
}
1002
{
1000
WVAL
1000
110
1002
}
1002
{
1000
W
1070
     2
1002
}
1002
{
1000
C
1070
     1
1002
}
1001
GENIUS_GENODEF_13
1002
{
1000
HIER
1070
     0
1002
}
1002
{
1000
MANEDIT
1070
     0
1002
}
1002
{
1000
NOSEL
1070
     0
1002
}
1002
{
1000
BEHIND
1070
     0
1002
}
1002
{
1000
REACTOR
1002
}
1001
GENIUS_GENOBJ-N-REC_13
1002
{
1000
OWNER
1000
GEN
1002
}
  0
LINE
  5
1778
330
176D
100
AcDbEntity
  8
AM_BOR
 62
     5
100
AcDbLine
 10
-20.0
 20
33.0
 30
0.0
 11
-20.0
 21
40.0
 31
0.0
1001
GENIUS_GENREC_14
1002
{
1000
PYDIR
1011
-110.0
1021
40.0
1031
0.0
1002
}
1002
{
1000
PXDIR
1011
0.0
1021
0.0
1031
0.0
1002
}
1002
{
1000
PORI
1011
-110.0
1021
0.0
1031
0.0
1002
}
1002
{
1000
PINS
1011
-110.0
1021
0.0
1031
0.0
1002
}
1002
{
1000
HVAL
1000
40
1002
}
1002
{
1000
H
1070
     2
1002
}
1002
{
1000
WVAL
1000
110
1002
}
1002
{
1000
W
1070
     2
1002
}
1002
{
1000
C
1070
     1
1002
}
1001
GENIUS_GENODEF_13
1002
{
1000
HIER
1070
     0
1002
}
1002
{
1000
MANEDIT
1070
     0
1002
}
1002
{
1000
NOSEL
1070
     0
1002
}
1002
{
1000
BEHIND
1070
     0
1002
}
1002
{
1000
REACTOR
1002
}
1001
GENIUS_GENOBJ-N-REC_13
1002
{
1000
OWNER
1000
GEN
1002
}
  0
LINE
  5
1779
330
176D
100
AcDbEntity
  8
AM_BOR
 62
     5
100
AcDbLine
 10
-40.0
 20
33.0
 30
0.0
 11
-40.0
 21
40.0
 31
0.0
1001
GENIUS_GENREC_14
1002
{
1000
PYDIR
1011
-110.0
1021
40.0
1031
0.0
1002
}
1002
{
1000
PXDIR
1011
0.0
1021
0.0
1031
0.0
1002
}
1002
{
1000
PORI
1011
-110.0
1021
0.0
1031
0.0
1002
}
1002
{
1000
PINS
1011
-110.0
1021
0.0
1031
0.0
1002
}
1002
{
1000
HVAL
1000
40
1002
}
1002
{
1000
H
1070
     2
1002
}
1002
{
1000
WVAL
1000
110
1002
}
1002
{
1000
W
1070
     2
1002
}
1002
{
1000
C
1070
     1
1002
}
1001
GENIUS_GENODEF_13
1002
{
1000
HIER
1070
     0
1002
}
1002
{
1000
MANEDIT
1070
     0
1002
}
1002
{
1000
NOSEL
1070
     0
1002
}
1002
{
1000
BEHIND
1070
     0
1002
}
1002
{
1000
REACTOR
1002
}
1001
GENIUS_GENOBJ-N-REC_13
1002
{
1000
OWNER
1000
GEN
1002
}
  0
LINE
  5
177A
330
176D
100
AcDbEntity
  8
AM_BOR
 62
     5
100
AcDbLine
 10
-80.0
 20
33.0
 30
0.0
 11
-80.0
 21
40.0
 31
0.0
1001
GENIUS_GENREC_14
1002
{
1000
PYDIR
1011
-110.0
1021
40.0
1031
0.0
1002
}
1002
{
1000
PXDIR
1011
0.0
1021
0.0
1031
0.0
1002
}
1002
{
1000
PORI
1011
-110.0
1021
0.0
1031
0.0
1002
}
1002
{
1000
PINS
1011
-110.0
1021
0.0
1031
0.0
1002
}
1002
{
1000
HVAL
1000
40
1002
}
1002
{
1000
H
1070
     2
1002
}
1002
{
1000
WVAL
1000
110
1002
}
1002
{
1000
W
1070
     2
1002
}
1002
{
1000
C
1070
     1
1002
}
1001
GENIUS_GENODEF_13
1002
{
1000
HIER
1070
     0
1002
}
1002
{
1000
MANEDIT
1070
     0
1002
}
1002
{
1000
NOSEL
1070
     0
1002
}
1002
{
1000
BEHIND
1070
     0
1002
}
1002
{
1000
REACTOR
1002
}
1001
GENIUS_GENOBJ-N-REC_13
1002
{
1000
OWNER
1000
GEN
1002
}
  0
TEXT
  5
177B
330
176D
100
AcDbEntity
  8
AM_BOR
 62
     2
100
AcDbText
 10
-57.4
 20
35.0
 30
0.0
 40
3.0
  1
単位 ｍｍ
 72
     4
 11
-50.0
 21
36.5
 31
0.0
100
AcDbText
  0
TEXT
  5
177C
330
176D
100
AcDbEntity
  8
AM_BOR
 62
     2
100
AcDbText
 10
-39.0
 20
35.0
 30
0.0
 40
3.0
  1
尺度
 41
0.9
 11
-39.0
 21
36.5
 31
0.0
100
AcDbText
 73
     2
  0
TEXT
  5
177D
330
176D
100
AcDbEntity
  8
AM_BOR
 62
     2
100
AcDbText
 10
-19.0
 20
35.0
 30
0.0
 40
3.0
  1
日付
 41
0.9
 11
-19.0
 21
36.5
 31
0.0
100
AcDbText
 73
     2
  0
TEXT
  5
177E
330
176D
100
AcDbEntity
  8
AM_BOR
 62
     2
100
AcDbText
 10
-75.75
 20
34.99999999999999
 30
0.0
 40
3.0
  1
第1角法
 72
     4
 11
-70.0
 21
36.49999999999999
 31
0.0
100
AcDbText
  0
TEXT
  5
177F
330
176D
100
AcDbEntity
  8
AM_BOR
 62
     2
100
AcDbText
 10
-59.0
 20
29.5
 30
0.0
 40
3.0
  1
材 質
 11
-59.0
 21
31.0
 31
0.0
100
AcDbText
 73
     2
  0
TEXT
  5
1780
330
176D
100
AcDbEntity
  8
AM_BOR
 62
     2
100
AcDbText
 10
-59.0
 20
22.5
 30
0.0
 40
3.0
  1
備 考
 11
-59.0
 21
24.0
 31
0.0
100
AcDbText
 73
     2
  0
TEXT
  5
1781
330
176D
100
AcDbEntity
  8
AM_BOR
 62
     2
100
AcDbText
 10
-59.0
 20
15.5
 30
0.0
 40
3.0
  1
品 名
 11
-59.0
 21
17.0
 31
0.0
100
AcDbText
 73
     2
  0
TEXT
  5
1782
330
176D
100
AcDbEntity
  8
AM_BOR
 62
     2
100
AcDbText
 10
-59.0
 20
6.499999999999992
 30
0.0
 40
3.0
  1
図 番
 11
-59.0
 21
7.999999999999992
 31
0.0
100
AcDbText
 73
     2
  0
TEXT
  5
1783
330
176D
100
AcDbEntity
  8
AM_BOR
 62
     2
100
AcDbText
 10
-109.0
 20
29.5
 30
0.0
 40
3.0
  1
承認
 11
-109.0
 21
31.0
 31
0.0
100
AcDbText
 73
     2
  0
TEXT
  5
1784
330
176D
100
AcDbEntity
  8
AM_BOR
 62
     2
100
AcDbText
 10
-109.0
 20
22.5
 30
0.0
 40
3.0
  1
設計
 11
-109.0
 21
24.0
 31
0.0
100
AcDbText
 73
     2
  0
TEXT
  5
1785
330
176D
100
AcDbEntity
  8
AM_BOR
 62
     2
100
AcDbText
 10
-84.0
 20
22.5
 30
0.0
 40
3.0
  1
製図
 11
-84.0
 21
24.0
 31
0.0
100
AcDbText
 73
     2
  0
TEXT
  5
1786
330
176D
100
AcDbEntity
  8
AM_BOR
 62
     2
100
AcDbText
 10
-84.0
 20
29.5
 30
0.0
 40
3.0
  1
検図
 11
-84.0
 21
31.0
 31
0.0
100
AcDbText
 73
     2
  0
ATTDEF
  5
1787
330
176D
100
AcDbEntity
  8
AM_BOR
100
AcDbText
 10
-49.48020001333898
 20
12.75
 30
0.0
 40
3.5
  1

 11
-49.48020001333898
 21
14.5
 31
0.0
100
AcDbAttributeDefinition
  3
品名
  2
HINMEI{14}
 70
     0
 74
     2
  0
ATTDEF
  5
1788
330
176D
100
AcDbEntity
  8
AM_BOR
100
AcDbText
 10
-49.48020001333898
 20
3.249999999999992
 30
0.0
 40
3.5
  1

 11
-49.48020001333898
 21
4.999999999999992
 31
0.0
100
AcDbAttributeDefinition
  3
図番
  2
ZUBAN{14}
 70
     0
 74
     2
  0
ATTDEF
  5
1789
330
176D
100
AcDbEntity
  8
AM_BOR
 62
     2
100
AcDbText
 10
-11.91705654530994
 20
35.0
 30
0.0
 40
3.0
  1

 41
0.8
 11
-11.91705654530994
 21
36.5
 31
0.0
100
AcDbAttributeDefinition
  3
日付
  2
GEN-TITLE-DAT{3.5}
 70
     0
 74
     2
  0
ATTDEF
  5
178A
330
176D
100
AcDbEntity
  8
AM_BOR
 62
     2
100
AcDbText
 10
-71.63012018472975
 20
20.00000000000001
 30
0.0
 40
3.0
  1
水 田
 72
     4
 11
-67.63012018472974
 21
21.50000000000002
 31
0.0
100
AcDbAttributeDefinition
  3
製図
  2
SEIZU
 70
     0
  0
ATTDEF
  5
178B
330
176D
100
AcDbEntity
  8
AM_BOR
 62
     2
100
AcDbText
 10
-31.91705654530995
 20
35.0
 30
0.0
 40
3.0
  1

 11
-31.91705654530995
 21
36.5
 31
0.0
100
AcDbAttributeDefinition
  3
尺度
  2
GEN-TITLE-SCA
 70
     0
 74
     2
  0
LINE
  5
178C
330
176D
100
AcDbEntity
  8
0
100
AcDbLine
 10
-106.9502221859465
 20
14.71456568209314
 30
0.0
 11
-107.7139711131768
 21
11.16237652835879
 31
0.0
  0
LINE
  5
178D
330
176D
100
AcDbEntity
  8
0
100
AcDbLine
 10
-107.7139711131768
 20
11.16237652835879
 30
0.0
 11
-107.6697551010107
 21
11.22470827233807
 31
0.0
  0
ELLIPSE
  5
178E
330
176D
100
AcDbEntity
  8
0
100
AcDbEllipse
 10
-106.5198686826232
 20
9.133166589319488
 30
0.0
 11
0.0200858413762701
 21
2.795177724472429
 31
0.0
210
0.0
220
0.0
230
0.9999999999999998
 40
0.6250197778053533
 41
-1.051714224928873
 42
0.7298517778971401
1001
GENIUS_GENODEF_13
1002
{
1000
HIER
1070
     0
1002
}
1002
{
1000
MANEDIT
1070
     0
1002
}
1002
{
1000
NOSEL
1070
     0
1002
}
1002
{
1000
BEHIND
1070
     0
1002
}
1002
{
1000
REACTOR
1002
}
1001
GENIUS_GENOBJ-N-FIL_13
1002
{
1000
OWNER
1000
GEN
1002
}
  0
ELLIPSE
  5
178F
330
176D
100
AcDbEntity
  8
0
100
AcDbEllipse
 10
-105.2984958385996
 20
13.8219417489321
 30
0.0
 11
0.0200858413762916
 21
2.795177724472415
 31
0.0
210
0.0
220
0.0
230
1.0
 40
0.6250197778053527
 41
-1.051714224928867
 42
1.250253596044828
1001
GENIUS_GENODEF_13
1002
{
1000
HIER
1070
     0
1002
}
1002
{
1000
MANEDIT
1070
     0
1002
}
1002
{
1000
NOSEL
1070
     0
1002
}
1002
{
1000
BEHIND
1070
     0
1002
}
1002
{
1000
REACTOR
1002
}
1001
GENIUS_GENOBJ-N-FIL_13
1002
{
1000
OWNER
1000
GEN
1002
}
  0
LINE
  5
1790
330
176D
100
AcDbEntity
  8
0
100
AcDbLine
 10
-98.48721298302093
 20
8.077457208786752
 30
0.0
 11
-99.45177360188811
 21
4.065819878065248
 31
0.0
  0
ELLIPSE
  5
1791
330
176D
100
AcDbEntity
  8
0
100
AcDbEllipse
 10
-101.0818809708247
 20
5.053412867376919
 30
0.0
 11
0.0200858413762853
 21
2.795177724472413
 31
0.0
210
0.0
220
0.0
230
1.0
 40
0.6250197778053547
 41
2.089878428660925
 42
4.355766148231805
1001
GENIUS_GENODEF_13
1002
{
1000
HIER
1070
     0
1002
}
1002
{
1000
MANEDIT
1070
     0
1002
}
1002
{
1000
NOSEL
1070
     0
1002
}
1002
{
1000
BEHIND
1070
     0
1002
}
1002
{
1000
REACTOR
1002
}
1001
GENIUS_GENOBJ-N-FIL_13
1002
{
1000
OWNER
1000
GEN
1002
}
  0
LINE
  5
1792
330
176D
100
AcDbEntity
  8
0
100
AcDbLine
 10
-98.48721298302093
 20
8.077457208786752
 30
0.0
 11
-98.66382720839389
 21
7.801834007856294
 31
0.0
  0
ELLIPSE
  5
1793
330
176D
100
AcDbEntity
  8
0
100
AcDbEllipse
 10
-99.87931293102301
 20
9.796066964505511
 30
0.0
 11
0.0200858413762724
 21
2.795177724472415
 31
0.0
210
0.0
220
0.0
230
0.9999999999999998
 40
0.6250197778053552
 41
2.08987842866092
 42
3.922474143254961
1001
GENIUS_GENODEF_13
1002
{
1000
HIER
1070
     0
1002
}
1002
{
1000
MANEDIT
1070
     0
1002
}
1002
{
1000
NOSEL
1070
     0
1002
}
1002
{
1000
BEHIND
1070
     0
1002
}
1002
{
1000
REACTOR
1002
}
1001
GENIUS_GENOBJ-N-FIL_13
1002
{
1000
OWNER
1000
GEN
1002
}
  0
HATCH
  5
1794
330
176D
100
AcDbEntity
  8
AM_8
100
AcDbHatch
 10
0.0
 20
0.0
 30
0.0
210
0.0
220
0.0
230
1.0
  2
SOLID
 70
     1
 71
     0
 91
        1
 92
        1
 93
        2
 72
     3
 10
-106.7638987916396
 20
4.957358478318376
 11
0.0000000000000547
 21
2.56276973145977
 40
0.8333333333333941
 50
-77.14069946214277
 51
264.4007371808275
 73
     1
 72
     3
 10
-106.7638987916396
 20
4.957358478318376
 11
-0.0000000000003928
 21
2.562769731461267
 40
0.8333333333328997
 50
264.4007371808174
 51
282.8593005378472
 73
     1
 97
        0
 75
     0
 76
     1
 98
        1
 10
65.20293740923941
 20
-32.16820874956388
1001
GENIUS_GENODEF_13
1002
{
1000
HIER
1070
     0
1002
}
1002
{
1000
MANEDIT
1070
     0
1002
}
1002
{
1000
NOSEL
1070
     0
1002
}
1002
{
1000
BEHIND
1070
     0
1002
}
1002
{
1000
REACTOR
1002
}
1001
GENIUS_GENOBJ-N-HTC_13
1002
{
1000
OWNER
1000
GEN
1002
}
1001
GENIUS_GENHATCH_13
1002
{
1000
DATA
1040
0.0
1042
0.0015799698758396
1000
SOLID
1070
     0
1011
70.0136537122014
1021
-14.7540192633455
1031
0.0
1002
}
1002
{
1000
UCS
1010
0.0
1020
0.0
1030
0.0
1010
1.0
1020
0.0
1030
0.0
1010
0.0
1020
1.0
1030
0.0
1002
}
  0
ELLIPSE
  5
1795
330
176D
100
AcDbEntity
  8
0
100
AcDbEllipse
 10
-106.7638987916396
 20
4.957358478318417
 30
0.0
 11
0.0000000000000006
 21
2.562769731459943
 31
0.0
210
0.0
220
0.0
230
1.0
 40
0.8333333333333353
 41
-1.570796326794896
 42
4.712388980384689
  0
HATCH
  5
1796
330
176D
100
AcDbEntity
  8
AM_8
100
AcDbHatch
 10
0.0
 20
0.0
 30
0.0
210
0.0
220
0.0
230
1.0
  2
SOLID
 70
     1
 71
     0
 91
        1
 92
        1
 93
       10
 72
     1
 10
-106.9502221859465
 20
14.71456568209311
 11
-107.7139711131768
 21
11.16237652835879
 72
     1
 10
-107.7139711131768
 20
11.16237652835879
 11
-107.6697551010108
 21
11.22470827233809
 72
     3
 10
-106.5198686826232
 20
9.133166589319488
 11
0.0200858413762859
 21
2.795177724472421
 40
0.6250197778053525
 50
-29.21280058452436
 51
47.56891328106517
 73
     0
 72
     1
 10
-104.9929922696577
 20
10.5089073790986
 11
-102.6087573837903
 21
3.677672077597827
 72
     3
 10
-101.0818809708247
 20
5.053412867376919
 11
0.0200858413762844
 21
2.79517772447242
 40
0.625019777805353
 50
132.4310867189347
 51
239.202331800838
 73
     1
 72
     1
 10
-99.45177360188809
 20
4.065819878065248
 11
-98.48721298302093
 21
8.077457208786761
 72
     1
 10
-98.48721298302095
 20
8.077457208786752
 11
-98.66382720839393
 21
7.801834007856288
 72
     3
 10
-99.87931293102301
 20
9.796066964505511
 11
0.0200858413762811
 21
2.795177724472416
 40
0.6250197778053536
 50
148.2259629226598
 51
227.5689132810653
 73
     0
 72
     1
 10
-101.4061893439886
 20
8.420326174726406
 11
-103.771619425634
 21
15.19768253871121
 72
     3
 10
-105.2984958385996
 20
13.8219417489321
 11
0.02008584137625
 21
2.795177724472417
 40
0.6250197778053583
 50
-47.56891328106589
 51
62.02409398278944
 73
     1
 97
        0
 75
     0
 76
     1
 98
        1
 10
65.20293740923941
 20
-32.16820874956388
1001
GENIUS_GENODEF_13
1002
{
1000
HIER
1070
     0
1002
}
1002
{
1000
MANEDIT
1070
     0
1002
}
1002
{
1000
NOSEL
1070
     0
1002
}
1002
{
1000
BEHIND
1070
     0
1002
}
1002
{
1000
REACTOR
1002
}
1001
GENIUS_GENOBJ-N-HTC_13
1002
{
1000
OWNER
1000
GEN
1002
}
1001
GENIUS_GENHATCH_13
1002
{
1000
DATA
1040
0.0
1042
0.0015799698758396
1000
SOLID
1070
     0
1011
74.07735655451816
1021
-11.90112763631223
1031
0.0
1002
}
1002
{
1000
UCS
1010
0.0
1020
0.0
1030
0.0
1010
1.0
1020
0.0
1030
0.0
1010
0.0
1020
1.0
1030
0.0
1002
}
  0
LINE
  5
1797
330
176D
100
AcDbEntity
  8
0
100
AcDbLine
 10
-104.9929922696577
 20
10.5089073790986
 30
0.0
 11
-102.6087573837903
 21
3.677672077597847
 31
0.0
  0
LINE
  5
1798
330
176D
100
AcDbEntity
  8
0
100
AcDbLine
 10
-101.4061893439886
 20
8.420326174726406
 30
0.0
 11
-103.771619425634
 21
15.1976825387112
 31
0.0
  0
TEXT
  5
1799
330
176D
100
AcDbEntity
  8
0
100
AcDbText
 10
-92.04358977334541
 20
2.736280326823534
 30
0.0
 40
1.397647058823528
  1
ASOH   CO.LTD
 41
2.222222222222219
  7
ｽﾀｲﾙ1
100
AcDbText
  0
TEXT
  5
179A
330
176D
100
AcDbEntity
  8
0
100
AcDbText
 10
-96.37601713265375
 20
7.065690057310197
 30
0.0
 40
9.355420606948992
  1
アソー株式会社
 41
0.4444444444444381
  7
ｽﾀｲﾙ1
100
AcDbText
  0
ENDBLK
  5
179D
330
176D
100
AcDbEntity
  8
0
100
AcDbBlockEnd
  0
BLOCK
  5
17A9
330
17A8
100
AcDbEntity
  8
0
100
AcDbBlockBegin
  2
A$C2D292097
 70
     0
 10
0.0
 20
0.0
 30
0.0
  3
A$C2D292097
  1

  0
TEXT
  5
17AA
330
17A8
100
AcDbEntity
  8
0
100
AcDbText
 10
197.1044423511698
 20
31.0035981017752
 30
0.0
 40
10.0
  1
ASOH   CO.LTD
 41
5.0
  7
ｽﾀｲﾙ1
100
AcDbText
  0
TEXT
  5
17AB
330
17A8
100
AcDbEntity
  8
0
100
AcDbText
 10
127.3589261501835
 20
61.98001452360745
 30
0.0
 40
66.93693195207612
  1
アソー株式会社
  7
ｽﾀｲﾙ1
100
AcDbText
  0
HATCH
  5
17AC
330
17A8
100
AcDbEntity
  8
AM_8
100
AcDbHatch
 10
0.0
 20
0.0
 30
0.0
210
0.0
220
0.0
230
1.0
  2
SOLID
 70
     1
 71
     0
 91
        1
 92
        1
 93
       10
 72
     1
 10
26.27998696211468
 20
119.622038302041
 11
19.72254667781421
 21
94.20654351522143
 72
     1
 10
19.72254667781422
 20
94.20654351522143
 11
20.10217910550261
 21
94.65251979790156
 72
     3
 10
29.97494128357687
 20
79.68778553387966
 11
0.2402016329913233
 21
19.99855752736976
 40
0.7499999999999996
 50
-34.10238568201522
 51
52.41091053102508
 73
     0
 72
     1
 10
43.0844862433824
 20
89.53104876041368
 11
63.55518980891033
 21
40.6543652059048
 72
     3
 10
76.66473476871587
 20
50.49762843243886
 11
0.2402016329913161
 21
19.99855752736976
 40
0.7499999999999999
 50
127.589089468975
 51
243.9002512902304
 73
     1
 72
     1
 10
90.66060611817196
 20
43.43151697692579
 11
98.94218718925374
 21
72.13430932636422
 72
     1
 10
98.94218718925376
 20
72.13430932636422
 11
97.4258024259505
 21
70.16225780455534
 72
     3
 10
86.98981389832653
 20
84.43075959876276
 11
-0.2402016329912594
 21
-19.99855752736953
 40
0.7499999999999996
 50
-36.86989764584386
 51
52.41091053102518
 73
     0
 72
     1
 10
73.88026893852099
 20
74.58749637222874
 11
53.57102076277776
 21
123.0786824781806
 72
     3
 10
40.46147580297221
 20
113.2354192516466
 11
-0.2402016329912827
 21
-19.99855752736975
 40
0.7500000000000002
 50
127.5890894689749
 51
246.4437724078177
 73
     1
 97
        0
 75
     0
 76
     1
 98
        1
 10
-11.02788873631791
 20
-99.90118815091953
1001
GENIUS_GENODEF_13
1002
{
1000
HIER
1070
     0
1002
}
1002
{
1000
MANEDIT
1070
     0
1002
}
1002
{
1000
NOSEL
1070
     0
1002
}
1002
{
1000
BEHIND
1070
     0
1002
}
1002
{
1000
REACTOR
1002
}
1001
GENIUS_GENOBJ-N-HTC_13
1002
{
1000
OWNER
1000
GEN
1002
}
1001
GENIUS_GENHATCH_13
1002
{
1000
DATA
1040
0.0
1042
0.9999999999999998
1000
SOLID
1070
     0
1011
65.16661907668134
1021
74.10910423558471
1031
0.0
1002
}
1002
{
1000
UCS
1010
0.0
1020
0.0
1030
0.0
1010
1.0
1020
0.0
1030
0.0
1010
0.0
1020
1.0
1030
0.0
1002
}
  0
HATCH
  5
17AD
330
17A8
100
AcDbEntity
  8
AM_8
100
AcDbHatch
 10
0.0
 20
0.0
 30
0.0
210
0.0
220
0.0
230
1.0
  2
SOLID
 70
     1
 71
     0
 91
        1
 92
        1
 93
        2
 72
     2
 10
27.87973327687144
 20
49.81037059826576
 40
18.33631541869489
 50
10.7710123686058
 51
355.3294096482469
 73
     1
 72
     2
 10
27.87973327687144
 20
49.81037059826576
 40
18.33631541869488
 50
355.3294096482469
 51
370.7710123686058
 73
     1
 97
        0
 75
     0
 76
     1
 98
        1
 10
-11.02788873631791
 20
-99.90118815091953
1001
GENIUS_GENODEF_13
1002
{
1000
HIER
1070
     0
1002
}
1002
{
1000
MANEDIT
1070
     0
1002
}
1002
{
1000
NOSEL
1070
     0
1002
}
1002
{
1000
BEHIND
1070
     0
1002
}
1002
{
1000
REACTOR
1002
}
1001
GENIUS_GENOBJ-N-HTC_13
1002
{
1000
OWNER
1000
GEN
1002
}
1001
GENIUS_GENHATCH_13
1002
{
1000
DATA
1040
0.0
1042
0.9999999999999998
1000
SOLID
1070
     0
1011
30.27624113759819
1021
49.61458016509695
1031
0.0
1002
}
1002
{
1000
UCS
1010
0.0
1020
0.0
1030
0.0
1010
1.0
1020
0.0
1030
0.0
1010
0.0
1020
1.0
1030
0.0
1002
}
  0
CIRCLE
  5
17AE
330
17A8
100
AcDbEntity
  8
0
100
AcDbCircle
 10
27.87973327687145
 20
49.81037059826573
 30
0.0
 40
18.33631541869488
  0
LINE
  5
17AF
330
17A8
100
AcDbEntity
  8
0
100
AcDbLine
 10
98.94218718925376
 20
72.13430932636422
 30
0.0
 11
90.66060611817196
 21
43.43151697692576
 31
0.0
  0
LINE
  5
17B0
330
17A8
100
AcDbEntity
  8
0
100
AcDbLine
 10
43.0844862433824
 20
89.5310487604137
 30
0.0
 11
63.55518980891034
 21
40.6543652059048
 31
0.0
  0
ELLIPSE
  5
17B1
330
17A8
100
AcDbEntity
  8
0
100
AcDbEllipse
 10
76.66473476871587
 20
50.49762843243886
 30
0.0
 11
0.2402016329913116
 21
19.99855752736953
 31
0.0
210
0.0
220
0.0
230
0.9999999999999998
 40
0.7499999999999999
 41
2.094395102393195
 42
4.360282821964076
1001
GENIUS_GENODEF_13
1002
{
1000
HIER
1070
     0
1002
}
1002
{
1000
MANEDIT
1070
     0
1002
}
1002
{
1000
NOSEL
1070
     0
1002
}
1002
{
1000
BEHIND
1070
     0
1002
}
1002
{
1000
REACTOR
1002
}
1001
GENIUS_GENOBJ-N-FIL_13
1002
{
1000
OWNER
1000
GEN
1002
}
  0
ELLIPSE
  5
17B2
330
17A8
100
AcDbEntity
  8
0
100
AcDbEllipse
 10
86.98981389832653
 20
84.43075959876276
 30
0.0
 11
0.2402016329912594
 21
19.99855752736953
 31
0.0
210
0.0
220
0.0
230
1.0
 40
0.7499999999999996
 41
2.094395102393192
 42
3.926990816987234
1001
GENIUS_GENODEF_13
1002
{
1000
HIER
1070
     0
1002
}
1002
{
1000
MANEDIT
1070
     0
1002
}
1002
{
1000
NOSEL
1070
     0
1002
}
1002
{
1000
BEHIND
1070
     0
1002
}
1002
{
1000
REACTOR
1002
}
1001
GENIUS_GENOBJ-N-FIL_13
1002
{
1000
OWNER
1000
GEN
1002
}
  0
ELLIPSE
  5
17B3
330
17A8
100
AcDbEntity
  8
0
100
AcDbEllipse
 10
29.97494128357687
 20
79.68778553387966
 30
0.0
 11
0.2402016329913188
 21
19.99855752736953
 31
0.0
210
0.0
220
0.0
230
0.9999999999999998
 40
0.7499999999999996
 41
-1.047197551196598
 42
0.7343684516294112
1001
GENIUS_GENODEF_13
1002
{
1000
HIER
1070
     0
1002
}
1002
{
1000
MANEDIT
1070
     0
1002
}
1002
{
1000
NOSEL
1070
     0
1002
}
1002
{
1000
BEHIND
1070
     0
1002
}
1002
{
1000
REACTOR
1002
}
1001
GENIUS_GENOBJ-N-FIL_13
1002
{
1000
OWNER
1000
GEN
1002
}
  0
ELLIPSE
  5
17B4
330
17A8
100
AcDbEntity
  8
0
100
AcDbEllipse
 10
40.46147580297221
 20
113.2354192516466
 30
0.0
 11
0.2402016329912781
 21
19.99855752736952
 31
0.0
210
0.0
220
0.0
230
0.9999999999999996
 40
0.75
 41
-1.047197551196599
 42
1.254770269777095
1001
GENIUS_GENODEF_13
1002
{
1000
HIER
1070
     0
1002
}
1002
{
1000
MANEDIT
1070
     0
1002
}
1002
{
1000
NOSEL
1070
     0
1002
}
1002
{
1000
BEHIND
1070
     0
1002
}
1002
{
1000
REACTOR
1002
}
1001
GENIUS_GENOBJ-N-FIL_13
1002
{
1000
OWNER
1000
GEN
1002
}
  0
LINE
  5
17B5
330
17A8
100
AcDbEntity
  8
0
100
AcDbLine
 10
73.88026893852099
 20
74.58749637222874
 30
0.0
 11
53.57102076277774
 21
123.0786824781806
 31
0.0
  0
LINE
  5
17B6
330
17A8
100
AcDbEntity
  8
0
100
AcDbLine
 10
26.27998696211472
 20
119.6220383020412
 30
0.0
 11
19.72254667781422
 21
94.20654351522143
 31
0.0
  0
LINE
  5
17B7
330
17A8
100
AcDbEntity
  8
0
100
AcDbLine
 10
19.72254667781422
 20
94.20654351522143
 30
0.0
 11
20.1021791055026
 21
94.65251979790158
 31
0.0
  0
LINE
  5
17B8
330
17A8
100
AcDbEntity
  8
0
100
AcDbLine
 10
98.94218718925372
 20
72.13430932636422
 30
0.0
 11
97.42580242595048
 21
70.16225780455531
 31
0.0
  0
ENDBLK
  5
17B9
330
17A8
100
AcDbEntity
  8
0
100
AcDbBlockEnd
  0
BLOCK
  5
17BF
330
17BD
100
AcDbEntity
  8
0
100
AcDbBlockBegin
  2
A$C676C2959
 70
     2
 10
0.0
 20
0.0
 30
0.0
  3
A$C676C2959
  1

  0
ATTDEF
  5
17C0
330
17BD
100
AcDbEntity
  8
AM_BOR
 62
     2
100
AcDbText
 10
12.15813029624129
 20
1.055831712516678
 30
0.0
 40
3.0
  1
水 田
 72
     4
 11
16.15813029624129
 21
2.555831712516678
 31
0.0
100
AcDbAttributeDefinition
  3
検図
  2
KENZU
 70
     0
  0
ENDBLK
  5
17C1
330
17BD
100
AcDbEntity
  8
0
100
AcDbBlockEnd
  0
BLOCK
  5
17C4
330
17C2
100
AcDbEntity
  8
0
100
AcDbBlockBegin
  2
A$C1FED437B
 70
     2
 10
0.0
 20
0.0
 30
0.0
  3
A$C1FED437B
  1

  0
ATTDEF
  5
17C5
330
17C2
100
AcDbEntity
  8
AM_BOR
 62
     2
100
AcDbText
 10
18.03041271546894
 20
2.555831712516678
 30
0.0
 40
3.0
  1

 72
     4
 11
18.03041271546894
 21
2.555831712516678
 31
0.0
100
AcDbAttributeDefinition
  3
材質
  2
ZAISITU
 70
     0
  0
ENDBLK
  5
17C6
330
17C2
100
AcDbEntity
  8
0
100
AcDbBlockEnd
  0
BLOCK
  5
17FF
330
17CB
100
AcDbEntity
  8
0
100
AcDbBlockBegin
  2
ASO-A
 70
     2
 10
0.0
 20
0.0
 30
0.0
  3
ASO-A
  1

  0
LINE
  5
522C
330
17CB
100
AcDbEntity
  8
AM_BOR
 62
   211
100
AcDbLine
 10
-110.0
 20
0.0
 30
0.0
 11
0.0
 21
0.0
 31
0.0
1001
GENIUS_GENREC_14
1002
{
1000
PYDIR
1011
-110.0
1021
40.0
1031
0.0
1002
}
1002
{
1000
PXDIR
1011
0.0
1021
0.0
1031
0.0
1002
}
1002
{
1000
PORI
1011
-110.0
1021
0.0
1031
0.0
1002
}
1002
{
1000
PINS
1011
-110.0
1021
0.0
1031
0.0
1002
}
1002
{
1000
HVAL
1000
40
1002
}
1002
{
1000
H
1070
     2
1002
}
1002
{
1000
WVAL
1000
110
1002
}
1002
{
1000
W
1070
     2
1002
}
1002
{
1000
C
1070
     1
1002
}
1001
GENIUS_GENODEF_13
1002
{
1000
HIER
1070
     0
1002
}
1002
{
1000
MANEDIT
1070
     0
1002
}
1002
{
1000
NOSEL
1070
     0
1002
}
1002
{
1000
BEHIND
1070
     0
1002
}
1002
{
1000
REACTOR
1002
}
1001
GENIUS_GENOBJ-N-REC_13
1002
{
1000
OWNER
1000
GEN
1002
}
  0
LINE
  5
522D
330
17CB
100
AcDbEntity
  8
AM_BOR
 62
   211
100
AcDbLine
 10
0.0
 20
0.0
 30
0.0
 11
0.0
 21
40.0
 31
0.0
1001
GENIUS_GENREC_14
1002
{
1000
PYDIR
1011
-110.0
1021
40.0
1031
0.0
1002
}
1002
{
1000
PXDIR
1011
0.0
1021
0.0
1031
0.0
1002
}
1002
{
1000
PORI
1011
-110.0
1021
0.0
1031
0.0
1002
}
1002
{
1000
PINS
1011
-110.0
1021
0.0
1031
0.0
1002
}
1002
{
1000
HVAL
1000
40
1002
}
1002
{
1000
H
1070
     2
1002
}
1002
{
1000
WVAL
1000
110
1002
}
1002
{
1000
W
1070
     2
1002
}
1002
{
1000
C
1070
     1
1002
}
1001
GENIUS_GENODEF_13
1002
{
1000
HIER
1070
     0
1002
}
1002
{
1000
MANEDIT
1070
     0
1002
}
1002
{
1000
NOSEL
1070
     0
1002
}
1002
{
1000
BEHIND
1070
     0
1002
}
1002
{
1000
REACTOR
1002
}
1001
GENIUS_GENOBJ-N-REC_13
1002
{
1000
OWNER
1000
GEN
1002
}
  0
LINE
  5
522E
330
17CB
100
AcDbEntity
  8
AM_BOR
 62
   211
100
AcDbLine
 10
0.0
 20
40.0
 30
0.0
 11
-110.0
 21
40.00000000000001
 31
0.0
1001
GENIUS_GENREC_14
1002
{
1000
PYDIR
1011
-110.0
1021
40.0
1031
0.0
1002
}
1002
{
1000
PXDIR
1011
0.0
1021
0.0
1031
0.0
1002
}
1002
{
1000
PORI
1011
-110.0
1021
0.0
1031
0.0
1002
}
1002
{
1000
PINS
1011
-110.0
1021
0.0
1031
0.0
1002
}
1002
{
1000
HVAL
1000
40
1002
}
1002
{
1000
H
1070
     2
1002
}
1002
{
1000
WVAL
1000
110
1002
}
1002
{
1000
W
1070
     2
1002
}
1002
{
1000
C
1070
     1
1002
}
1001
GENIUS_GENODEF_13
1002
{
1000
HIER
1070
     0
1002
}
1002
{
1000
MANEDIT
1070
     0
1002
}
1002
{
1000
NOSEL
1070
     0
1002
}
1002
{
1000
BEHIND
1070
     0
1002
}
1002
{
1000
REACTOR
1002
}
1001
GENIUS_GENOBJ-N-REC_13
1002
{
1000
OWNER
1000
GEN
1002
}
  0
LINE
  5
522F
330
17CB
100
AcDbEntity
  8
AM_BOR
 62
   211
100
AcDbLine
 10
-110.0
 20
40.00000000000001
 30
0.0
 11
-110.0
 21
0.0
 31
0.0
1001
GENIUS_GENREC_14
1002
{
1000
PYDIR
1011
-110.0
1021
40.0
1031
0.0
1002
}
1002
{
1000
PXDIR
1011
0.0
1021
0.0
1031
0.0
1002
}
1002
{
1000
PORI
1011
-110.0
1021
0.0
1031
0.0
1002
}
1002
{
1000
PINS
1011
-110.0
1021
0.0
1031
0.0
1002
}
1002
{
1000
HVAL
1000
40
1002
}
1002
{
1000
H
1070
     2
1002
}
1002
{
1000
WVAL
1000
110
1002
}
1002
{
1000
W
1070
     2
1002
}
1002
{
1000
C
1070
     1
1002
}
1001
GENIUS_GENODEF_13
1002
{
1000
HIER
1070
     0
1002
}
1002
{
1000
MANEDIT
1070
     0
1002
}
1002
{
1000
NOSEL
1070
     0
1002
}
1002
{
1000
BEHIND
1070
     0
1002
}
1002
{
1000
REACTOR
1002
}
1001
GENIUS_GENOBJ-N-REC_13
1002
{
1000
OWNER
1000
GEN
1002
}
  0
LINE
  5
5230
330
17CB
100
AcDbEntity
  8
AM_BOR
 62
     5
100
AcDbLine
 10
-60.0
 20
9.999999999999992
 30
0.0
 11
0.0
 21
10.0
 31
0.0
1001
GENIUS_GENREC_14
1002
{
1000
PYDIR
1011
-110.0
1021
40.0
1031
0.0
1002
}
1002
{
1000
PXDIR
1011
0.0
1021
0.0
1031
0.0
1002
}
1002
{
1000
PORI
1011
-110.0
1021
0.0
1031
0.0
1002
}
1002
{
1000
PINS
1011
-110.0
1021
0.0
1031
0.0
1002
}
1002
{
1000
HVAL
1000
40
1002
}
1002
{
1000
H
1070
     2
1002
}
1002
{
1000
WVAL
1000
110
1002
}
1002
{
1000
W
1070
     2
1002
}
1002
{
1000
C
1070
     1
1002
}
  0
LINE
  5
5231
330
17CB
100
AcDbEntity
  8
AM_BOR
 62
     5
100
AcDbLine
 10
-110.0
 20
19.0
 30
0.0
 11
0.0
 21
19.0
 31
0.0
1001
GENIUS_GENREC_14
1002
{
1000
PYDIR
1011
-110.0
1021
40.0
1031
0.0
1002
}
1002
{
1000
PXDIR
1011
0.0
1021
0.0
1031
0.0
1002
}
1002
{
1000
PORI
1011
-110.0
1021
0.0
1031
0.0
1002
}
1002
{
1000
PINS
1011
-110.0
1021
0.0
1031
0.0
1002
}
1002
{
1000
HVAL
1000
40
1002
}
1002
{
1000
H
1070
     2
1002
}
1002
{
1000
WVAL
1000
110
1002
}
1002
{
1000
W
1070
     2
1002
}
1002
{
1000
C
1070
     1
1002
}
1001
GENIUS_GENODEF_13
1002
{
1000
HIER
1070
     0
1002
}
1002
{
1000
MANEDIT
1070
     0
1002
}
1002
{
1000
NOSEL
1070
     0
1002
}
1002
{
1000
BEHIND
1070
     0
1002
}
1002
{
1000
REACTOR
1002
}
1001
GENIUS_GENOBJ-N-REC_13
1002
{
1000
OWNER
1000
GEN
1002
}
  0
LINE
  5
5232
330
17CB
100
AcDbEntity
  8
AM_BOR
 62
     5
100
AcDbLine
 10
-110.0
 20
26.0
 30
0.0
 11
0.0
 21
26.0
 31
0.0
1001
GENIUS_GENREC_14
1002
{
1000
PYDIR
1011
-110.0
1021
40.0
1031
0.0
1002
}
1002
{
1000
PXDIR
1011
0.0
1021
0.0
1031
0.0
1002
}
1002
{
1000
PORI
1011
-110.0
1021
0.0
1031
0.0
1002
}
1002
{
1000
PINS
1011
-110.0
1021
0.0
1031
0.0
1002
}
1002
{
1000
HVAL
1000
40
1002
}
1002
{
1000
H
1070
     2
1002
}
1002
{
1000
WVAL
1000
110
1002
}
1002
{
1000
W
1070
     2
1002
}
1002
{
1000
C
1070
     1
1002
}
1001
GENIUS_GENODEF_13
1002
{
1000
HIER
1070
     0
1002
}
1002
{
1000
MANEDIT
1070
     0
1002
}
1002
{
1000
NOSEL
1070
     0
1002
}
1002
{
1000
BEHIND
1070
     0
1002
}
1002
{
1000
REACTOR
1002
}
1001
GENIUS_GENOBJ-N-REC_13
1002
{
1000
OWNER
1000
GEN
1002
}
  0
LINE
  5
5233
330
17CB
100
AcDbEntity
  8
AM_BOR
 62
     5
100
AcDbLine
 10
-110.0
 20
33.0
 30
0.0
 11
0.0
 21
33.0
 31
0.0
1001
GENIUS_GENREC_14
1002
{
1000
PYDIR
1011
-110.0
1021
40.0
1031
0.0
1002
}
1002
{
1000
PXDIR
1011
0.0
1021
0.0
1031
0.0
1002
}
1002
{
1000
PORI
1011
-110.0
1021
0.0
1031
0.0
1002
}
1002
{
1000
PINS
1011
-110.0
1021
0.0
1031
0.0
1002
}
1002
{
1000
HVAL
1000
40
1002
}
1002
{
1000
H
1070
     2
1002
}
1002
{
1000
WVAL
1000
110
1002
}
1002
{
1000
W
1070
     2
1002
}
1002
{
1000
C
1070
     1
1002
}
1001
GENIUS_GENODEF_13
1002
{
1000
HIER
1070
     0
1002
}
1002
{
1000
MANEDIT
1070
     0
1002
}
1002
{
1000
NOSEL
1070
     0
1002
}
1002
{
1000
BEHIND
1070
     0
1002
}
1002
{
1000
REACTOR
1002
}
1001
GENIUS_GENOBJ-N-REC_13
1002
{
1000
OWNER
1000
GEN
1002
}
  0
LINE
  5
5234
330
17CB
100
AcDbEntity
  8
AM_BOR
 62
     5
100
AcDbLine
 10
-85.0
 20
33.0
 30
0.0
 11
-85.0
 21
18.99999999999998
 31
0.0
1001
GENIUS_GENREC_14
1002
{
1000
PYDIR
1011
-110.0
1021
40.0
1031
0.0
1002
}
1002
{
1000
PXDIR
1011
0.0
1021
0.0
1031
0.0
1002
}
1002
{
1000
PORI
1011
-110.0
1021
0.0
1031
0.0
1002
}
1002
{
1000
PINS
1011
-110.0
1021
0.0
1031
0.0
1002
}
1002
{
1000
HVAL
1000
40
1002
}
1002
{
1000
H
1070
     2
1002
}
1002
{
1000
WVAL
1000
110
1002
}
1002
{
1000
W
1070
     2
1002
}
1002
{
1000
C
1070
     1
1002
}
1001
GENIUS_GENODEF_13
1002
{
1000
HIER
1070
     0
1002
}
1002
{
1000
MANEDIT
1070
     0
1002
}
1002
{
1000
NOSEL
1070
     0
1002
}
1002
{
1000
BEHIND
1070
     0
1002
}
1002
{
1000
REACTOR
1002
}
1001
GENIUS_GENOBJ-N-REC_13
1002
{
1000
OWNER
1000
GEN
1002
}
  0
LINE
  5
5235
330
17CB
100
AcDbEntity
  8
AM_BOR
 62
     5
100
AcDbLine
 10
-60.0
 20
40.00000000000001
 30
0.0
 11
-60.0
 21
0.0
 31
0.0
1001
GENIUS_GENREC_14
1002
{
1000
PYDIR
1011
-110.0
1021
40.0
1031
0.0
1002
}
1002
{
1000
PXDIR
1011
0.0
1021
0.0
1031
0.0
1002
}
1002
{
1000
PORI
1011
-110.0
1021
0.0
1031
0.0
1002
}
1002
{
1000
PINS
1011
-110.0
1021
0.0
1031
0.0
1002
}
1002
{
1000
HVAL
1000
40
1002
}
1002
{
1000
H
1070
     2
1002
}
1002
{
1000
WVAL
1000
110
1002
}
1002
{
1000
W
1070
     2
1002
}
1002
{
1000
C
1070
     1
1002
}
1001
GENIUS_GENODEF_13
1002
{
1000
HIER
1070
     0
1002
}
1002
{
1000
MANEDIT
1070
     0
1002
}
1002
{
1000
NOSEL
1070
     0
1002
}
1002
{
1000
BEHIND
1070
     0
1002
}
1002
{
1000
REACTOR
1002
}
1001
GENIUS_GENOBJ-N-REC_13
1002
{
1000
OWNER
1000
GEN
1002
}
  0
LINE
  5
5236
330
17CB
100
AcDbEntity
  8
AM_BOR
 62
     5
100
AcDbLine
 10
-20.0
 20
33.0
 30
0.0
 11
-20.0
 21
40.0
 31
0.0
1001
GENIUS_GENREC_14
1002
{
1000
PYDIR
1011
-110.0
1021
40.0
1031
0.0
1002
}
1002
{
1000
PXDIR
1011
0.0
1021
0.0
1031
0.0
1002
}
1002
{
1000
PORI
1011
-110.0
1021
0.0
1031
0.0
1002
}
1002
{
1000
PINS
1011
-110.0
1021
0.0
1031
0.0
1002
}
1002
{
1000
HVAL
1000
40
1002
}
1002
{
1000
H
1070
     2
1002
}
1002
{
1000
WVAL
1000
110
1002
}
1002
{
1000
W
1070
     2
1002
}
1002
{
1000
C
1070
     1
1002
}
1001
GENIUS_GENODEF_13
1002
{
1000
HIER
1070
     0
1002
}
1002
{
1000
MANEDIT
1070
     0
1002
}
1002
{
1000
NOSEL
1070
     0
1002
}
1002
{
1000
BEHIND
1070
     0
1002
}
1002
{
1000
REACTOR
1002
}
1001
GENIUS_GENOBJ-N-REC_13
1002
{
1000
OWNER
1000
GEN
1002
}
  0
LINE
  5
5237
330
17CB
100
AcDbEntity
  8
AM_BOR
 62
     5
100
AcDbLine
 10
-40.0
 20
33.0
 30
0.0
 11
-40.0
 21
40.0
 31
0.0
1001
GENIUS_GENREC_14
1002
{
1000
PYDIR
1011
-110.0
1021
40.0
1031
0.0
1002
}
1002
{
1000
PXDIR
1011
0.0
1021
0.0
1031
0.0
1002
}
1002
{
1000
PORI
1011
-110.0
1021
0.0
1031
0.0
1002
}
1002
{
1000
PINS
1011
-110.0
1021
0.0
1031
0.0
1002
}
1002
{
1000
HVAL
1000
40
1002
}
1002
{
1000
H
1070
     2
1002
}
1002
{
1000
WVAL
1000
110
1002
}
1002
{
1000
W
1070
     2
1002
}
1002
{
1000
C
1070
     1
1002
}
1001
GENIUS_GENODEF_13
1002
{
1000
HIER
1070
     0
1002
}
1002
{
1000
MANEDIT
1070
     0
1002
}
1002
{
1000
NOSEL
1070
     0
1002
}
1002
{
1000
BEHIND
1070
     0
1002
}
1002
{
1000
REACTOR
1002
}
1001
GENIUS_GENOBJ-N-REC_13
1002
{
1000
OWNER
1000
GEN
1002
}
  0
LINE
  5
5238
330
17CB
100
AcDbEntity
  8
AM_BOR
 62
     5
100
AcDbLine
 10
-80.0
 20
33.0
 30
0.0
 11
-80.0
 21
40.0
 31
0.0
1001
GENIUS_GENREC_14
1002
{
1000
PYDIR
1011
-110.0
1021
40.0
1031
0.0
1002
}
1002
{
1000
PXDIR
1011
0.0
1021
0.0
1031
0.0
1002
}
1002
{
1000
PORI
1011
-110.0
1021
0.0
1031
0.0
1002
}
1002
{
1000
PINS
1011
-110.0
1021
0.0
1031
0.0
1002
}
1002
{
1000
HVAL
1000
40
1002
}
1002
{
1000
H
1070
     2
1002
}
1002
{
1000
WVAL
1000
110
1002
}
1002
{
1000
W
1070
     2
1002
}
1002
{
1000
C
1070
     1
1002
}
1001
GENIUS_GENODEF_13
1002
{
1000
HIER
1070
     0
1002
}
1002
{
1000
MANEDIT
1070
     0
1002
}
1002
{
1000
NOSEL
1070
     0
1002
}
1002
{
1000
BEHIND
1070
     0
1002
}
1002
{
1000
REACTOR
1002
}
1001
GENIUS_GENOBJ-N-REC_13
1002
{
1000
OWNER
1000
GEN
1002
}
  0
TEXT
  5
5239
330
17CB
100
AcDbEntity
  8
AM_BOR
 62
     2
100
AcDbText
 10
-57.4
 20
35.0
 30
0.0
 40
3.0
  1
単位 ｍｍ
 72
     4
 11
-50.0
 21
36.5
 31
0.0
100
AcDbText
  0
TEXT
  5
523A
330
17CB
100
AcDbEntity
  8
AM_BOR
 62
     2
100
AcDbText
 10
-39.0
 20
35.0
 30
0.0
 40
3.0
  1
尺度
 41
0.9
 11
-39.0
 21
36.5
 31
0.0
100
AcDbText
 73
     2
  0
TEXT
  5
523B
330
17CB
100
AcDbEntity
  8
AM_BOR
 62
     2
100
AcDbText
 10
-19.0
 20
35.0
 30
0.0
 40
3.0
  1
日付
 41
0.9
 11
-19.0
 21
36.5
 31
0.0
100
AcDbText
 73
     2
  0
TEXT
  5
523C
330
17CB
100
AcDbEntity
  8
AM_BOR
 62
     2
100
AcDbText
 10
-76.79999999999999
 20
34.99999999999999
 30
0.0
 40
3.0
  1
第３角法
 72
     4
 11
-70.0
 21
36.49999999999999
 31
0.0
100
AcDbText
  0
TEXT
  5
523D
330
17CB
100
AcDbEntity
  8
AM_BOR
 62
     2
100
AcDbText
 10
-59.0
 20
29.5
 30
0.0
 40
3.0
  1
材 質
 11
-59.0
 21
31.0
 31
0.0
100
AcDbText
 73
     2
  0
TEXT
  5
523E
330
17CB
100
AcDbEntity
  8
AM_BOR
 62
     2
100
AcDbText
 10
-59.0
 20
22.5
 30
0.0
 40
3.0
  1
備 考
 11
-59.0
 21
24.0
 31
0.0
100
AcDbText
 73
     2
  0
TEXT
  5
523F
330
17CB
100
AcDbEntity
  8
AM_BOR
 62
     2
100
AcDbText
 10
-59.0
 20
15.5
 30
0.0
 40
3.0
  1
品 名
 11
-59.0
 21
17.0
 31
0.0
100
AcDbText
 73
     2
  0
TEXT
  5
5240
330
17CB
100
AcDbEntity
  8
AM_BOR
 62
     2
100
AcDbText
 10
-59.0
 20
6.499999999999992
 30
0.0
 40
3.0
  1
図 番
 11
-59.0
 21
7.999999999999992
 31
0.0
100
AcDbText
 73
     2
  0
TEXT
  5
5241
330
17CB
100
AcDbEntity
  8
AM_BOR
 62
     2
100
AcDbText
 10
-109.0
 20
29.5
 30
0.0
 40
3.0
  1
承認
 11
-109.0
 21
31.0
 31
0.0
100
AcDbText
 73
     2
  0
TEXT
  5
5242
330
17CB
100
AcDbEntity
  8
AM_BOR
 62
     2
100
AcDbText
 10
-109.0
 20
22.5
 30
0.0
 40
3.0
  1
設計
 11
-109.0
 21
24.0
 31
0.0
100
AcDbText
 73
     2
  0
TEXT
  5
5243
330
17CB
100
AcDbEntity
  8
AM_BOR
 62
     2
100
AcDbText
 10
-84.0
 20
22.5
 30
0.0
 40
3.0
  1
製図
 11
-84.0
 21
24.0
 31
0.0
100
AcDbText
 73
     2
  0
TEXT
  5
5244
330
17CB
100
AcDbEntity
  8
AM_BOR
 62
     2
100
AcDbText
 10
-84.0
 20
29.5
 30
0.0
 40
3.0
  1
検図
 11
-84.0
 21
31.0
 31
0.0
100
AcDbText
 73
     2
  0
ATTDEF
  5
5245
330
17CB
100
AcDbEntity
  8
AM_BOR
100
AcDbText
 10
-50.25926794017573
 20
12.75
 30
0.0
 40
3.5
  1

 11
-50.25926794017573
 21
14.5
 31
0.0
100
AcDbAttributeDefinition
  3
品名
  2
HINMEI{14}
 70
     0
 74
     2
  0
ATTDEF
  5
5246
330
17CB
100
AcDbEntity
  8
AM_BOR
100
AcDbText
 10
-50.10873010396898
 20
3.249999999999992
 30
0.0
 40
3.5
  1

 11
-50.10873010396898
 21
4.999999999999992
 31
0.0
100
AcDbAttributeDefinition
  3
図番
  2
ZUBAN{14}
 70
     0
 74
     2
  0
ATTDEF
  5
5247
330
17CB
100
AcDbEntity
  8
AM_BOR
 62
     2
100
AcDbText
 10
-11.91705654530994
 20
35.0
 30
0.0
 40
3.0
  1

 41
0.8
 11
-11.91705654530994
 21
36.5
 31
0.0
100
AcDbAttributeDefinition
  3
日付
  2
GEN-TITLE-DAT{3.5}
 70
     0
 74
     2
  0
ATTDEF
  5
5248
330
17CB
100
AcDbEntity
  8
AM_BOR
 62
     2
100
AcDbText
 10
-72.67071073591084
 20
20.00000000000001
 30
0.0
 40
3.0
  1
水 田
 72
     4
 11
-67.63012018472974
 21
21.50000000000002
 31
0.0
100
AcDbAttributeDefinition
  3
製図
  2
SEIZU
 70
     0
  0
ATTDEF
  5
5249
330
17CB
100
AcDbEntity
  8
AM_BOR
 62
     2
100
AcDbText
 10
-31.91705654530995
 20
35.0
 30
0.0
 40
3.0
  1

 11
-31.91705654530995
 21
36.5
 31
0.0
100
AcDbAttributeDefinition
  3
尺度
  2
GEN-TITLE-SCA
 70
     0
 74
     2
  0
LINE
  5
524A
330
17CB
100
AcDbEntity
  8
0
100
AcDbLine
 10
-106.9502221859465
 20
14.71456568209314
 30
0.0
 11
-107.7139711131768
 21
11.16237652835879
 31
0.0
  0
LINE
  5
524B
330
17CB
100
AcDbEntity
  8
0
100
AcDbLine
 10
-107.7139711131768
 20
11.16237652835879
 30
0.0
 11
-107.6697551010107
 21
11.22470827233807
 31
0.0
  0
ELLIPSE
  5
524C
330
17CB
100
AcDbEntity
  8
0
100
AcDbEllipse
 10
-106.5198686826232
 20
9.133166589319488
 30
0.0
 11
0.0200858413762701
 21
2.795177724472429
 31
0.0
210
0.0
220
0.0
230
1.0
 40
0.6250197778053533
 41
-1.051714224928873
 42
0.7298517778971401
1001
GENIUS_GENODEF_13
1002
{
1000
HIER
1070
     0
1002
}
1002
{
1000
MANEDIT
1070
     0
1002
}
1002
{
1000
NOSEL
1070
     0
1002
}
1002
{
1000
BEHIND
1070
     0
1002
}
1002
{
1000
REACTOR
1002
}
1001
GENIUS_GENOBJ-N-FIL_13
1002
{
1000
OWNER
1000
GEN
1002
}
  0
ELLIPSE
  5
524D
330
17CB
100
AcDbEntity
  8
0
100
AcDbEllipse
 10
-105.2984958385996
 20
13.8219417489321
 30
0.0
 11
0.0200858413762916
 21
2.795177724472415
 31
0.0
210
0.0
220
0.0
230
1.0
 40
0.6250197778053527
 41
-1.051714224928867
 42
1.250253596044828
1001
GENIUS_GENODEF_13
1002
{
1000
HIER
1070
     0
1002
}
1002
{
1000
MANEDIT
1070
     0
1002
}
1002
{
1000
NOSEL
1070
     0
1002
}
1002
{
1000
BEHIND
1070
     0
1002
}
1002
{
1000
REACTOR
1002
}
1001
GENIUS_GENOBJ-N-FIL_13
1002
{
1000
OWNER
1000
GEN
1002
}
  0
LINE
  5
524E
330
17CB
100
AcDbEntity
  8
0
100
AcDbLine
 10
-98.48721298302093
 20
8.077457208786752
 30
0.0
 11
-99.45177360188811
 21
4.065819878065248
 31
0.0
  0
ELLIPSE
  5
524F
330
17CB
100
AcDbEntity
  8
0
100
AcDbEllipse
 10
-101.0818809708247
 20
5.053412867376919
 30
0.0
 11
0.0200858413762853
 21
2.795177724472413
 31
0.0
210
0.0
220
0.0
230
1.0
 40
0.6250197778053547
 41
2.089878428660925
 42
4.355766148231805
1001
GENIUS_GENODEF_13
1002
{
1000
HIER
1070
     0
1002
}
1002
{
1000
MANEDIT
1070
     0
1002
}
1002
{
1000
NOSEL
1070
     0
1002
}
1002
{
1000
BEHIND
1070
     0
1002
}
1002
{
1000
REACTOR
1002
}
1001
GENIUS_GENOBJ-N-FIL_13
1002
{
1000
OWNER
1000
GEN
1002
}
  0
LINE
  5
5250
330
17CB
100
AcDbEntity
  8
0
100
AcDbLine
 10
-98.48721298302093
 20
8.077457208786752
 30
0.0
 11
-98.66382720839389
 21
7.801834007856294
 31
0.0
  0
ELLIPSE
  5
5251
330
17CB
100
AcDbEntity
  8
0
100
AcDbEllipse
 10
-99.87931293102301
 20
9.796066964505511
 30
0.0
 11
0.0200858413762724
 21
2.795177724472415
 31
0.0
210
0.0
220
0.0
230
0.9999999999999998
 40
0.6250197778053552
 41
2.08987842866092
 42
3.922474143254961
1001
GENIUS_GENODEF_13
1002
{
1000
HIER
1070
     0
1002
}
1002
{
1000
MANEDIT
1070
     0
1002
}
1002
{
1000
NOSEL
1070
     0
1002
}
1002
{
1000
BEHIND
1070
     0
1002
}
1002
{
1000
REACTOR
1002
}
1001
GENIUS_GENOBJ-N-FIL_13
1002
{
1000
OWNER
1000
GEN
1002
}
  0
HATCH
  5
5252
330
17CB
100
AcDbEntity
  8
AM_8
100
AcDbHatch
 10
0.0
 20
0.0
 30
0.0
210
0.0
220
0.0
230
1.0
  2
SOLID
 70
     1
 71
     0
 91
        1
 92
        1
 93
        2
 72
     3
 10
-106.7638987916396
 20
4.957358478318376
 11
0.0000000000000547
 21
2.56276973145977
 40
0.8333333333333941
 50
-77.14069946214277
 51
264.4007371808275
 73
     1
 72
     3
 10
-106.7638987916396
 20
4.957358478318376
 11
-0.0000000000003928
 21
2.562769731461267
 40
0.8333333333328997
 50
264.4007371808174
 51
282.8593005378472
 73
     1
 97
        0
 75
     0
 76
     1
 98
        1
 10
65.20293740923941
 20
-32.16820874956388
1001
GENIUS_GENODEF_13
1002
{
1000
HIER
1070
     0
1002
}
1002
{
1000
MANEDIT
1070
     0
1002
}
1002
{
1000
NOSEL
1070
     0
1002
}
1002
{
1000
BEHIND
1070
     0
1002
}
1002
{
1000
REACTOR
1002
}
1001
GENIUS_GENOBJ-N-HTC_13
1002
{
1000
OWNER
1000
GEN
1002
}
1001
GENIUS_GENHATCH_13
1002
{
1000
DATA
1040
0.0
1042
0.0015799698758396
1000
SOLID
1070
     0
1011
70.0136537122014
1021
-14.7540192633455
1031
0.0
1002
}
1002
{
1000
UCS
1010
0.0
1020
0.0
1030
0.0
1010
1.0
1020
0.0
1030
0.0
1010
0.0
1020
1.0
1030
0.0
1002
}
  0
ELLIPSE
  5
5253
330
17CB
100
AcDbEntity
  8
0
100
AcDbEllipse
 10
-106.7638987916396
 20
4.957358478318417
 30
0.0
 11
0.0000000000000006
 21
2.562769731459943
 31
0.0
210
0.0
220
0.0
230
1.0
 40
0.8333333333333353
 41
-1.570796326794896
 42
4.712388980384689
  0
HATCH
  5
5254
330
17CB
100
AcDbEntity
  8
AM_8
100
AcDbHatch
 10
0.0
 20
0.0
 30
0.0
210
0.0
220
0.0
230
1.0
  2
SOLID
 70
     1
 71
     0
 91
        1
 92
        1
 93
       10
 72
     1
 10
-106.9502221859465
 20
14.71456568209311
 11
-107.7139711131768
 21
11.16237652835879
 72
     1
 10
-107.7139711131768
 20
11.16237652835879
 11
-107.6697551010108
 21
11.22470827233809
 72
     3
 10
-106.5198686826232
 20
9.133166589319488
 11
0.0200858413762859
 21
2.795177724472421
 40
0.6250197778053525
 50
-29.21280058452436
 51
47.56891328106517
 73
     0
 72
     1
 10
-104.9929922696577
 20
10.5089073790986
 11
-102.6087573837903
 21
3.677672077597827
 72
     3
 10
-101.0818809708247
 20
5.053412867376919
 11
0.0200858413762844
 21
2.79517772447242
 40
0.625019777805353
 50
132.4310867189347
 51
239.202331800838
 73
     1
 72
     1
 10
-99.45177360188809
 20
4.065819878065248
 11
-98.48721298302093
 21
8.077457208786761
 72
     1
 10
-98.48721298302095
 20
8.077457208786752
 11
-98.66382720839393
 21
7.801834007856288
 72
     3
 10
-99.87931293102301
 20
9.796066964505511
 11
0.0200858413762811
 21
2.795177724472416
 40
0.6250197778053536
 50
148.2259629226598
 51
227.5689132810653
 73
     0
 72
     1
 10
-101.4061893439886
 20
8.420326174726406
 11
-103.771619425634
 21
15.19768253871121
 72
     3
 10
-105.2984958385996
 20
13.8219417489321
 11
0.02008584137625
 21
2.795177724472417
 40
0.6250197778053583
 50
-47.56891328106589
 51
62.02409398278944
 73
     1
 97
        0
 75
     0
 76
     1
 98
        1
 10
65.20293740923941
 20
-32.16820874956388
1001
GENIUS_GENODEF_13
1002
{
1000
HIER
1070
     0
1002
}
1002
{
1000
MANEDIT
1070
     0
1002
}
1002
{
1000
NOSEL
1070
     0
1002
}
1002
{
1000
BEHIND
1070
     0
1002
}
1002
{
1000
REACTOR
1002
}
1001
GENIUS_GENOBJ-N-HTC_13
1002
{
1000
OWNER
1000
GEN
1002
}
1001
GENIUS_GENHATCH_13
1002
{
1000
DATA
1040
0.0
1042
0.0015799698758396
1000
SOLID
1070
     0
1011
74.07735655451816
1021
-11.90112763631223
1031
0.0
1002
}
1002
{
1000
UCS
1010
0.0
1020
0.0
1030
0.0
1010
1.0
1020
0.0
1030
0.0
1010
0.0
1020
1.0
1030
0.0
1002
}
  0
LINE
  5
5255
330
17CB
100
AcDbEntity
  8
0
100
AcDbLine
 10
-104.9929922696577
 20
10.5089073790986
 30
0.0
 11
-102.6087573837903
 21
3.677672077597847
 31
0.0
  0
LINE
  5
5256
330
17CB
100
AcDbEntity
  8
0
100
AcDbLine
 10
-101.4061893439886
 20
8.420326174726406
 30
0.0
 11
-103.771619425634
 21
15.1976825387112
 31
0.0
  0
TEXT
  5
5257
330
17CB
100
AcDbEntity
  8
0
100
AcDbText
 10
-92.04358977334541
 20
2.736280326823534
 30
0.0
 40
1.397647058823528
  1
ASOH　CO.,LTD.
 41
2.222222222222219
  7
ｽﾀｲﾙ1
100
AcDbText
  0
TEXT
  5
5258
330
17CB
100
AcDbEntity
  8
0
100
AcDbText
 10
-96.37601713265375
 20
7.065690057310197
 30
0.0
 40
9.355420606948992
  1
アソー株式会社
 41
0.4444444444444381
  7
ｽﾀｲﾙ1
100
AcDbText
  0
ATTDEF
  5
5259
330
17CB
100
AcDbEntity
  8
AM_BOR
 62
     2
100
AcDbText
 10
-100.6087961583518
 20
20.29902073441097
 30
0.0
 40
3.0
  1
水 田
 72
     4
 11
-94.50320560717072
 21
21.79902073441097
 31
0.0
100
AcDbAttributeDefinition
  3
設計
  2
SEKKEI
 70
     0
  0
ATTDEF
  5
525A
330
17CB
100
AcDbEntity
  8
AM_BOR
 62
     2
100
AcDbText
 10
-101.5824602549398
 20
27.05583171251668
 30
0.0
 40
3.0
  1
水 田
 72
     4
 11
-93.8418697037587
 21
28.55583171251668
 31
0.0
100
AcDbAttributeDefinition
  3
承認
  2
SYOUNIN
 70
     0
  0
ATTDEF
  5
525B
330
17CB
100
AcDbEntity
  8
AM_BOR
 62
     2
100
AcDbText
 10
-74.6993697037587
 20
27.05583171251668
 30
0.0
 40
3.0
  1
水 田
 72
     4
 11
-68.8418697037587
 21
28.55583171251668
 31
0.0
100
AcDbAttributeDefinition
  3
検図
  2
KENZU
 70
     0
  0
ATTDEF
  5
525C
330
17CB
100
AcDbEntity
  8
AM_BOR
 62
     2
100
AcDbText
 10
-34.75927375716205
 20
26.23523221998006
 30
0.0
 40
2.5
  1

 72
     4
 11
-28.88427375716205
 21
27.48523221998006
 31
0.0
100
AcDbAttributeDefinition
  3
材質
  2
ZAISITU
 70
     0
  0
ATTDEF
  5
525D
330
17CB
100
AcDbEntity
  8
AM_BOR
 62
     2
100
AcDbText
 10
-33.26552375716205
 20
19.24352515660298
 30
0.0
 40
2.5
  1

 72
     4
 11
-28.88427375716205
 21
20.49352515660299
 31
0.0
100
AcDbAttributeDefinition
  3
備考
  2
BIKOU
 70
     0
  0
ENDBLK
  5
1800
330
17CB
100
AcDbEntity
  8
0
100
AcDbBlockEnd
  0
BLOCK
  5
40D0
330
40CF
100
AcDbEntity
  8
0
100
AcDbBlockBegin
  2
_None
 70
     0
 10
0.0
 20
0.0
 30
0.0
  3
_None
  1

  0
ENDBLK
  5
40D1
330
40CF
100
AcDbEntity
  8
0
100
AcDbBlockEnd
  0
BLOCK
  5
44B1
330
44AD
100
AcDbEntity
  8
0
100
AcDbBlockBegin
  2
A$C7E273EC7
 70
     0
 10
0.0
 20
0.0
 30
0.0
  3
A$C7E273EC7
  1

  0
LINE
  5
44AE
330
44AD
100
AcDbEntity
  8
0
100
AcDbLine
 10
10.24999999999997
 20
15.00000000000006
 30
0.0
 11
-10.25000000000003
 21
15.0
 31
0.0
  0
ENDBLK
  5
44B2
330
44AD
100
AcDbEntity
  8
0
100
AcDbBlockEnd
  0
BLOCK
  5
4EEA
330
4ED4
100
AcDbEntity
  8
0
100
AcDbBlockBegin
  2
A$C0FBD0FB6
 70
     0
 10
0.0
 20
0.0
 30
0.0
  3
A$C0FBD0FB6
  1

  0
LINE
  5
4ED5
330
4ED4
100
AcDbEntity
  8
0
100
AcDbLine
 10
-24.00000000000006
 20
12.00000000000011
 30
0.0
 11
-24.00000000000006
 21
0.0000000000001137
 31
0.0
  0
LINE
  5
4ED6
330
4ED4
100
AcDbEntity
  8
0
100
AcDbLine
 10
-0.4850712500726786
 20
8.871267812518169
 30
0.0
 11
-11.99999999999994
 21
11.75000000000011
 31
0.0
  0
LINE
  5
4ED7
330
4ED4
100
AcDbEntity
  8
0
100
AcDbLine
 10
0.0
 20
8.249999999999943
 30
0.0
 11
0.0
 21
0.0
 31
0.0
  0
LINE
  5
4ED8
330
4ED4
100
AcDbEntity
  8
0
100
AcDbLine
 10
0.0
 20
8.249999999999943
 30
0.0
 11
-0.4850712500726786
 21
8.871267812518169
 31
0.0
1001
GENIUS_GENFIL_13
1070
     0
1040
0.5
1040
0.5
1040
0.4999999999999148
1040
37.98187826603592
1000
~T
  0
LINE
  5
4ED9
330
4ED4
100
AcDbEntity
  8
0
100
AcDbLine
 10
-0.4850712500726786
 20
-8.871267812518169
 30
0.0
 11
-11.99999999999994
 21
-11.75000000000011
 31
0.0
  0
LINE
  5
4EDA
330
4ED4
100
AcDbEntity
  8
0
100
AcDbLine
 10
0.0
 20
-8.249999999999943
 30
0.0
 11
0.0
 21
0.0
 31
0.0
  0
LINE
  5
4EDB
330
4ED4
100
AcDbEntity
  8
0
100
AcDbLine
 10
0.0
 20
-8.249999999999943
 30
0.0
 11
-0.4850712500726786
 21
-8.871267812518169
 31
0.0
1001
GENIUS_GENFIL_13
1070
     0
1040
0.5
1040
0.5
1040
0.4999999999999148
1040
37.98187826603592
1000
~T
  0
LINE
  5
4EDC
330
4ED4
100
AcDbEntity
  8
0
100
AcDbLine
 10
-0.4850712500726786
 20
-8.871267812518169
 30
0.0
 11
-0.4850712500726786
 21
0.0000000000000568
 31
0.0
  0
LINE
  5
4EDD
330
4ED4
100
AcDbEntity
  8
0
100
AcDbLine
 10
-11.99999999999988
 20
12.00000000000011
 30
0.0
 11
-11.99999999999988
 21
0.0000000000001137
 31
0.0
  0
LINE
  5
4EDE
330
4ED4
100
AcDbEntity
  8
0
100
AcDbLine
 10
-11.99999999999988
 20
12.00000000000011
 30
0.0
 11
-24.00000000000006
 21
12.00000000000011
 31
0.0
  0
ARC
  5
4EDF
330
4ED4
100
AcDbEntity
  8
0
100
AcDbCircle
 10
-29.33012701891971
 20
6.000000000000113
 30
0.0
 40
17.33012701891988
100
AcDbArc
 50
339.7438419995794
 51
20.25615800042054
  0
ARC
  5
4EE0
330
4ED4
100
AcDbEntity
  8
0
100
AcDbCircle
 10
-6.669872981080175
 20
6.000000000000113
 30
0.0
 40
17.33012701891988
100
AcDbArc
 50
159.7438419995794
 51
200.2561580004205
  0
LINE
  5
4EE1
330
4ED4
100
AcDbEntity
  8
0
100
AcDbLine
 10
-24.00000000000029
 20
-11.99999999999966
 30
0.0
 11
-24.00000000000006
 21
0.0000000000003411
 31
0.0
  0
LINE
  5
4EE2
330
4ED4
100
AcDbEntity
  8
0
100
AcDbLine
 10
-12.00000000000011
 20
-11.99999999999988
 30
0.0
 11
-11.99999999999988
 21
0.0000000000001137
 31
0.0
  0
LINE
  5
4EE3
330
4ED4
100
AcDbEntity
  8
0
100
AcDbLine
 10
-12.00000000000011
 20
-11.99999999999988
 30
0.0
 11
-24.00000000000029
 21
-11.99999999999966
 31
0.0
  0
ARC
  5
4EE4
330
4ED4
100
AcDbEntity
  8
0
100
AcDbCircle
 10
-29.33012701891982
 20
-5.999999999999545
 30
0.0
 40
17.33012701891988
100
AcDbArc
 50
339.7438419995794
 51
20.25615800041636
  0
ARC
  5
4EE5
330
4ED4
100
AcDbEntity
  8
0
100
AcDbCircle
 10
-6.669872981080288
 20
-6.0
 30
0.0
 40
17.33012701891988
100
AcDbArc
 50
159.7438419995794
 51
200.2561580004163
  0
LINE
  5
4EE6
330
4ED4
100
AcDbEntity
  8
0
100
AcDbLine
 10
-22.9282032302753
 20
-0.0000000000002842
 30
0.0
 11
-13.07179676972441
 21
-0.0000000000002274
 31
0.0
  0
LINE
  5
4EE7
330
4ED4
100
AcDbEntity
  8
0
100
AcDbLine
 10
-0.4850712500726786
 20
8.871267812518169
 30
0.0
 11
-0.4850712500726786
 21
0.0000000000000568
 31
0.0
  0
ENDBLK
  5
4EEB
330
4ED4
100
AcDbEntity
  8
0
100
AcDbBlockEnd
  0
BLOCK
  5
55DC
330
55DB
100
AcDbEntity
  8
0
100
AcDbBlockBegin
  2
*D13
 70
     1
 10
0.0
 20
0.0
 30
0.0
  3
*D13
  1

  0
LINE
  5
64DB
330
55DB
100
AcDbEntity
  8
AM_5
  6
ByBlock
100
AcDbLine
 10
357.7200202960288
 20
235.8572505476203
 30
0.0
 11
368.5197060254098
 21
235.8572505476203
 31
0.0
  0
LINE
  5
64DC
330
55DB
100
AcDbEntity
  8
AM_5
  6
ByBlock
100
AcDbLine
 10
361.8670202960287
 20
207.2262505476204
 30
0.0
 11
368.5197060254098
 21
207.2262505476204
 31
0.0
  0
LINE
  5
64DD
330
55DB
100
AcDbEntity
  8
AM_5
  6
ByBlock
100
AcDbLine
 10
368.0197060254098
 20
234.6072505476203
 30
0.0
 11
368.0197060254098
 21
208.4762505476204
 31
0.0
  0
INSERT
  5
64DE
330
55DB
100
AcDbEntity
  8
AM_5
100
AcDbBlockReference
  2
_Open30
 10
368.0197060254098
 20
235.8572505476203
 30
0.0
 41
1.25
 42
1.25
 43
1.25
 50
90.0
  0
INSERT
  5
64DF
330
55DB
100
AcDbEntity
  8
AM_5
100
AcDbBlockReference
  2
_Open30
 10
368.0197060254098
 20
207.2262505476204
 30
0.0
 41
1.25
 42
1.25
 43
1.25
 50
270.0
  0
MTEXT
  5
64E0
330
55DB
100
AcDbEntity
  8
AM_5
 62
     2
100
AcDbMText
 10
366.3945337813153
 20
221.5417505476204
 30
0.0
 40
1.75
 41
0.0
 71
     5
 72
     1
  1
29
 11
0.0000000000000001
 21
1.0
 31
0.0
 73
     1
 44
1.0
1001
ACAD
1000
MTEXTBEGIN
1070
    73
1070
     1
1070
    44
1040
1.0
1070
    74
1070
     0
1000
MTEXTEND
  0
POINT
  5
64E1
330
55DB
100
AcDbEntity
  8
Defpoints
 62
     0
100
AcDbPoint
 10
357.2200202960288
 20
235.8572505476203
 30
0.0
  0
POINT
  5
64E2
330
55DB
100
AcDbEntity
  8
Defpoints
 62
     0
100
AcDbPoint
 10
361.3670202960287
 20
207.2262505476204
 30
0.0
  0
POINT
  5
64E3
330
55DB
100
AcDbEntity
  8
Defpoints
 62
     0
100
AcDbPoint
 10
368.0197060254098
 20
207.2262505476204
 30
0.0
  0
ENDBLK
  5
55DD
330
55DB
100
AcDbEntity
  8
0
100
AcDbBlockEnd
  0
BLOCK
  5
55E8
330
55E7
100
AcDbEntity
  8
0
100
AcDbBlockBegin
  2
*D14
 70
     1
 10
0.0
 20
0.0
 30
0.0
  3
*D14
  1

  0
LINE
  5
64D2
330
55E7
100
AcDbEntity
  8
AM_5
  6
ByBlock
100
AcDbLine
 10
343.9700202960288
 20
227.3572505476202
 30
0.0
 11
343.9700202960288
 21
241.1259255993362
 31
0.0
  0
LINE
  5
64D3
330
55E7
100
AcDbEntity
  8
AM_5
  6
ByBlock
100
AcDbLine
 10
359.9700202960288
 20
227.3572505476202
 30
0.0
 11
359.9700202960288
 21
241.1259255993362
 31
0.0
  0
LINE
  5
64D4
330
55E7
100
AcDbEntity
  8
AM_5
  6
ByBlock
100
AcDbLine
 10
345.2200202960288
 20
240.6259255993362
 30
0.0
 11
358.7200202960288
 21
240.6259255993362
 31
0.0
  0
INSERT
  5
64D5
330
55E7
100
AcDbEntity
  8
AM_5
100
AcDbBlockReference
  2
_Open30
 10
343.9700202960288
 20
240.6259255993362
 30
0.0
 41
1.25
 42
1.25
 43
1.25
 50
180.0
  0
INSERT
  5
64D6
330
55E7
100
AcDbEntity
  8
AM_5
100
AcDbBlockReference
  2
_Open30
 10
359.9700202960288
 20
240.6259255993362
 30
0.0
 41
1.25
 42
1.25
 43
1.25
  0
MTEXT
  5
64D7
330
55E7
100
AcDbEntity
  8
AM_5
 62
     2
100
AcDbMText
 10
351.9700202960288
 20
242.2509255993362
 30
0.0
 40
1.75
 41
0.0
 71
     5
 72
     1
  1
HEX 16
 73
     1
 44
1.0
1001
ACAD
1000
MTEXTBEGIN
1070
    73
1070
     1
1070
    44
1040
1.0
1070
    74
1070
     0
1000
MTEXTEND
  0
POINT
  5
64D8
330
55E7
100
AcDbEntity
  8
Defpoints
 62
     0
100
AcDbPoint
 10
343.9700202960288
 20
226.8572505476202
 30
0.0
  0
POINT
  5
64D9
330
55E7
100
AcDbEntity
  8
Defpoints
 62
     0
100
AcDbPoint
 10
359.9700202960288
 20
226.8572505476202
 30
0.0
  0
POINT
  5
64DA
330
55E7
100
AcDbEntity
  8
Defpoints
 62
     0
100
AcDbPoint
 10
359.9700202960288
 20
240.6259255993362
 30
0.0
  0
ENDBLK
  5
55E9
330
55E7
100
AcDbEntity
  8
0
100
AcDbBlockEnd
  0
BLOCK
  5
57C8
330
57C7
100
AcDbEntity
  8
0
100
AcDbBlockBegin
  2
*D15
 70
     1
 10
0.0
 20
0.0
 30
0.0
  3
*D15
  1

  0
LINE
  5
67F3
330
57C7
100
AcDbEntity
  8
AM_5
  6
ByBlock
100
AcDbLine
 10
312.2329453750564
 20
279.2889247955025
 30
0.0
 11
312.2329453750564
 21
287.4759830924545
 31
0.0
  0
LINE
  5
67F4
330
57C7
100
AcDbEntity
  8
AM_5
  6
ByBlock
100
AcDbLine
 10
283.6019453750565
 20
283.4359247955025
 30
0.0
 11
283.6019453750565
 21
287.4759830924545
 31
0.0
  0
LINE
  5
67F5
330
57C7
100
AcDbEntity
  8
AM_5
  6
ByBlock
100
AcDbLine
 10
310.9829453750564
 20
286.9759830924545
 30
0.0
 11
284.8519453750565
 21
286.9759830924545
 31
0.0
  0
INSERT
  5
67F6
330
57C7
100
AcDbEntity
  8
AM_5
100
AcDbBlockReference
  2
_Open30
 10
312.2329453750564
 20
286.9759830924545
 30
0.0
 41
1.25
 42
1.25
 43
1.25
  0
INSERT
  5
67F7
330
57C7
100
AcDbEntity
  8
AM_5
100
AcDbBlockReference
  2
_Open30
 10
283.6019453750565
 20
286.9759830924545
 30
0.0
 41
1.25
 42
1.25
 43
1.25
 50
180.0
  0
MTEXT
  5
67F8
330
57C7
100
AcDbEntity
  8
AM_5
 62
     2
100
AcDbMText
 10
297.9174453750565
 20
288.601155336549
 30
0.0
 40
1.75
 41
0.0
 71
     5
 72
     1
  1
29
 73
     1
 44
1.0
1001
ACAD
1000
MTEXTBEGIN
1070
    73
1070
     1
1070
    44
1040
1.0
1070
    74
1070
     0
1000
MTEXTEND
  0
POINT
  5
67F9
330
57C7
100
AcDbEntity
  8
Defpoints
 62
     0
100
AcDbPoint
 10
312.2329453750564
 20
278.7889247955025
 30
0.0
  0
POINT
  5
67FA
330
57C7
100
AcDbEntity
  8
Defpoints
 62
     0
100
AcDbPoint
 10
283.6019453750565
 20
282.9359247955025
 30
0.0
  0
POINT
  5
67FB
330
57C7
100
AcDbEntity
  8
Defpoints
 62
     0
100
AcDbPoint
 10
283.6019453750565
 20
286.9759830924545
 30
0.0
  0
ENDBLK
  5
57C9
330
57C7
100
AcDbEntity
  8
0
100
AcDbBlockEnd
  0
BLOCK
  5
5B0B
330
5B0A
100
AcDbEntity
  8
0
100
AcDbBlockBegin
  2
*D16
 70
     1
 10
0.0
 20
0.0
 30
0.0
  3
*D16
  1

  0
LINE
  5
67FC
330
5B0A
100
AcDbEntity
  8
AM_5
  6
ByBlock
100
AcDbLine
 10
254.9709453750566
 20
279.2889247955025
 30
0.0
 11
254.9709453750566
 21
287.4759830924545
 31
0.0
  0
LINE
  5
67FD
330
5B0A
100
AcDbEntity
  8
AM_5
  6
ByBlock
100
AcDbLine
 10
283.6019453750565
 20
283.4359247955025
 30
0.0
 11
283.6019453750565
 21
287.4759830924545
 31
0.0
  0
LINE
  5
67FE
330
5B0A
100
AcDbEntity
  8
AM_5
  6
ByBlock
100
AcDbLine
 10
256.2209453750567
 20
286.9759830924545
 30
0.0
 11
282.3519453750565
 21
286.9759830924545
 31
0.0
  0
INSERT
  5
67FF
330
5B0A
100
AcDbEntity
  8
AM_5
100
AcDbBlockReference
  2
_Open30
 10
254.9709453750566
 20
286.9759830924545
 30
0.0
 41
1.25
 42
1.25
 43
1.25
 50
180.0
  0
INSERT
  5
6800
330
5B0A
100
AcDbEntity
  8
AM_5
100
AcDbBlockReference
  2
_Open30
 10
283.6019453750565
 20
286.9759830924545
 30
0.0
 41
1.25
 42
1.25
 43
1.25
  0
MTEXT
  5
6801
330
5B0A
100
AcDbEntity
  8
AM_5
 62
     2
100
AcDbMText
 10
269.2864453750566
 20
288.601155336549
 30
0.0
 40
1.75
 41
0.0
 71
     5
 72
     1
  1
29
 73
     1
 44
1.0
1001
ACAD
1000
MTEXTBEGIN
1070
    73
1070
     1
1070
    44
1040
1.0
1070
    74
1070
     0
1000
MTEXTEND
  0
POINT
  5
6802
330
5B0A
100
AcDbEntity
  8
Defpoints
 62
     0
100
AcDbPoint
 10
254.9709453750566
 20
278.7889247955025
 30
0.0
  0
POINT
  5
6803
330
5B0A
100
AcDbEntity
  8
Defpoints
 62
     0
100
AcDbPoint
 10
283.6019453750565
 20
282.9359247955025
 30
0.0
  0
POINT
  5
6804
330
5B0A
100
AcDbEntity
  8
Defpoints
 62
     0
100
AcDbPoint
 10
283.6019453750565
 20
286.9759830924545
 30
0.0
  0
ENDBLK
  5
5B0C
330
5B0A
100
AcDbEntity
  8
0
100
AcDbBlockEnd
  0
BLOCK
  5
5B21
330
5B20
100
AcDbEntity
  8
0
100
AcDbBlockBegin
  2
*D17
 70
     1
 10
0.0
 20
0.0
 30
0.0
  3
*D17
  1

  0
LINE
  5
68BE
330
5B20
100
AcDbEntity
  8
AM_5
  6
ByBlock
100
AcDbLine
 10
312.2329453750564
 20
279.2889247955025
 30
0.0
 11
312.2329453750564
 21
291.6264857318294
 31
0.0
  0
LINE
  5
68BF
330
5B20
100
AcDbEntity
  8
AM_5
  6
ByBlock
100
AcDbLine
 10
254.9709453750566
 20
279.2889247955025
 30
0.0
 11
254.9709453750566
 21
291.6264857318294
 31
0.0
  0
LINE
  5
68C0
330
5B20
100
AcDbEntity
  8
AM_5
  6
ByBlock
100
AcDbLine
 10
310.9829453750564
 20
291.1264857318295
 30
0.0
 11
256.2209453750567
 21
291.1264857318295
 31
0.0
  0
INSERT
  5
68C1
330
5B20
100
AcDbEntity
  8
AM_5
100
AcDbBlockReference
  2
_Open30
 10
312.2329453750564
 20
291.1264857318295
 30
0.0
 41
1.25
 42
1.25
 43
1.25
  0
INSERT
  5
68C2
330
5B20
100
AcDbEntity
  8
AM_5
100
AcDbBlockReference
  2
_Open30
 10
254.9709453750566
 20
291.1264857318295
 30
0.0
 41
1.25
 42
1.25
 43
1.25
 50
180.0
  0
MTEXT
  5
68C3
330
5B20
100
AcDbEntity
  8
AM_5
 62
     2
100
AcDbMText
 10
283.6019453750565
 20
292.7514857318294
 30
0.0
 40
1.75
 41
0.0
 71
     5
 72
     1
  1
58
 73
     1
 44
1.0
1001
ACAD
1000
MTEXTBEGIN
1070
    73
1070
     1
1070
    44
1040
1.0
1070
    74
1070
     0
1000
MTEXTEND
  0
POINT
  5
68C4
330
5B20
100
AcDbEntity
  8
Defpoints
 62
     0
100
AcDbPoint
 10
312.2329453750564
 20
278.7889247955025
 30
0.0
  0
POINT
  5
68C5
330
5B20
100
AcDbEntity
  8
Defpoints
 62
     0
100
AcDbPoint
 10
254.9709453750566
 20
278.7889247955025
 30
0.0
  0
POINT
  5
68C6
330
5B20
100
AcDbEntity
  8
Defpoints
 62
     0
100
AcDbPoint
 10
254.9709453750566
 20
291.1264857318295
 30
0.0
  0
ENDBLK
  5
5B22
330
5B20
100
AcDbEntity
  8
0
100
AcDbBlockEnd
  0
BLOCK
  5
5D2D
330
5D2C
100
AcDbEntity
  8
0
100
AcDbBlockBegin
  2
*D18
 70
     1
 10
0.0
 20
0.0
 30
0.0
  3
*D18
  1

  0
LINE
  5
6820
330
5D2C
100
AcDbEntity
  8
AM_5
  6
ByBlock
100
AcDbLine
 10
303.7329453750564
 20
281.5389247955025
 30
0.0
 11
319.1919450958279
 21
281.5389247955025
 31
0.0
  0
LINE
  5
6821
330
5D2C
100
AcDbEntity
  8
AM_5
  6
ByBlock
100
AcDbLine
 10
303.7329453750564
 20
265.5389247955024
 30
0.0
 11
319.1919450958279
 21
265.5389247955024
 31
0.0
  0
LINE
  5
6822
330
5D2C
100
AcDbEntity
  8
AM_5
  6
ByBlock
100
AcDbLine
 10
318.6919450958279
 20
280.2889247955024
 30
0.0
 11
318.6919450958279
 21
266.7889247955025
 31
0.0
  0
INSERT
  5
6823
330
5D2C
100
AcDbEntity
  8
AM_5
100
AcDbBlockReference
  2
_Open30
 10
318.6919450958279
 20
281.5389247955025
 30
0.0
 41
1.25
 42
1.25
 43
1.25
 50
90.0
  0
INSERT
  5
6824
330
5D2C
100
AcDbEntity
  8
AM_5
100
AcDbBlockReference
  2
_Open30
 10
318.6919450958279
 20
265.5389247955024
 30
0.0
 41
1.25
 42
1.25
 43
1.25
 50
270.0
  0
MTEXT
  5
6825
330
5D2C
100
AcDbEntity
  8
AM_5
 62
     2
100
AcDbMText
 10
317.0669450958278
 20
273.5389247955025
 30
0.0
 40
1.75
 41
0.0
 71
     5
 72
     1
  1
HEX 16
 11
0.0000000000000001
 21
1.0
 31
0.0
 73
     1
 44
1.0
1001
ACAD
1000
MTEXTBEGIN
1070
    73
1070
     1
1070
    44
1040
1.0
1070
    74
1070
     0
1000
MTEXTEND
  0
POINT
  5
6826
330
5D2C
100
AcDbEntity
  8
Defpoints
 62
     0
100
AcDbPoint
 10
303.2329453750564
 20
281.5389247955025
 30
0.0
  0
POINT
  5
6827
330
5D2C
100
AcDbEntity
  8
Defpoints
 62
     0
100
AcDbPoint
 10
303.2329453750564
 20
265.5389247955024
 30
0.0
  0
POINT
  5
6828
330
5D2C
100
AcDbEntity
  8
Defpoints
 62
     0
100
AcDbPoint
 10
318.6919450958279
 20
265.5389247955024
 30
0.0
  0
ENDBLK
  5
5D2E
330
5D2C
100
AcDbEntity
  8
0
100
AcDbBlockEnd
  0
BLOCK
  5
5DEF
330
5DEE
100
AcDbEntity
  8
0
100
AcDbBlockBegin
  2
*D19
 70
     1
 10
0.0
 20
0.0
 30
0.0
  3
*D19
  1

  0
LINE
  5
682A
330
5DEE
100
AcDbEntity
  8
AM_5
  6
ByBlock
100
AcDbLine
 10
263.4709453750566
 20
281.5389247955025
 30
0.0
 11
250.1616306719861
 21
281.5389247955025
 31
0.0
  0
LINE
  5
682B
330
5DEE
100
AcDbEntity
  8
AM_5
  6
ByBlock
100
AcDbLine
 10
263.4709453750566
 20
265.5389247955024
 30
0.0
 11
250.1616306719861
 21
265.5389247955024
 31
0.0
  0
LINE
  5
682C
330
5DEE
100
AcDbEntity
  8
AM_5
  6
ByBlock
100
AcDbLine
 10
250.6616306719861
 20
280.2889247955024
 30
0.0
 11
250.6616306719861
 21
266.7889247955025
 31
0.0
  0
INSERT
  5
682D
330
5DEE
100
AcDbEntity
  8
AM_5
100
AcDbBlockReference
  2
_Open30
 10
250.6616306719861
 20
281.5389247955025
 30
0.0
 41
1.25
 42
1.25
 43
1.25
 50
90.0
  0
INSERT
  5
682E
330
5DEE
100
AcDbEntity
  8
AM_5
100
AcDbBlockReference
  2
_Open30
 10
250.6616306719861
 20
265.5389247955024
 30
0.0
 41
1.25
 42
1.25
 43
1.25
 50
270.0
  0
MTEXT
  5
682F
330
5DEE
100
AcDbEntity
  8
AM_5
 62
     2
100
AcDbMText
 10
249.0366306719861
 20
273.5389247955025
 30
0.0
 40
1.75
 41
0.0
 71
     5
 72
     1
  1
HEX 16
 11
0.0000000000000001
 21
1.0
 31
0.0
 73
     1
 44
1.0
1001
ACAD
1000
MTEXTBEGIN
1070
    73
1070
     1
1070
    44
1040
1.0
1070
    74
1070
     0
1000
MTEXTEND
  0
POINT
  5
6830
330
5DEE
100
AcDbEntity
  8
Defpoints
 62
     0
100
AcDbPoint
 10
263.9709453750567
 20
281.5389247955025
 30
0.0
  0
POINT
  5
6831
330
5DEE
100
AcDbEntity
  8
Defpoints
 62
     0
100
AcDbPoint
 10
263.9709453750567
 20
265.5389247955024
 30
0.0
  0
POINT
  5
6832
330
5DEE
100
AcDbEntity
  8
Defpoints
 62
     0
100
AcDbPoint
 10
250.6616306719861
 20
265.5389247955024
 30
0.0
  0
ENDBLK
  5
5DF0
330
5DEE
100
AcDbEntity
  8
0
100
AcDbBlockEnd
  0
BLOCK
  5
61D8
330
61D7
100
AcDbEntity
  8
0
100
AcDbBlockBegin
  2
*D20
 70
     1
 10
0.0
 20
0.0
 30
0.0
  3
*D20
  1

  0
LINE
  5
66DD
330
61D7
100
AcDbEntity
  8
AM_5
  6
ByBlock
100
AcDbLine
 10
312.5329453750564
 20
210.2262505476204
 30
0.0
 11
318.1923149236073
 21
210.2262505476204
 31
0.0
  0
LINE
  5
66DE
330
61D7
100
AcDbEntity
  8
AM_5
  6
ByBlock
100
AcDbLine
 10
317.6923149236073
 20
208.9762505476203
 30
0.0
 11
317.6923149236073
 21
204.2262505476204
 31
0.0
  0
INSERT
  5
66DF
330
61D7
100
AcDbEntity
  8
AM_5
100
AcDbBlockReference
  2
_Open30
 10
317.6923149236073
 20
210.2262505476204
 30
0.0
 41
1.25
 42
1.25
 43
1.25
 50
90.0
  0
MTEXT
  5
66E0
330
61D7
100
AcDbEntity
  8
AM_5
 62
     2
100
AcDbMText
 10
316.0673149236072
 20
207.2262505476204
 30
0.0
 40
1.75
 41
0.0
 71
     5
 72
     1
  1
%%c6
 11
0.0000000000000001
 21
1.0
 31
0.0
 73
     1
 44
1.0
1001
ACAD
1000
MTEXTBEGIN
1070
    73
1070
     1
1070
    44
1040
1.0
1070
    74
1070
     0
1000
MTEXTEND
  0
POINT
  5
66E1
330
61D7
100
AcDbEntity
  8
Defpoints
 62
     0
100
AcDbPoint
 10
312.0329453750565
 20
210.2262505476204
 30
0.0
  0
POINT
  5
66E2
330
61D7
100
AcDbEntity
  8
Defpoints
 62
     0
100
AcDbPoint
 10
312.0329453750565
 20
204.2262505476204
 30
0.0
  0
POINT
  5
66E3
330
61D7
100
AcDbEntity
  8
Defpoints
 62
     0
100
AcDbPoint
 10
317.6923149236073
 20
204.2262505476204
 30
0.0
  0
ENDBLK
  5
61D9
330
61D7
100
AcDbEntity
  8
0
100
AcDbBlockEnd
  0
BLOCK
  5
61E2
330
61E1
100
AcDbEntity
  8
0
100
AcDbBlockBegin
  2
*D21
 70
     1
 10
0.0
 20
0.0
 30
0.0
  3
*D21
  1

  0
LINE
  5
6B1D
330
61E1
100
AcDbEntity
  8
AM_5
  6
ByBlock
100
AcDbLine
 10
286.6019453750565
 20
236.1572505476203
 30
0.0
 11
286.6019453750565
 21
239.6055935687272
 31
0.0
  0
LINE
  5
6B1E
330
61E1
100
AcDbEntity
  8
AM_5
  6
ByBlock
100
AcDbLine
 10
285.3519453750565
 20
239.1055935687272
 30
0.0
 11
280.6019453750565
 21
239.1055935687272
 31
0.0
  0
INSERT
  5
6B1F
330
61E1
100
AcDbEntity
  8
AM_5
100
AcDbBlockReference
  2
_Open30
 10
286.6019453750565
 20
239.1055935687272
 30
0.0
 41
1.25
 42
1.25
 43
1.25
  0
MTEXT
  5
6B20
330
61E1
100
AcDbEntity
  8
AM_5
 62
     2
100
AcDbMText
 10
283.6019453750566
 20
240.7305935687272
 30
0.0
 40
1.75
 41
0.0
 71
     5
 72
     1
  1
%%C6
 73
     1
 44
1.0
1001
ACAD
1000
MTEXTBEGIN
1070
    73
1070
     1
1070
    44
1040
1.0
1070
    74
1070
     0
1000
MTEXTEND
  0
POINT
  5
6B21
330
61E1
100
AcDbEntity
  8
Defpoints
 62
     0
100
AcDbPoint
 10
286.6019453750565
 20
235.6572505476203
 30
0.0
  0
POINT
  5
6B22
330
61E1
100
AcDbEntity
  8
Defpoints
 62
     0
100
AcDbPoint
 10
280.6019453750565
 20
235.6572505476203
 30
0.0
  0
POINT
  5
6B23
330
61E1
100
AcDbEntity
  8
Defpoints
 62
     0
100
AcDbPoint
 10
280.6019453750565
 20
239.1055935687272
 30
0.0
  0
ENDBLK
  5
61E3
330
61E1
100
AcDbEntity
  8
0
100
AcDbBlockEnd
  0
BLOCK
  5
66E7
330
66E6
100
AcDbEntity
  8
0
100
AcDbBlockBegin
  2
*D22
 70
     1
 10
0.0
 20
0.0
 30
0.0
  3
*D22
  1

  0
LINE
  5
66F8
330
66E6
100
AcDbEntity
  8
AM_5
  6
ByBlock
100
AcDbLine
 10
254.6709453750566
 20
210.2262505476204
 30
0.0
 11
250.3562213397348
 21
210.2262505476204
 31
0.0
  0
LINE
  5
66F9
330
66E6
100
AcDbEntity
  8
AM_5
  6
ByBlock
100
AcDbLine
 10
250.8562213397348
 20
208.9762505476203
 30
0.0
 11
250.8562213397348
 21
204.2262505476204
 31
0.0
  0
INSERT
  5
66FA
330
66E6
100
AcDbEntity
  8
AM_5
100
AcDbBlockReference
  2
_Open30
 10
250.8562213397348
 20
210.2262505476204
 30
0.0
 41
1.25
 42
1.25
 43
1.25
 50
90.0
  0
MTEXT
  5
66FB
330
66E6
100
AcDbEntity
  8
AM_5
 62
     2
100
AcDbMText
 10
249.2312213397347
 20
207.2262505476204
 30
0.0
 40
1.75
 41
0.0
 71
     5
 72
     1
  1
%%c6
 11
0.0000000000000001
 21
1.0
 31
0.0
 73
     1
 44
1.0
1001
ACAD
1000
MTEXTBEGIN
1070
    73
1070
     1
1070
    44
1040
1.0
1070
    74
1070
     0
1000
MTEXTEND
  0
POINT
  5
66FC
330
66E6
100
AcDbEntity
  8
Defpoints
 62
     0
100
AcDbPoint
 10
255.1709453750566
 20
210.2262505476204
 30
0.0
  0
POINT
  5
66FD
330
66E6
100
AcDbEntity
  8
Defpoints
 62
     0
100
AcDbPoint
 10
255.1709453750566
 20
204.2262505476204
 30
0.0
  0
POINT
  5
66FE
330
66E6
100
AcDbEntity
  8
Defpoints
 62
     0
100
AcDbPoint
 10
250.8562213397348
 20
204.2262505476204
 30
0.0
  0
ENDBLK
  5
66E8
330
66E6
100
AcDbEntity
  8
0
100
AcDbBlockEnd
  0
BLOCK
  5
6A06
330
69FF
100
AcDbEntity
  8
0
100
AcDbBlockBegin
  2
*S23
 70
     1
 10
0.0
 20
0.0
 30
0.0
  3
*S23
  1

  0
LINE
  5
6A00
330
69FF
100
AcDbEntity
  8
AM_5
 62
     3
100
AcDbLine
 10
254.7204361710773
 20
223.4940410857532
 30
0.0
 11
266.5341763285576
 21
223.4940410857532
 31
0.0
  0
LINE
  5
6A01
330
69FF
100
AcDbEntity
  8
AM_5
 62
     3
100
AcDbLine
 10
266.5341763285576
 20
223.4940410857532
 30
0.0
 11
268.9137890095081
 21
214.3071829271494
 31
0.0
  0
LINE
  5
6A02
330
69FF
100
AcDbEntity
  8
AM_5
  6
Continuous
 62
     3
100
AcDbLine
 10
268.9137890095081
 20
214.3071829271494
 30
0.0
 11
269.3087176632561
 21
212.7825005476196
 31
0.0
  0
LINE
  5
6A03
330
69FF
100
AcDbEntity
  8
AM_5
  6
Continuous
 62
     3
100
AcDbLine
 10
268.7130607671111
 20
214.2551895837467
 30
0.0
 11
269.3087176632561
 21
212.7825005476196
 31
0.0
  0
LINE
  5
6A04
330
69FF
100
AcDbEntity
  8
AM_5
  6
Continuous
 62
     3
100
AcDbLine
 10
269.3087176632561
 20
212.7825005476196
 30
0.0
 11
269.1145172519051
 21
214.3591762705522
 31
0.0
  0
MTEXT
  5
6A05
330
69FF
100
AcDbEntity
  8
AM_5
 62
     2
100
AcDbMText
 10
254.7204361710773
 20
224.2940410857532
 30
0.0
 40
1.575
 41
0.0
 71
     7
 72
     5
  1
UNF 7/16-20
  7
ACJISTS
 73
     1
 44
1.0
1001
ACAD
1000
MTEXTBEGIN
1070
    73
1070
     1
1070
    44
1040
1.0
1070
    74
1070
     0
1000
MTEXTEND
  0
ENDBLK
  5
6A07
330
69FF
100
AcDbEntity
  8
0
100
AcDbBlockEnd
  0
BLOCK
  5
6A11
330
6A09
100
AcDbEntity
  8
0
100
AcDbBlockBegin
  2
*S24
 70
     1
 10
0.0
 20
0.0
 30
0.0
  3
*S24
  1

  0
LINE
  5
6A0A
330
6A09
100
AcDbEntity
  8
AM_5
 62
     3
100
AcDbLine
 10
242.2038923753462
 20
199.3746474303928
 30
0.0
 11
252.2953194330538
 21
199.3746474303928
 31
0.0
  0
LINE
  5
6A0B
330
6A09
100
AcDbEntity
  8
AM_5
 62
     3
100
AcDbLine
 10
252.2953194330538
 20
199.3746474303928
 30
0.0
 11
253.6572957054673
 21
199.3746474303928
 31
0.0
  0
LINE
  5
6A0C
330
6A09
100
AcDbEntity
  8
AM_5
 62
     3
100
AcDbLine
 10
253.6572957054673
 20
199.3746474303928
 30
0.0
 11
251.6437213397348
 21
202.8622605366599
 31
0.0
  0
LINE
  5
6A0D
330
6A09
100
AcDbEntity
  8
AM_5
  6
Continuous
 62
     3
100
AcDbLine
 10
251.6437213397348
 20
202.8622605366599
 30
0.0
 11
250.8562213397348
 21
204.2262505476204
 31
0.0
  0
LINE
  5
6A0E
330
6A09
100
AcDbEntity
  8
AM_5
  6
Continuous
 62
     3
100
AcDbLine
 10
251.8232940305608
 20
202.9659368780474
 30
0.0
 11
250.8562213397348
 21
204.2262505476204
 31
0.0
  0
LINE
  5
6A0F
330
6A09
100
AcDbEntity
  8
AM_5
  6
Continuous
 62
     3
100
AcDbLine
 10
250.8562213397348
 20
204.2262505476204
 30
0.0
 11
251.4641486489087
 21
202.7585841952724
 31
0.0
  0
MTEXT
  5
6A10
330
6A09
100
AcDbEntity
  8
AM_5
 62
     2
100
AcDbMText
 10
242.2038923753462
 20
200.1621474303929
 30
0.0
 40
1.575
 41
0.0
 71
     7
 72
     5
  1
適用管外径
  7
ACJISTS
 73
     1
 44
1.0
1001
ACAD
1000
MTEXTBEGIN
1070
    73
1070
     1
1070
    44
1040
1.0
1070
    74
1070
     0
1000
MTEXTEND
  0
ENDBLK
  5
6A12
330
6A09
100
AcDbEntity
  8
0
100
AcDbBlockEnd
  0
ENDSEC
  0
SECTION
  2
ENTITIES
  0
LINE
  5
646F
330
1F
100
AcDbEntity
  8
0
100
AcDbLine
 10
340.1543398143185
 20
225.2003472986755
 30
0.0
 11
341.4126700635162
 21
225.2003472986755
 31
0.0
  0
LINE
  5
6470
330
1F
100
AcDbEntity
  8
0
100
AcDbLine
 10
329.4126700635162
 20
226.7003472986754
 30
0.0
 11
329.4126700635162
 21
224.4738499905718
 31
0.0
  0
LINE
  5
6471
330
1F
100
AcDbEntity
  8
0
100
AcDbLine
 10
341.4126700635163
 20
226.7003472986754
 30
0.0
 11
341.4126700635163
 21
224.4738499905717
 31
0.0
  0
CIRCLE
  5
6472
330
1F
100
AcDbEntity
  8
0
100
AcDbCircle
 10
335.4126700635162
 20
218.7003472986754
 30
0.0
 40
2.500000000000767
  0
CIRCLE
  5
6473
330
1F
100
AcDbEntity
  8
0
100
AcDbCircle
 10
335.4126700635161
 20
218.7003472986754
 30
0.0
 40
2.99999999999855
  0
LINE
  5
6474
330
1F
100
AcDbEntity
  8
0
100
AcDbLine
 10
341.2711352924255
 20
246.8432537685834
 30
0.0
 11
335.4126700635162
 21
246.8432537685834
 31
0.0
  0
LINE
  5
6475
330
1F
100
AcDbEntity
  8
0
100
AcDbLine
 10
340.6626700635162
 20
247.3313472986753
 30
0.0
 11
341.2711352924255
 21
246.8432537685834
 31
0.0
1001
GENIUS_GENFIL_13
1070
     0
1040
0.5
1040
0.5
1040
0.5
1040
38.73559614542635
1000
~T
1001
GENIUS_GENOREF_13
1005
649B
  0
LINE
  5
6476
330
1F
100
AcDbEntity
  8
0
100
AcDbLine
 10
335.4126700635162
 20
247.3313472986753
 30
0.0
 11
340.6626700635162
 21
247.3313472986753
 31
0.0
  0
LINE
  5
6477
330
1F
100
AcDbEntity
  8
0
100
AcDbLine
 10
341.2711352924255
 20
246.8432537685834
 30
0.0
 11
343.1626700635162
 21
238.3313472986753
 31
0.0
  0
LINE
  5
6478
330
1F
100
AcDbEntity
  8
0
100
AcDbLine
 10
329.5542048346068
 20
246.8432537685834
 30
0.0
 11
327.6626700635162
 21
238.3313472986753
 31
0.0
  0
LINE
  5
6479
330
1F
100
AcDbEntity
  8
0
100
AcDbLine
 10
335.4126700635162
 20
247.3313472986753
 30
0.0
 11
330.1626700635162
 21
247.3313472986753
 31
0.0
  0
LINE
  5
647A
330
1F
100
AcDbEntity
  8
0
100
AcDbLine
 10
330.1626700635162
 20
247.3313472986753
 30
0.0
 11
329.5542048346068
 21
246.8432537685834
 31
0.0
1001
GENIUS_GENFIL_13
1070
     0
1040
0.5000000000000053
1040
0.4999999999999858
1040
0.5000000000000053
1040
38.73559614542114
1000
~T
  0
LINE
  5
647B
330
1F
100
AcDbEntity
  8
0
100
AcDbLine
 10
329.5542048346068
 20
246.8432537685834
 30
0.0
 11
335.4126700635162
 21
246.8432537685834
 31
0.0
  0
LINE
  5
647C
330
1F
100
AcDbEntity
  8
0
100
AcDbLine
 10
327.4126700635162
 20
238.3313472986753
 30
0.0
 11
327.4126700635162
 21
229.8313472986753
 31
0.0
  0
LINE
  5
647D
330
1F
100
AcDbEntity
  8
0
100
AcDbLine
 10
327.4126700635162
 20
238.3313472986753
 30
0.0
 11
335.4126700635162
 21
238.3313472986753
 31
0.0
  0
LINE
  5
647E
330
1F
100
AcDbEntity
  8
0
100
AcDbLine
 10
343.4126700635162
 20
238.3313472986753
 30
0.0
 11
335.4126700635162
 21
238.3313472986753
 31
0.0
  0
LINE
  5
647F
330
1F
100
AcDbEntity
  8
0
100
AcDbLine
 10
343.4126700635162
 20
238.3313472986753
 30
0.0
 11
343.4126700635162
 21
229.8313472986753
 31
0.0
  0
LINE
  5
6480
330
1F
100
AcDbEntity
  8
0
100
AcDbLine
 10
327.4126700635162
 20
229.8313472986753
 30
0.0
 11
343.4126700635162
 21
229.8313472986753
 31
0.0
  0
ARC
  5
6481
330
1F
100
AcDbEntity
  8
0
100
AcDbCircle
 10
339.4126700635162
 20
228.5873348514786
 30
0.0
 40
9.744012447196734
100
AcDbArc
 50
65.76321759444855
 51
114.2367824055514
  0
ARC
  5
6482
330
1F
100
AcDbEntity
  8
0
100
AcDbCircle
 10
331.4126700635162
 20
228.5873348514786
 30
0.0
 40
9.744012447196734
100
AcDbArc
 50
65.76321759444855
 51
114.2367824055514
  0
ARC
  5
6483
330
1F
100
AcDbEntity
  8
0
100
AcDbCircle
 10
339.4126700635162
 20
239.5753597458721
 30
0.0
 40
9.744012447196734
100
AcDbArc
 50
245.7632175944486
 51
294.2367824055514
  0
ARC
  5
6484
330
1F
100
AcDbEntity
  8
0
100
AcDbCircle
 10
331.4126700635162
 20
239.5753597458721
 30
0.0
 40
9.744012447196734
100
AcDbArc
 50
245.7632175944486
 51
294.2367824055514
  0
LINE
  5
6485
330
1F
100
AcDbEntity
  8
0
100
AcDbLine
 10
335.4126700635162
 20
230.690216045789
 30
0.0
 11
335.4126700635162
 21
237.4724785515616
 31
0.0
  0
LINE
  5
6486
330
1F
100
AcDbEntity
  8
0
100
AcDbLine
 10
330.5436700635162
 20
228.7003472986755
 30
0.0
 11
329.8564200635162
 21
226.7003472986755
 31
0.0
  0
LINE
  5
6487
330
1F
100
AcDbEntity
  8
0
100
AcDbLine
 10
330.5436700635162
 20
228.7003472986755
 30
0.0
 11
329.8564200635163
 21
228.7003472986755
 31
0.0
  0
LINE
  5
6488
330
1F
100
AcDbEntity
  8
0
100
AcDbLine
 10
329.8564200635163
 20
229.8313472986753
 30
0.0
 11
329.8564200635163
 21
226.7003472986755
 31
0.0
  0
LINE
  5
6489
330
1F
100
AcDbEntity
  8
0
100
AcDbLine
 10
330.5436700635162
 20
228.7003472986755
 30
0.0
 11
330.5436700635162
 21
229.8313472986753
 31
0.0
  0
LINE
  5
648A
330
1F
100
AcDbEntity
  8
0
100
AcDbLine
 10
330.5436700635162
 20
228.7003472986755
 30
0.0
 11
335.4126700635162
 21
228.7003472986755
 31
0.0
  0
LINE
  5
648B
330
1F
100
AcDbEntity
  8
0
100
AcDbLine
 10
340.2816700635161
 20
228.7003472986755
 30
0.0
 11
340.9689200635161
 21
226.7003472986755
 31
0.0
  0
LINE
  5
648C
330
1F
100
AcDbEntity
  8
0
100
AcDbLine
 10
340.2816700635161
 20
228.7003472986755
 30
0.0
 11
340.9689200635161
 21
228.7003472986755
 31
0.0
  0
LINE
  5
648D
330
1F
100
AcDbEntity
  8
0
100
AcDbLine
 10
340.9689200635161
 20
229.8313472986753
 30
0.0
 11
340.9689200635161
 21
226.7003472986755
 31
0.0
  0
LINE
  5
648E
330
1F
100
AcDbEntity
  8
0
100
AcDbLine
 10
340.2816700635161
 20
228.7003472986755
 30
0.0
 11
340.2816700635162
 21
229.8313472986753
 31
0.0
  0
LINE
  5
648F
330
1F
100
AcDbEntity
  8
0
100
AcDbLine
 10
340.2816700635161
 20
228.7003472986755
 30
0.0
 11
335.4126700635162
 21
228.7003472986755
 31
0.0
  0
LWPOLYLINE
  5
6490
330
1F
100
AcDbEntity
  8
0
100
AcDbPolyline
 90
        6
 70
     1
 43
0.0
 10
335.4126700635161
 20
209.4627429916414
 10
343.4126700635161
 20
214.0815451451584
 10
343.4126700635161
 20
223.3191494521925
 10
335.4126700635161
 20
227.9379516057095
 10
327.4126700635161
 20
223.3191494521925
 10
327.4126700635161
 20
214.0815451451584
  0
CIRCLE
  5
6491
330
1F
100
AcDbEntity
  8
0
100
AcDbCircle
 10
335.4126700635161
 20
218.7003472986754
 30
0.0
 40
7.750000000000014
  0
LINE
  5
6492
330
1F
100
AcDbEntity
  8
0
100
AcDbLine
 10
330.6710003127138
 20
225.2003472986755
 30
0.0
 11
329.4126700635161
 21
225.2003472986755
 31
0.0
  0
LINE
  5
6493
330
1F
100
AcDbEntity
  8
AM_7
100
AcDbLine
 10
335.4126700635162
 20
248.7283472986753
 30
0.0
 11
335.4126700635161
 21
208.0657429916414
 31
0.0
1001
GENIUS_GENOBJ-N-CEN_13
1002
{
1000
OWNER
1000
GEN
1002
}
1001
GENIUS_GENODEF_13
1002
{
1000
HIER
1070
     0
1002
}
1002
{
1000
MANEDIT
1070
     0
1002
}
1002
{
1000
NOSEL
1070
     0
1002
}
1002
{
1000
BEHIND
1070
     0
1002
}
1002
{
1000
OTHER
1070
     0
1002
}
1002
{
1000
REACTOR
1002
}
1001
GENIUS_GENCEN_19
1002
{
1040
1.397
1002
}
  0
LINE
  5
6494
330
1F
100
AcDbEntity
  8
AM_7
100
AcDbLine
 10
326.0156700635162
 20
218.7003472986755
 30
0.0
 11
344.8096700635161
 21
218.7003472986755
 31
0.0
1001
GENIUS_GENODEF_13
1002
{
1000
HIER
1070
     0
1002
}
1002
{
1000
MANEDIT
1070
     0
1002
}
1002
{
1000
NOSEL
1070
     0
1002
}
1002
{
1000
BEHIND
1070
     0
1002
}
1002
{
1000
OTHER
1070
     0
1002
}
1002
{
1000
REACTOR
1002
}
1001
GENIUS_GENOBJ-N-CEN_13
1002
{
1000
OWNER
1000
GEN
1002
}
1001
GENIUS_GENCEN_19
1002
{
1040
1.397
1002
}
  0
CIRCLE
  5
6495
330
1F
100
AcDbEntity
  8
0
100
AcDbCircle
 10
335.4126700635161
 20
218.7003472986755
 30
0.0
 40
5.250000074906195
  0
CIRCLE
  5
6496
330
1F
100
AcDbEntity
  8
0
100
AcDbCircle
 10
335.4126700635161
 20
218.7003472986755
 30
0.0
 40
5.858465228909324
  0
LINE
  5
6497
330
1F
100
AcDbEntity
  8
0
100
AcDbLine
 10
340.9689200635161
 20
226.7003472986754
 30
0.0
 11
341.4126700635163
 21
226.7003472986754
 31
0.0
  0
LINE
  5
6498
330
1F
100
AcDbEntity
  8
0
100
AcDbLine
 10
329.4126700635162
 20
226.7003472986754
 30
0.0
 11
329.8564200635162
 21
226.7003472986754
 31
0.0
  0
LINE
  5
6499
330
1F
100
AcDbEntity
  8
0
100
AcDbLine
 10
329.8564200635163
 20
226.7003472986754
 30
0.0
 11
333.2690765240672
 21
226.7003472986754
 31
0.0
  0
LINE
  5
649A
330
1F
100
AcDbEntity
  8
0
100
AcDbLine
 10
337.5562636029652
 20
226.7003472986754
 30
0.0
 11
340.9689200635161
 21
226.7003472986754
 31
0.0
  0
POINT
  5
649B
330
1F
100
AcDbEntity
  8
0
 60
     1
100
AcDbPoint
 10
71.45101799779917
 20
5.40666160372163
 30
0.0
1001
GENIUS_GENODEF_13
1002
{
1000
HIER
1070
     1
1002
}
1002
{
1000
MANEDIT
1070
     0
1002
}
1002
{
1000
NOSEL
1070
     0
1002
}
1002
{
1000
BEHIND
1070
     0
1002
}
1002
{
1000
REACTOR
1002
}
1001
GENIUS_GENOBJ-N-CHA_13
1002
{
1000
OWNER
1000
GEN
1002
}
1001
GENIUS_GENOENT_13
1002
{
1000
MYREF
1005
649B
1002
}
1002
{
1000
GRP
1005
0
1002
}
1001
GENIUS_GENOLIS_13
1002
{
1000
ENT
1005
6475
1002
}
  0
LINE
  5
6587
330
1F
100
AcDbEntity
  8
0
100
AcDbLine
 10
275.6019453750565
 20
212.7003472986754
 30
0.0
 11
291.6019453750565
 21
212.7003472986754
 31
0.0
  0
LINE
  5
65A4
330
1F
100
AcDbEntity
  8
0
100
AcDbLine
 10
295.5918141221701
 20
209.4627429916414
 30
0.0
 11
302.3740766279427
 21
209.4627429916414
 31
0.0
  0
LINE
  5
65A5
330
1F
100
AcDbEntity
  8
0
100
AcDbLine
 10
303.2329453750564
 20
210.9503472986754
 30
0.0
 11
302.3740766279427
 21
209.4627429916414
 31
0.0
  0
LINE
  5
65A6
330
1F
100
AcDbEntity
  8
0
100
AcDbLine
 10
294.7329453750564
 20
210.9503472986754
 30
0.0
 11
294.7329453750564
 21
218.7003472986754
 31
0.0
  0
LINE
  5
65A7
330
1F
100
AcDbEntity
  8
0
100
AcDbLine
 10
294.7329453750564
 20
210.9503472986754
 30
0.0
 11
295.5918141221701
 21
209.4627429916414
 31
0.0
  0
LINE
  5
65A8
330
1F
100
AcDbEntity
  8
0
100
AcDbLine
 10
312.2329453750564
 20
218.7003472986754
 30
0.0
 11
312.2329453750564
 21
213.4503472986754
 31
0.0
  0
LINE
  5
65A9
330
1F
100
AcDbEntity
  8
0
100
AcDbLine
 10
311.7448518449644
 20
212.8418820697661
 30
0.0
 11
303.2329453750564
 21
210.9503472986754
 31
0.0
  0
LINE
  5
65AA
330
1F
100
AcDbEntity
  8
0
100
AcDbLine
 10
312.2329453750564
 20
213.4503472986754
 30
0.0
 11
311.7448518449644
 21
212.8418820697661
 31
0.0
1001
GENIUS_GENFIL_13
1070
     0
1040
0.5
1040
0.5
1040
0.5
1040
38.73559614542635
1000
~T
  0
ARC
  5
65AD
330
1F
100
AcDbEntity
  8
0
100
AcDbCircle
 10
299.6986516436195
 20
211.7721440683999
 30
0.0
 40
3.534293731436835
100
AcDbArc
 50
340.8004439881463
 51
40.80044398814387
  0
ARC
  5
65AE
330
1F
100
AcDbEntity
  8
0
100
AcDbCircle
 10
290.3840735699795
 20
218.7003472986754
 30
0.0
 40
12.84887180507694
100
AcDbArc
 50
338.9322625181295
 51
0.0
  0
LINE
  5
65AF
330
1F
100
AcDbEntity
  8
0
100
AcDbLine
 10
303.2329453750564
 20
210.9503472986754
 30
0.0
 11
303.2329453750564
 21
218.7003472986754
 31
0.0
  0
ARC
  5
65B0
330
1F
100
AcDbEntity
  8
0
100
AcDbCircle
 10
298.2672391064933
 20
211.7721440683999
 30
0.0
 40
3.534293731436835
100
AcDbArc
 50
139.1995560118561
 51
199.1995560118537
  0
ARC
  5
65B1
330
1F
100
AcDbEntity
  8
0
100
AcDbCircle
 10
307.5818171801334
 20
218.7003472986754
 30
0.0
 40
12.84887180507694
100
AcDbArc
 50
180.0
 51
201.0677374818705
  0
LINE
  5
65B2
330
1F
100
AcDbEntity
  8
0
100
AcDbLine
 10
295.5918141221701
 20
214.0815451451584
 30
0.0
 11
302.3740766279427
 21
214.0815451451586
 31
0.0
  0
LINE
  5
65B5
330
1F
100
AcDbEntity
  8
0
100
AcDbLine
 10
311.7448518449644
 20
212.8418820697661
 30
0.0
 11
311.7448518449644
 21
218.7003472986754
 31
0.0
  0
LINE
  5
65C6
330
1F
100
AcDbEntity
  8
0
100
AcDbLine
 10
291.6019453750565
 20
212.7003472986755
 30
0.0
 11
291.6019453750565
 21
213.1440972986755
 31
0.0
  0
LINE
  5
65C7
330
1F
100
AcDbEntity
  8
0
100
AcDbLine
 10
293.6019453750565
 20
213.8313472986754
 30
0.0
 11
291.6019453750565
 21
213.1440972986755
 31
0.0
  0
LINE
  5
65C8
330
1F
100
AcDbEntity
  8
0
100
AcDbLine
 10
293.6019453750565
 20
213.8313472986754
 30
0.0
 11
293.6019453750565
 21
213.1440972986755
 31
0.0
  0
LINE
  5
65C9
330
1F
100
AcDbEntity
  8
0
100
AcDbLine
 10
294.7329453750564
 20
213.1440972986756
 30
0.0
 11
291.6019453750565
 21
213.1440972986755
 31
0.0
  0
LINE
  5
65CA
330
1F
100
AcDbEntity
  8
0
100
AcDbLine
 10
293.6019453750565
 20
213.8313472986754
 30
0.0
 11
294.7329453750564
 21
213.8313472986754
 31
0.0
  0
LINE
  5
6601
330
1F
100
AcDbEntity
  8
AM_7
100
AcDbLine
 10
283.6019453750565
 20
248.7283472986753
 30
0.0
 11
283.6019453750565
 21
211.3033472986754
 31
0.0
1001
GENIUS_GENODEF_13
1002
{
1000
HIER
1070
     0
1002
}
1002
{
1000
MANEDIT
1070
     0
1002
}
1002
{
1000
NOSEL
1070
     0
1002
}
1002
{
1000
BEHIND
1070
     0
1002
}
1002
{
1000
OTHER
1070
     0
1002
}
1002
{
1000
REACTOR
1002
}
1001
GENIUS_GENOBJ-N-CEN_13
1002
{
1000
OWNER
1000
GEN
1002
}
1001
GENIUS_GENCEN_19
1002
{
1040
1.397
1002
}
  0
LINE
  5
661F
330
1F
100
AcDbEntity
  8
0
100
AcDbLine
 10
277.6019453750565
 20
225.7003472986754
 30
0.0
 11
277.6019453750565
 21
226.7003472986754
 31
0.0
  0
ARC
  5
6620
330
1F
100
AcDbEntity
  8
0
100
AcDbCircle
 10
276.6019453750565
 20
225.7003472986754
 30
0.0
 40
1.0
100
AcDbArc
 50
270.0
 51
0.0
  0
LINE
  5
6621
330
1F
100
AcDbEntity
  8
0
100
AcDbLine
 10
275.6019453750565
 20
224.7003472986754
 30
0.0
 11
276.6019453750565
 21
224.7003472986754
 31
0.0
  0
LINE
  5
6635
330
1F
100
AcDbEntity
  8
0
100
AcDbLine
 10
271.6120766279429
 20
209.4627429916414
 30
0.0
 11
264.8298141221703
 21
209.4627429916414
 31
0.0
  0
LINE
  5
6636
330
1F
100
AcDbEntity
  8
0
100
AcDbLine
 10
263.9709453750567
 20
210.9503472986754
 30
0.0
 11
264.8298141221703
 21
209.4627429916414
 31
0.0
  0
LINE
  5
6637
330
1F
100
AcDbEntity
  8
0
100
AcDbLine
 10
272.4709453750567
 20
210.9503472986754
 30
0.0
 11
272.4709453750567
 21
218.7003472986754
 31
0.0
  0
LINE
  5
6638
330
1F
100
AcDbEntity
  8
0
100
AcDbLine
 10
272.4709453750567
 20
210.9503472986754
 30
0.0
 11
271.6120766279429
 21
209.4627429916414
 31
0.0
  0
LINE
  5
6639
330
1F
100
AcDbEntity
  8
0
100
AcDbLine
 10
254.9709453750566
 20
218.7003472986754
 30
0.0
 11
254.9709453750566
 21
213.4503472986754
 31
0.0
  0
LINE
  5
663A
330
1F
100
AcDbEntity
  8
0
100
AcDbLine
 10
255.4590389051487
 20
212.8418820697661
 30
0.0
 11
263.9709453750567
 21
210.9503472986754
 31
0.0
  0
LINE
  5
663B
330
1F
100
AcDbEntity
  8
0
100
AcDbLine
 10
254.9709453750566
 20
213.4503472986754
 30
0.0
 11
255.4590389051487
 21
212.8418820697661
 31
0.0
1001
GENIUS_GENFIL_13
1070
     0
1040
0.5
1040
0.5
1040
0.5
1040
38.73559614542635
1000
~T
  0
ARC
  5
663E
330
1F
100
AcDbEntity
  8
0
100
AcDbCircle
 10
267.5052391064935
 20
211.7721440683999
 30
0.0
 40
3.534293731436835
100
AcDbArc
 50
139.1995560118564
 51
199.1995560118548
  0
ARC
  5
663F
330
1F
100
AcDbEntity
  8
0
100
AcDbCircle
 10
276.8198171801336
 20
218.7003472986754
 30
0.0
 40
12.84887180507694
100
AcDbArc
 50
180.0
 51
201.0677374818707
  0
LINE
  5
6640
330
1F
100
AcDbEntity
  8
0
100
AcDbLine
 10
263.9709453750567
 20
210.9503472986754
 30
0.0
 11
263.9709453750567
 21
218.7003472986754
 31
0.0
  0
ARC
  5
6641
330
1F
100
AcDbEntity
  8
0
100
AcDbCircle
 10
268.9366516436197
 20
211.7721440683999
 30
0.0
 40
3.534293731436835
100
AcDbArc
 50
340.8004439881452
 51
40.80044398814364
  0
ARC
  5
6642
330
1F
100
AcDbEntity
  8
0
100
AcDbCircle
 10
259.6220735699796
 20
218.7003472986754
 30
0.0
 40
12.84887180507694
100
AcDbArc
 50
338.9322625181295
 51
0.0
  0
LINE
  5
6643
330
1F
100
AcDbEntity
  8
0
100
AcDbLine
 10
271.6120766279429
 20
214.0815451451584
 30
0.0
 11
264.8298141221703
 21
214.0815451451586
 31
0.0
  0
LINE
  5
6646
330
1F
100
AcDbEntity
  8
0
100
AcDbLine
 10
255.4590389051487
 20
212.8418820697661
 30
0.0
 11
255.4590389051487
 21
218.7003472986754
 31
0.0
  0
LINE
  5
6651
330
1F
100
AcDbEntity
  8
0
100
AcDbLine
 10
275.6019453750565
 20
224.7003472986754
 30
0.0
 11
275.6019453750565
 21
224.2565972986754
 31
0.0
  0
LINE
  5
6655
330
1F
100
AcDbEntity
  8
0
100
AcDbLine
 10
272.4709453750567
 20
224.2565972986754
 30
0.0
 11
275.6019453750565
 21
224.2565972986754
 31
0.0
  0
LINE
  5
6657
330
1F
100
AcDbEntity
  8
0
100
AcDbLine
 10
275.6019453750565
 20
212.7003472986755
 30
0.0
 11
275.6019453750565
 21
213.1440972986755
 31
0.0
  0
LINE
  5
6658
330
1F
100
AcDbEntity
  8
0
100
AcDbLine
 10
273.6019453750565
 20
213.8313472986754
 30
0.0
 11
275.6019453750565
 21
213.1440972986755
 31
0.0
  0
LINE
  5
6659
330
1F
100
AcDbEntity
  8
0
100
AcDbLine
 10
273.6019453750565
 20
213.8313472986754
 30
0.0
 11
273.6019453750565
 21
213.1440972986755
 31
0.0
  0
LINE
  5
665A
330
1F
100
AcDbEntity
  8
0
100
AcDbLine
 10
272.4709453750567
 20
213.1440972986756
 30
0.0
 11
275.6019453750565
 21
213.1440972986755
 31
0.0
  0
LINE
  5
665B
330
1F
100
AcDbEntity
  8
0
100
AcDbLine
 10
273.6019453750565
 20
213.8313472986754
 30
0.0
 11
272.4709453750567
 21
213.8313472986754
 31
0.0
  0
LINE
  5
6678
330
1F
100
AcDbEntity
  8
0
100
AcDbLine
 10
277.6019453750566
 20
226.7003472986754
 30
0.0
 11
278.0456953750565
 21
226.7003472986754
 31
0.0
  0
LINE
  5
6679
330
1F
100
AcDbEntity
  8
0
100
AcDbLine
 10
278.7329453750565
 20
228.7003472986754
 30
0.0
 11
278.0456953750565
 21
226.7003472986754
 31
0.0
  0
LINE
  5
667A
330
1F
100
AcDbEntity
  8
0
100
AcDbLine
 10
278.7329453750565
 20
228.7003472986754
 30
0.0
 11
278.0456953750567
 21
228.7003472986754
 31
0.0
  0
LINE
  5
667C
330
1F
100
AcDbEntity
  8
0
100
AcDbLine
 10
278.0456953750567
 20
229.8313472986753
 30
0.0
 11
278.0456953750567
 21
226.7003472986754
 31
0.0
  0
LINE
  5
667D
330
1F
100
AcDbEntity
  8
0
100
AcDbLine
 10
278.7329453750565
 20
228.7003472986754
 30
0.0
 11
278.7329453750565
 21
229.8313472986753
 31
0.0
  0
LINE
  5
66F7
330
1F
100
AcDbEntity
  8
AM_7
100
AcDbLine
 10
253.5739453750567
 20
218.7003472986754
 30
0.0
 11
313.6299453750563
 21
218.7003472986754
 31
0.0
1001
GENIUS_GENOBJ-N-CEN_13
1002
{
1000
OWNER
1000
GEN
1002
}
1001
GENIUS_GENODEF_13
1002
{
1000
HIER
1070
     0
1002
}
1002
{
1000
MANEDIT
1070
     0
1002
}
1002
{
1000
NOSEL
1070
     0
1002
}
1002
{
1000
BEHIND
1070
     0
1002
}
1002
{
1000
OTHER
1070
     0
1002
}
1002
{
1000
REACTOR
1002
}
1001
GENIUS_GENCEN_19
1002
{
1040
1.397
1002
}
  0
LINE
  5
6735
330
1F
100
AcDbEntity
  8
0
100
AcDbLine
 10
290.1019453750565
 20
268.7972550447002
 30
0.0
 11
290.1019453750565
 21
267.5389247955024
 31
0.0
  0
LINE
  5
6736
330
1F
100
AcDbEntity
  8
0
100
AcDbLine
 10
291.6019453750565
 20
279.5389247955025
 30
0.0
 11
289.3754480669528
 21
279.5389247955025
 31
0.0
  0
LINE
  5
6737
330
1F
100
AcDbEntity
  8
0
100
AcDbLine
 10
291.6019453750565
 20
267.5389247955024
 30
0.0
 11
289.3754480669527
 21
267.5389247955024
 31
0.0
  0
CIRCLE
  5
6738
330
1F
100
AcDbEntity
  8
0
100
AcDbCircle
 10
283.6019453750565
 20
273.5389247955025
 30
0.0
 40
2.500000000000767
  0
CIRCLE
  5
6739
330
1F
100
AcDbEntity
  8
0
100
AcDbCircle
 10
283.6019453750565
 20
273.5389247955025
 30
0.0
 40
2.99999999999855
  0
LINE
  5
673A
330
1F
100
AcDbEntity
  8
0
100
AcDbLine
 10
311.7448518449644
 20
267.6804595665931
 30
0.0
 11
311.7448518449644
 21
273.5389247955025
 31
0.0
  0
LINE
  5
673B
330
1F
100
AcDbEntity
  8
0
100
AcDbLine
 10
312.2329453750564
 20
268.2889247955024
 30
0.0
 11
311.7448518449644
 21
267.6804595665931
 31
0.0
1001
GENIUS_GENFIL_13
1070
     0
1040
0.5
1040
0.5
1040
0.5
1040
38.73559614542635
1000
~T
1001
GENIUS_GENOREF_13
1005
6761
  0
LINE
  5
673C
330
1F
100
AcDbEntity
  8
0
100
AcDbLine
 10
312.2329453750564
 20
273.5389247955025
 30
0.0
 11
312.2329453750564
 21
268.2889247955024
 31
0.0
  0
LINE
  5
673D
330
1F
100
AcDbEntity
  8
0
100
AcDbLine
 10
311.7448518449644
 20
267.6804595665931
 30
0.0
 11
303.2329453750564
 21
265.7889247955024
 31
0.0
  0
LINE
  5
673E
330
1F
100
AcDbEntity
  8
0
100
AcDbLine
 10
311.7448518449644
 20
279.3973900244118
 30
0.0
 11
303.2329453750564
 21
281.2889247955025
 31
0.0
  0
LINE
  5
673F
330
1F
100
AcDbEntity
  8
0
100
AcDbLine
 10
312.2329453750564
 20
273.5389247955025
 30
0.0
 11
312.2329453750564
 21
278.7889247955025
 31
0.0
  0
LINE
  5
6740
330
1F
100
AcDbEntity
  8
0
100
AcDbLine
 10
312.2329453750564
 20
278.7889247955025
 30
0.0
 11
311.7448518449644
 21
279.3973900244118
 31
0.0
1001
GENIUS_GENFIL_13
1070
     0
1040
0.5000000000000053
1040
0.4999999999999858
1040
0.5000000000000053
1040
38.73559614542114
1000
~T
  0
LINE
  5
6741
330
1F
100
AcDbEntity
  8
0
100
AcDbLine
 10
311.7448518449644
 20
279.3973900244118
 30
0.0
 11
311.7448518449644
 21
273.5389247955025
 31
0.0
  0
LINE
  5
6742
330
1F
100
AcDbEntity
  8
0
100
AcDbLine
 10
303.2329453750564
 20
281.5389247955025
 30
0.0
 11
294.7329453750564
 21
281.5389247955025
 31
0.0
  0
LINE
  5
6743
330
1F
100
AcDbEntity
  8
0
100
AcDbLine
 10
303.2329453750564
 20
281.5389247955025
 30
0.0
 11
303.2329453750564
 21
273.5389247955025
 31
0.0
  0
LINE
  5
6744
330
1F
100
AcDbEntity
  8
0
100
AcDbLine
 10
303.2329453750564
 20
265.5389247955024
 30
0.0
 11
303.2329453750564
 21
273.5389247955025
 31
0.0
  0
LINE
  5
6745
330
1F
100
AcDbEntity
  8
0
100
AcDbLine
 10
303.2329453750564
 20
265.5389247955024
 30
0.0
 11
294.7329453750564
 21
265.5389247955024
 31
0.0
  0
LINE
  5
6746
330
1F
100
AcDbEntity
  8
0
100
AcDbLine
 10
294.7329453750564
 20
281.5389247955025
 30
0.0
 11
294.7329453750564
 21
265.5389247955024
 31
0.0
  0
ARC
  5
6747
330
1F
100
AcDbEntity
  8
0
100
AcDbCircle
 10
293.4889329278597
 20
269.5389247955024
 30
0.0
 40
9.744012447196734
100
AcDbArc
 50
335.7632175944485
 51
24.23678240555146
  0
ARC
  5
6748
330
1F
100
AcDbEntity
  8
0
100
AcDbCircle
 10
293.4889329278597
 20
277.5389247955025
 30
0.0
 40
9.744012447196734
100
AcDbArc
 50
335.7632175944485
 51
24.23678240555146
  0
ARC
  5
6749
330
1F
100
AcDbEntity
  8
0
100
AcDbCircle
 10
304.4769578222531
 20
269.5389247955024
 30
0.0
 40
9.744012447196734
100
AcDbArc
 50
155.7632175944485
 51
204.2367824055515
  0
ARC
  5
674A
330
1F
100
AcDbEntity
  8
0
100
AcDbCircle
 10
304.4769578222531
 20
277.5389247955025
 30
0.0
 40
9.744012447196734
100
AcDbArc
 50
155.7632175944485
 51
204.2367824055515
  0
LINE
  5
674B
330
1F
100
AcDbEntity
  8
0
100
AcDbLine
 10
295.5918141221701
 20
273.5389247955025
 30
0.0
 11
302.3740766279427
 21
273.5389247955025
 31
0.0
  0
LINE
  5
674C
330
1F
100
AcDbEntity
  8
0
100
AcDbLine
 10
293.6019453750566
 20
278.4079247955025
 30
0.0
 11
291.6019453750566
 21
279.0951747955024
 31
0.0
  0
LINE
  5
674D
330
1F
100
AcDbEntity
  8
0
100
AcDbLine
 10
293.6019453750566
 20
278.4079247955025
 30
0.0
 11
293.6019453750566
 21
279.0951747955024
 31
0.0
  0
LINE
  5
674E
330
1F
100
AcDbEntity
  8
0
100
AcDbLine
 10
294.7329453750564
 20
279.0951747955024
 30
0.0
 11
291.6019453750566
 21
279.0951747955024
 31
0.0
  0
LINE
  5
674F
330
1F
100
AcDbEntity
  8
0
100
AcDbLine
 10
293.6019453750566
 20
278.4079247955025
 30
0.0
 11
294.7329453750564
 21
278.4079247955025
 31
0.0
  0
LINE
  5
6750
330
1F
100
AcDbEntity
  8
0
100
AcDbLine
 10
293.6019453750566
 20
278.4079247955025
 30
0.0
 11
293.6019453750566
 21
273.5389247955025
 31
0.0
  0
LINE
  5
6751
330
1F
100
AcDbEntity
  8
0
100
AcDbLine
 10
293.6019453750566
 20
268.6699247955025
 30
0.0
 11
291.6019453750566
 21
267.9826747955025
 31
0.0
  0
LINE
  5
6752
330
1F
100
AcDbEntity
  8
0
100
AcDbLine
 10
293.6019453750566
 20
268.6699247955025
 30
0.0
 11
293.6019453750566
 21
267.9826747955026
 31
0.0
  0
LINE
  5
6753
330
1F
100
AcDbEntity
  8
0
100
AcDbLine
 10
294.7329453750564
 20
267.9826747955026
 30
0.0
 11
291.6019453750566
 21
267.9826747955026
 31
0.0
  0
LINE
  5
6754
330
1F
100
AcDbEntity
  8
0
100
AcDbLine
 10
293.6019453750566
 20
268.6699247955025
 30
0.0
 11
294.7329453750564
 21
268.6699247955025
 31
0.0
  0
LINE
  5
6755
330
1F
100
AcDbEntity
  8
0
100
AcDbLine
 10
293.6019453750566
 20
268.6699247955025
 30
0.0
 11
293.6019453750566
 21
273.5389247955025
 31
0.0
  0
LWPOLYLINE
  5
6756
330
1F
100
AcDbEntity
  8
0
100
AcDbPolyline
 90
        6
 70
     1
 43
0.0
 10
274.3643410680225
 20
273.5389247955025
 10
278.9831432215395
 20
265.5389247955025
 10
288.2207475285735
 20
265.5389247955025
 10
292.8395496820906
 20
273.5389247955025
 10
288.2207475285735
 20
281.5389247955025
 10
278.9831432215395
 20
281.5389247955025
  0
CIRCLE
  5
6757
330
1F
100
AcDbEntity
  8
0
100
AcDbCircle
 10
283.6019453750565
 20
273.5389247955025
 30
0.0
 40
7.750000000000014
  0
LINE
  5
6758
330
1F
100
AcDbEntity
  8
0
100
AcDbLine
 10
290.1019453750565
 20
278.2805945463048
 30
0.0
 11
290.1019453750565
 21
279.5389247955025
 31
0.0
  0
LINE
  5
675A
330
1F
100
AcDbEntity
  8
AM_7
100
AcDbLine
 10
283.6019453750565
 20
282.9359247955025
 30
0.0
 11
283.6019453750565
 21
264.1419247955025
 31
0.0
1001
GENIUS_GENODEF_13
1002
{
1000
HIER
1070
     0
1002
}
1002
{
1000
MANEDIT
1070
     0
1002
}
1002
{
1000
NOSEL
1070
     0
1002
}
1002
{
1000
BEHIND
1070
     0
1002
}
1002
{
1000
OTHER
1070
     0
1002
}
1002
{
1000
REACTOR
1002
}
1001
GENIUS_GENOBJ-N-CEN_13
1002
{
1000
OWNER
1000
GEN
1002
}
1001
GENIUS_GENCEN_19
1002
{
1040
1.397
1002
}
  0
CIRCLE
  5
675B
330
1F
100
AcDbEntity
  8
0
100
AcDbCircle
 10
283.6019453750565
 20
273.5389247955025
 30
0.0
 40
5.250000074906195
  0
CIRCLE
  5
675C
330
1F
100
AcDbEntity
  8
0
100
AcDbCircle
 10
283.6019453750565
 20
273.5389247955025
 30
0.0
 40
5.858465228909324
  0
LINE
  5
675D
330
1F
100
AcDbEntity
  8
0
100
AcDbLine
 10
291.6019453750565
 20
267.9826747955026
 30
0.0
 11
291.6019453750565
 21
267.5389247955024
 31
0.0
  0
LINE
  5
675E
330
1F
100
AcDbEntity
  8
0
100
AcDbLine
 10
291.6019453750565
 20
279.5389247955025
 30
0.0
 11
291.6019453750565
 21
279.0951747955024
 31
0.0
  0
LINE
  5
675F
330
1F
100
AcDbEntity
  8
0
100
AcDbLine
 10
291.6019453750565
 20
279.0951747955024
 30
0.0
 11
291.6019453750565
 21
275.6825183349515
 31
0.0
  0
LINE
  5
6760
330
1F
100
AcDbEntity
  8
0
100
AcDbLine
 10
291.6019453750565
 20
271.3953312560535
 30
0.0
 11
291.6019453750565
 21
267.9826747955026
 31
0.0
  0
POINT
  5
6761
330
1F
100
AcDbEntity
  8
0
 60
     1
100
AcDbPoint
 10
-56.92459953567425
 20
25.57404731603166
 30
0.0
1001
GENIUS_GENODEF_13
1002
{
1000
HIER
1070
     1
1002
}
1002
{
1000
MANEDIT
1070
     0
1002
}
1002
{
1000
NOSEL
1070
     0
1002
}
1002
{
1000
BEHIND
1070
     0
1002
}
1002
{
1000
REACTOR
1002
}
1001
GENIUS_GENOBJ-N-CHA_13
1002
{
1000
OWNER
1000
GEN
1002
}
1001
GENIUS_GENOENT_13
1002
{
1000
MYREF
1005
6761
1002
}
1002
{
1000
GRP
1005
0
1002
}
1001
GENIUS_GENOLIS_13
1002
{
1000
ENT
1005
673B
1002
}
  0
LINE
  5
6762
330
1F
100
AcDbEntity
  8
0
100
AcDbLine
 10
277.1019453750565
 20
268.7972550447002
 30
0.0
 11
277.1019453750565
 21
267.5389247955024
 31
0.0
  0
LINE
  5
6763
330
1F
100
AcDbEntity
  8
0
100
AcDbLine
 10
275.6019453750565
 20
279.5389247955025
 30
0.0
 11
277.8284426831602
 21
279.5389247955025
 31
0.0
  0
LINE
  5
6764
330
1F
100
AcDbEntity
  8
0
100
AcDbLine
 10
275.6019453750565
 20
267.5389247955024
 30
0.0
 11
277.8284426831604
 21
267.5389247955024
 31
0.0
  0
LINE
  5
6765
330
1F
100
AcDbEntity
  8
0
100
AcDbLine
 10
255.4590389051487
 20
267.6804595665931
 30
0.0
 11
255.4590389051487
 21
273.5389247955025
 31
0.0
  0
LINE
  5
6766
330
1F
100
AcDbEntity
  8
0
100
AcDbLine
 10
254.9709453750566
 20
268.2889247955024
 30
0.0
 11
255.4590389051487
 21
267.6804595665931
 31
0.0
1001
GENIUS_GENFIL_13
1070
     0
1040
0.5
1040
0.5
1040
0.5
1040
38.73559614542635
1000
~T
1001
GENIUS_GENOREF_13
1005
6786
  0
LINE
  5
6767
330
1F
100
AcDbEntity
  8
0
100
AcDbLine
 10
254.9709453750566
 20
273.5389247955025
 30
0.0
 11
254.9709453750566
 21
268.2889247955024
 31
0.0
  0
LINE
  5
6768
330
1F
100
AcDbEntity
  8
0
100
AcDbLine
 10
255.4590389051487
 20
267.6804595665931
 30
0.0
 11
263.9709453750567
 21
265.7889247955024
 31
0.0
  0
LINE
  5
6769
330
1F
100
AcDbEntity
  8
0
100
AcDbLine
 10
255.4590389051487
 20
279.3973900244118
 30
0.0
 11
263.9709453750567
 21
281.2889247955025
 31
0.0
  0
LINE
  5
676A
330
1F
100
AcDbEntity
  8
0
100
AcDbLine
 10
254.9709453750566
 20
273.5389247955025
 30
0.0
 11
254.9709453750566
 21
278.7889247955025
 31
0.0
  0
LINE
  5
676B
330
1F
100
AcDbEntity
  8
0
100
AcDbLine
 10
254.9709453750566
 20
278.7889247955025
 30
0.0
 11
255.4590389051487
 21
279.3973900244118
 31
0.0
1001
GENIUS_GENFIL_13
1070
     0
1040
0.5000000000000053
1040
0.4999999999999858
1040
0.5000000000000053
1040
38.73559614542114
1000
~T
  0
LINE
  5
676C
330
1F
100
AcDbEntity
  8
0
100
AcDbLine
 10
255.4590389051487
 20
279.3973900244118
 30
0.0
 11
255.4590389051487
 21
273.5389247955025
 31
0.0
  0
LINE
  5
676D
330
1F
100
AcDbEntity
  8
0
100
AcDbLine
 10
263.9709453750567
 20
281.5389247955025
 30
0.0
 11
272.4709453750567
 21
281.5389247955025
 31
0.0
  0
LINE
  5
676E
330
1F
100
AcDbEntity
  8
0
100
AcDbLine
 10
263.9709453750567
 20
281.5389247955025
 30
0.0
 11
263.9709453750567
 21
273.5389247955025
 31
0.0
  0
LINE
  5
676F
330
1F
100
AcDbEntity
  8
0
100
AcDbLine
 10
263.9709453750567
 20
265.5389247955024
 30
0.0
 11
263.9709453750567
 21
273.5389247955025
 31
0.0
  0
LINE
  5
6770
330
1F
100
AcDbEntity
  8
0
100
AcDbLine
 10
263.9709453750567
 20
265.5389247955024
 30
0.0
 11
272.4709453750567
 21
265.5389247955024
 31
0.0
  0
LINE
  5
6771
330
1F
100
AcDbEntity
  8
0
100
AcDbLine
 10
272.4709453750567
 20
281.5389247955025
 30
0.0
 11
272.4709453750567
 21
265.5389247955024
 31
0.0
  0
ARC
  5
6772
330
1F
100
AcDbEntity
  8
0
100
AcDbCircle
 10
273.7149578222534
 20
269.5389247955024
 30
0.0
 40
9.744012447196734
100
AcDbArc
 50
155.7632175944496
 51
204.2367824055503
  0
ARC
  5
6773
330
1F
100
AcDbEntity
  8
0
100
AcDbCircle
 10
273.7149578222534
 20
277.5389247955025
 30
0.0
 40
9.744012447196734
100
AcDbArc
 50
155.7632175944496
 51
204.2367824055503
  0
ARC
  5
6774
330
1F
100
AcDbEntity
  8
0
100
AcDbCircle
 10
262.72693292786
 20
269.5389247955024
 30
0.0
 40
9.744012447196734
100
AcDbArc
 50
335.7632175944496
 51
24.23678240555035
  0
ARC
  5
6775
330
1F
100
AcDbEntity
  8
0
100
AcDbCircle
 10
262.72693292786
 20
277.5389247955025
 30
0.0
 40
9.744012447196734
100
AcDbArc
 50
335.7632175944496
 51
24.23678240555035
  0
LINE
  5
6776
330
1F
100
AcDbEntity
  8
0
100
AcDbLine
 10
271.6120766279429
 20
273.5389247955025
 30
0.0
 11
264.8298141221703
 21
273.5389247955025
 31
0.0
  0
LINE
  5
6777
330
1F
100
AcDbEntity
  8
0
100
AcDbLine
 10
273.6019453750564
 20
278.4079247955025
 30
0.0
 11
275.6019453750564
 21
279.0951747955024
 31
0.0
  0
LINE
  5
6778
330
1F
100
AcDbEntity
  8
0
100
AcDbLine
 10
273.6019453750564
 20
278.4079247955025
 30
0.0
 11
273.6019453750564
 21
279.0951747955024
 31
0.0
  0
LINE
  5
6779
330
1F
100
AcDbEntity
  8
0
100
AcDbLine
 10
272.4709453750567
 20
279.0951747955024
 30
0.0
 11
275.6019453750564
 21
279.0951747955024
 31
0.0
  0
LINE
  5
677A
330
1F
100
AcDbEntity
  8
0
100
AcDbLine
 10
273.6019453750564
 20
278.4079247955025
 30
0.0
 11
272.4709453750567
 21
278.4079247955025
 31
0.0
  0
LINE
  5
677B
330
1F
100
AcDbEntity
  8
0
100
AcDbLine
 10
273.6019453750564
 20
278.4079247955025
 30
0.0
 11
273.6019453750564
 21
273.5389247955025
 31
0.0
  0
LINE
  5
677C
330
1F
100
AcDbEntity
  8
0
100
AcDbLine
 10
273.6019453750564
 20
268.6699247955025
 30
0.0
 11
275.6019453750564
 21
267.9826747955025
 31
0.0
  0
LINE
  5
677D
330
1F
100
AcDbEntity
  8
0
100
AcDbLine
 10
273.6019453750564
 20
268.6699247955025
 30
0.0
 11
273.6019453750564
 21
267.9826747955026
 31
0.0
  0
LINE
  5
677E
330
1F
100
AcDbEntity
  8
0
100
AcDbLine
 10
272.4709453750567
 20
267.9826747955026
 30
0.0
 11
275.6019453750564
 21
267.9826747955026
 31
0.0
  0
LINE
  5
677F
330
1F
100
AcDbEntity
  8
0
100
AcDbLine
 10
273.6019453750564
 20
268.6699247955025
 30
0.0
 11
272.4709453750567
 21
268.6699247955025
 31
0.0
  0
LINE
  5
6780
330
1F
100
AcDbEntity
  8
0
100
AcDbLine
 10
273.6019453750564
 20
268.6699247955025
 30
0.0
 11
273.6019453750564
 21
273.5389247955025
 31
0.0
  0
LINE
  5
6781
330
1F
100
AcDbEntity
  8
0
100
AcDbLine
 10
277.1019453750565
 20
278.2805945463048
 30
0.0
 11
277.1019453750565
 21
279.5389247955025
 31
0.0
  0
LINE
  5
6782
330
1F
100
AcDbEntity
  8
0
100
AcDbLine
 10
275.6019453750565
 20
267.9826747955026
 30
0.0
 11
275.6019453750565
 21
267.5389247955024
 31
0.0
  0
LINE
  5
6783
330
1F
100
AcDbEntity
  8
0
100
AcDbLine
 10
275.6019453750565
 20
279.5389247955025
 30
0.0
 11
275.6019453750565
 21
279.0951747955024
 31
0.0
  0
LINE
  5
6784
330
1F
100
AcDbEntity
  8
0
100
AcDbLine
 10
275.6019453750565
 20
279.0951747955024
 30
0.0
 11
275.6019453750565
 21
275.6825183349515
 31
0.0
  0
LINE
  5
6785
330
1F
100
AcDbEntity
  8
0
100
AcDbLine
 10
275.6019453750565
 20
271.3953312560535
 30
0.0
 11
275.6019453750565
 21
267.9826747955026
 31
0.0
  0
POINT
  5
6786
330
1F
100
AcDbEntity
  8
0
 60
     1
100
AcDbPoint
 10
624.1284902857873
 20
25.57404731603166
 30
0.0
 50
180.0
1001
GENIUS_GENODEF_13
1002
{
1000
HIER
1070
     1
1002
}
1002
{
1000
MANEDIT
1070
     0
1002
}
1002
{
1000
NOSEL
1070
     0
1002
}
1002
{
1000
BEHIND
1070
     0
1002
}
1002
{
1000
REACTOR
1002
}
1001
GENIUS_GENOBJ-N-CHA_13
1002
{
1000
OWNER
1000
GEN
1002
}
1001
GENIUS_GENOENT_13
1002
{
1000
MYREF
1005
6786
1002
}
1002
{
1000
GRP
1005
0
1002
}
1001
GENIUS_GENOLIS_13
1002
{
1000
ENT
1005
6766
1002
}
  0
LINE
  5
6829
330
1F
100
AcDbEntity
  8
AM_7
100
AcDbLine
 10
253.5739453750567
 20
273.5389247955025
 30
0.0
 11
313.6299453750563
 21
273.5389247955025
 31
0.0
1001
GENIUS_GENOBJ-N-CEN_13
1002
{
1000
OWNER
1000
GEN
1002
}
1001
GENIUS_GENODEF_13
1002
{
1000
HIER
1070
     0
1002
}
1002
{
1000
MANEDIT
1070
     0
1002
}
1002
{
1000
NOSEL
1070
     0
1002
}
1002
{
1000
BEHIND
1070
     0
1002
}
1002
{
1000
OTHER
1070
     0
1002
}
1002
{
1000
REACTOR
1002
}
1001
GENIUS_GENCEN_19
1002
{
1040
1.397
1002
}
  0
LINE
  5
6AB4
330
1F
100
AcDbEntity
  8
0
100
AcDbLine
 10
274.3643410680225
 20
230.6902160457891
 30
0.0
 11
274.3643410680225
 21
237.4724785515617
 31
0.0
  0
LINE
  5
6AB5
330
1F
100
AcDbEntity
  8
0
100
AcDbLine
 10
275.8519453750566
 20
238.3313472986753
 30
0.0
 11
274.3643410680225
 21
237.4724785515617
 31
0.0
  0
LINE
  5
6AB6
330
1F
100
AcDbEntity
  8
0
100
AcDbLine
 10
275.8519453750565
 20
229.8313472986753
 30
0.0
 11
283.6019453750565
 21
229.8313472986753
 31
0.0
  0
LINE
  5
6AB7
330
1F
100
AcDbEntity
  8
0
100
AcDbLine
 10
275.8519453750565
 20
229.8313472986753
 30
0.0
 11
274.3643410680225
 21
230.6902160457891
 31
0.0
  0
LINE
  5
6AB8
330
1F
100
AcDbEntity
  8
0
100
AcDbLine
 10
283.6019453750566
 20
247.3313472986752
 30
0.0
 11
278.3519453750566
 21
247.3313472986753
 31
0.0
  0
LINE
  5
6AB9
330
1F
100
AcDbEntity
  8
0
100
AcDbLine
 10
277.7434801461473
 20
246.8432537685834
 30
0.0
 11
275.8519453750566
 21
238.3313472986753
 31
0.0
  0
LINE
  5
6ABA
330
1F
100
AcDbEntity
  8
0
100
AcDbLine
 10
278.3519453750566
 20
247.3313472986753
 30
0.0
 11
277.7434801461473
 21
246.8432537685834
 31
0.0
1001
GENIUS_GENFIL_13
1070
     0
1040
0.5
1040
0.5
1040
0.5
1040
38.73559614542635
1000
~T
  0
ARC
  5
6ABB
330
1F
100
AcDbEntity
  8
0
100
AcDbCircle
 10
276.673742144781
 20
234.7970535672385
 30
0.0
 40
3.534293731436835
100
AcDbArc
 50
49.19955601185564
 51
109.1995560118537
  0
ARC
  5
6ABC
330
1F
100
AcDbEntity
  8
0
100
AcDbCircle
 10
283.6019453750565
 20
225.4824754935984
 30
0.0
 40
12.84887180507694
100
AcDbArc
 50
90.0
 51
111.0677374818705
  0
LINE
  5
6ABD
330
1F
100
AcDbEntity
  8
0
100
AcDbLine
 10
275.8519453750566
 20
238.3313472986753
 30
0.0
 11
283.6019453750566
 21
238.3313472986753
 31
0.0
  0
ARC
  5
6ABE
330
1F
100
AcDbEntity
  8
0
100
AcDbCircle
 10
276.673742144781
 20
233.3656410301123
 30
0.0
 40
3.534293731436835
100
AcDbArc
 50
250.8004439881463
 51
310.8004439881432
  0
ARC
  5
6ABF
330
1F
100
AcDbEntity
  8
0
100
AcDbCircle
 10
283.6019453750566
 20
242.6802191037523
 30
0.0
 40
12.84887180507694
100
AcDbArc
 50
248.9322625181294
 51
270.0
  0
LINE
  5
6AC0
330
1F
100
AcDbEntity
  8
0
100
AcDbLine
 10
278.9831432215396
 20
230.6902160457891
 30
0.0
 11
278.9831432215398
 21
237.4724785515617
 31
0.0
  0
LINE
  5
6AC1
330
1F
100
AcDbEntity
  8
0
100
AcDbLine
 10
277.7434801461473
 20
246.8432537685834
 30
0.0
 11
283.6019453750566
 21
246.8432537685833
 31
0.0
  0
LINE
  5
6C1C
330
1F
100
AcDbEntity
  8
0
100
AcDbLine
 10
295.5918141221701
 20
227.9379516057094
 30
0.0
 11
302.3740766279427
 21
227.9379516057093
 31
0.0
  0
LINE
  5
6C1D
330
1F
100
AcDbEntity
  8
0
100
AcDbLine
 10
303.2329453750564
 20
226.4503472986753
 30
0.0
 11
302.3740766279427
 21
227.9379516057093
 31
0.0
  0
LINE
  5
6C1E
330
1F
100
AcDbEntity
  8
0
100
AcDbLine
 10
294.7329453750564
 20
226.4503472986755
 30
0.0
 11
294.7329453750564
 21
218.7003472986754
 31
0.0
  0
LINE
  5
6C1F
330
1F
100
AcDbEntity
  8
0
100
AcDbLine
 10
294.7329453750564
 20
226.4503472986754
 30
0.0
 11
295.5918141221701
 21
227.9379516057094
 31
0.0
  0
LINE
  5
6C20
330
1F
100
AcDbEntity
  8
0
100
AcDbLine
 10
312.2329453750564
 20
218.7003472986753
 30
0.0
 11
312.2329453750564
 21
223.9503472986753
 31
0.0
  0
LINE
  5
6C21
330
1F
100
AcDbEntity
  8
0
100
AcDbLine
 10
311.7448518449644
 20
224.5588125275846
 30
0.0
 11
303.2329453750564
 21
226.4503472986753
 31
0.0
  0
LINE
  5
6C22
330
1F
100
AcDbEntity
  8
0
100
AcDbLine
 10
312.2329453750564
 20
223.9503472986753
 30
0.0
 11
311.7448518449644
 21
224.5588125275846
 31
0.0
1001
GENIUS_GENFIL_13
1070
     0
1040
0.5
1040
0.5
1040
0.5
1040
38.73559614542635
1000
~T
  0
ARC
  5
6C23
330
1F
100
AcDbEntity
  8
0
100
AcDbCircle
 10
299.6986516436195
 20
225.6285505289508
 30
0.0
 40
3.534293731436835
100
AcDbArc
 50
319.199556011857
 51
19.1995560118521
  0
ARC
  5
6C24
330
1F
100
AcDbEntity
  8
0
100
AcDbCircle
 10
290.3840735699795
 20
218.7003472986754
 30
0.0
 40
12.84887180507694
100
AcDbArc
 50
0.0
 51
21.067737481869
  0
LINE
  5
6C25
330
1F
100
AcDbEntity
  8
0
100
AcDbLine
 10
303.2329453750564
 20
226.4503472986753
 30
0.0
 11
303.2329453750564
 21
218.7003472986753
 31
0.0
  0
ARC
  5
6C26
330
1F
100
AcDbEntity
  8
0
100
AcDbCircle
 10
298.2672391064933
 20
225.6285505289508
 30
0.0
 40
3.534293731436835
100
AcDbArc
 50
160.8004439881447
 51
220.8004439881427
  0
ARC
  5
6C27
330
1F
100
AcDbEntity
  8
0
100
AcDbCircle
 10
307.5818171801334
 20
218.7003472986753
 30
0.0
 40
12.84887180507694
100
AcDbArc
 50
158.9322625181279
 51
180.0
  0
LINE
  5
6C28
330
1F
100
AcDbEntity
  8
0
100
AcDbLine
 10
295.5918141221701
 20
223.3191494521924
 30
0.0
 11
302.3740766279427
 21
223.3191494521922
 31
0.0
  0
LINE
  5
6C29
330
1F
100
AcDbEntity
  8
0
100
AcDbLine
 10
311.7448518449644
 20
224.5588125275846
 30
0.0
 11
311.7448518449644
 21
218.7003472986753
 31
0.0
  0
LINE
  5
6C2A
330
1F
100
AcDbEntity
  8
0
100
AcDbLine
 10
291.6019453750565
 20
224.7003472986754
 30
0.0
 11
291.6019453750565
 21
224.2565972986754
 31
0.0
  0
LINE
  5
6C2B
330
1F
100
AcDbEntity
  8
0
100
AcDbLine
 10
293.6019453750565
 20
223.5693472986754
 30
0.0
 11
291.6019453750565
 21
224.2565972986754
 31
0.0
  0
LINE
  5
6C2C
330
1F
100
AcDbEntity
  8
0
100
AcDbLine
 10
293.6019453750565
 20
223.5693472986754
 30
0.0
 11
293.6019453750565
 21
224.2565972986753
 31
0.0
  0
LINE
  5
6C2D
330
1F
100
AcDbEntity
  8
0
100
AcDbLine
 10
294.7329453750564
 20
224.2565972986753
 30
0.0
 11
291.6019453750565
 21
224.2565972986753
 31
0.0
  0
LINE
  5
6C2E
330
1F
100
AcDbEntity
  8
0
100
AcDbLine
 10
293.6019453750565
 20
223.5693472986754
 30
0.0
 11
294.7329453750564
 21
223.5693472986754
 31
0.0
  0
LINE
  5
6C2F
330
1F
100
AcDbEntity
  8
0
100
AcDbLine
 10
289.6019453750565
 20
225.7003472986754
 30
0.0
 11
289.6019453750565
 21
226.7003472986754
 31
0.0
  0
ARC
  5
6C30
330
1F
100
AcDbEntity
  8
0
100
AcDbCircle
 10
290.6019453750565
 20
225.7003472986754
 30
0.0
 40
1.0
100
AcDbArc
 50
180.0
 51
270.0
  0
LINE
  5
6C31
330
1F
100
AcDbEntity
  8
0
100
AcDbLine
 10
289.6019453750565
 20
226.7003472986754
 30
0.0
 11
289.1581953750565
 21
226.7003472986754
 31
0.0
  0
LINE
  5
6C32
330
1F
100
AcDbEntity
  8
0
100
AcDbLine
 10
288.4709453750565
 20
228.7003472986754
 30
0.0
 11
289.1581953750565
 21
226.7003472986754
 31
0.0
  0
LINE
  5
6C33
330
1F
100
AcDbEntity
  8
0
100
AcDbLine
 10
288.4709453750565
 20
228.7003472986754
 30
0.0
 11
289.1581953750564
 21
228.7003472986754
 31
0.0
  0
LINE
  5
6C34
330
1F
100
AcDbEntity
  8
0
100
AcDbLine
 10
289.1581953750564
 20
229.8313472986753
 30
0.0
 11
289.1581953750564
 21
226.7003472986754
 31
0.0
  0
LINE
  5
6C35
330
1F
100
AcDbEntity
  8
0
100
AcDbLine
 10
288.4709453750565
 20
228.7003472986754
 30
0.0
 11
288.4709453750565
 21
229.8313472986753
 31
0.0
  0
LINE
  5
6C36
330
1F
100
AcDbEntity
  8
0
100
AcDbLine
 10
292.8395496820905
 20
230.6902160457891
 30
0.0
 11
292.8395496820905
 21
237.4724785515617
 31
0.0
  0
LINE
  5
6C37
330
1F
100
AcDbEntity
  8
0
100
AcDbLine
 10
291.3519453750564
 20
238.3313472986753
 30
0.0
 11
292.8395496820905
 21
237.4724785515617
 31
0.0
  0
LINE
  5
6C38
330
1F
100
AcDbEntity
  8
0
100
AcDbLine
 10
291.3519453750565
 20
229.8313472986753
 30
0.0
 11
283.6019453750565
 21
229.8313472986753
 31
0.0
  0
LINE
  5
6C39
330
1F
100
AcDbEntity
  8
0
100
AcDbLine
 10
291.3519453750565
 20
229.8313472986753
 30
0.0
 11
292.8395496820905
 21
230.6902160457891
 31
0.0
  0
LINE
  5
6C3A
330
1F
100
AcDbEntity
  8
0
100
AcDbLine
 10
283.6019453750564
 20
247.3313472986752
 30
0.0
 11
288.8519453750564
 21
247.3313472986753
 31
0.0
  0
LINE
  5
6C3B
330
1F
100
AcDbEntity
  8
0
100
AcDbLine
 10
289.4604106039657
 20
246.8432537685834
 30
0.0
 11
291.3519453750564
 21
238.3313472986753
 31
0.0
  0
LINE
  5
6C3C
330
1F
100
AcDbEntity
  8
0
100
AcDbLine
 10
288.8519453750564
 20
247.3313472986753
 30
0.0
 11
289.4604106039657
 21
246.8432537685834
 31
0.0
1001
GENIUS_GENFIL_13
1070
     0
1040
0.5
1040
0.5
1040
0.5
1040
38.73559614542635
1000
~T
  0
ARC
  5
6C3D
330
1F
100
AcDbEntity
  8
0
100
AcDbCircle
 10
290.530148605332
 20
234.7970535672385
 30
0.0
 40
3.534293731436835
100
AcDbArc
 50
70.80044398814473
 51
130.8004439881454
  0
ARC
  5
6C3E
330
1F
100
AcDbEntity
  8
0
100
AcDbCircle
 10
283.6019453750565
 20
225.4824754935984
 30
0.0
 40
12.84887180507694
100
AcDbArc
 50
68.93226251813098
 51
90.0
  0
LINE
  5
6C3F
330
1F
100
AcDbEntity
  8
0
100
AcDbLine
 10
291.3519453750564
 20
238.3313472986753
 30
0.0
 11
283.6019453750564
 21
238.3313472986753
 31
0.0
  0
ARC
  5
6C40
330
1F
100
AcDbEntity
  8
0
100
AcDbCircle
 10
290.530148605332
 20
233.3656410301123
 30
0.0
 40
3.534293731436835
100
AcDbArc
 50
229.199556011855
 51
289.1995560118553
  0
ARC
  5
6C41
330
1F
100
AcDbEntity
  8
0
100
AcDbCircle
 10
283.6019453750564
 20
242.6802191037523
 30
0.0
 40
12.84887180507694
100
AcDbArc
 50
270.0
 51
291.067737481869
  0
LINE
  5
6C42
330
1F
100
AcDbEntity
  8
0
100
AcDbLine
 10
288.2207475285735
 20
230.6902160457891
 30
0.0
 11
288.2207475285733
 21
237.4724785515617
 31
0.0
  0
LINE
  5
6C43
330
1F
100
AcDbEntity
  8
0
100
AcDbLine
 10
289.4604106039657
 20
246.8432537685834
 30
0.0
 11
283.6019453750564
 21
246.8432537685833
 31
0.0
  0
LINE
  5
6C44
330
1F
100
AcDbEntity
  8
0
100
AcDbLine
 10
291.6019453750565
 20
224.7003472986754
 30
0.0
 11
290.6019453750565
 21
224.7003472986754
 31
0.0
  0
LINE
  5
6C45
330
1F
100
AcDbEntity
  8
0
100
AcDbLine
 10
271.6120766279429
 20
227.9379516057094
 30
0.0
 11
264.8298141221703
 21
227.9379516057094
 31
0.0
  0
LINE
  5
6C46
330
1F
100
AcDbEntity
  8
0
100
AcDbLine
 10
263.9709453750567
 20
226.4503472986755
 30
0.0
 11
264.8298141221703
 21
227.9379516057094
 31
0.0
  0
LINE
  5
6C47
330
1F
100
AcDbEntity
  8
0
100
AcDbLine
 10
272.4709453750567
 20
226.4503472986755
 30
0.0
 11
272.4709453750567
 21
218.7003472986754
 31
0.0
  0
LINE
  5
6C48
330
1F
100
AcDbEntity
  8
0
100
AcDbLine
 10
272.4709453750567
 20
226.4503472986755
 30
0.0
 11
271.6120766279429
 21
227.9379516057094
 31
0.0
  0
LINE
  5
6C49
330
1F
100
AcDbEntity
  8
0
100
AcDbLine
 10
254.9709453750566
 20
218.7003472986754
 30
0.0
 11
254.9709453750566
 21
223.9503472986754
 31
0.0
  0
LINE
  5
6C4A
330
1F
100
AcDbEntity
  8
0
100
AcDbLine
 10
255.4590389051487
 20
224.5588125275848
 30
0.0
 11
263.9709453750567
 21
226.4503472986755
 31
0.0
  0
LINE
  5
6C4B
330
1F
100
AcDbEntity
  8
0
100
AcDbLine
 10
254.9709453750566
 20
223.9503472986754
 30
0.0
 11
255.4590389051487
 21
224.5588125275848
 31
0.0
1001
GENIUS_GENFIL_13
1070
     0
1040
0.5
1040
0.5
1040
0.5
1040
38.73559614542635
1000
~T
  0
ARC
  5
6C4C
330
1F
100
AcDbEntity
  8
0
100
AcDbCircle
 10
267.5052391064935
 20
225.6285505289509
 30
0.0
 40
3.534293731436835
100
AcDbArc
 50
160.8004439881447
 51
220.8004439881427
  0
ARC
  5
6C4D
330
1F
100
AcDbEntity
  8
0
100
AcDbCircle
 10
276.8198171801336
 20
218.7003472986754
 30
0.0
 40
12.84887180507694
100
AcDbArc
 50
158.9322625181279
 51
180.0
  0
LINE
  5
6C4E
330
1F
100
AcDbEntity
  8
0
100
AcDbLine
 10
263.9709453750567
 20
226.4503472986755
 30
0.0
 11
263.9709453750567
 21
218.7003472986754
 31
0.0
  0
ARC
  5
6C4F
330
1F
100
AcDbEntity
  8
0
100
AcDbCircle
 10
268.9366516436197
 20
225.6285505289509
 30
0.0
 40
3.534293731436835
100
AcDbArc
 50
319.1995560118573
 51
19.19955601185534
  0
ARC
  5
6C50
330
1F
100
AcDbEntity
  8
0
100
AcDbCircle
 10
259.6220735699796
 20
218.7003472986754
 30
0.0
 40
12.84887180507694
100
AcDbArc
 50
0.0
 51
21.06773748187205
  0
LINE
  5
6C51
330
1F
100
AcDbEntity
  8
0
100
AcDbLine
 10
271.6120766279429
 20
223.3191494521924
 30
0.0
 11
264.8298141221703
 21
223.3191494521923
 31
0.0
  0
LINE
  5
6C52
330
1F
100
AcDbEntity
  8
0
100
AcDbLine
 10
255.4590389051487
 20
224.5588125275848
 30
0.0
 11
255.4590389051487
 21
218.7003472986754
 31
0.0
  0
LINE
  5
6C53
330
1F
100
AcDbEntity
  8
0
100
AcDbLine
 10
273.6019453750565
 20
223.5693472986755
 30
0.0
 11
275.6019453750565
 21
224.2565972986754
 31
0.0
  0
LINE
  5
6C54
330
1F
100
AcDbEntity
  8
0
100
AcDbLine
 10
273.6019453750565
 20
223.5693472986755
 30
0.0
 11
273.6019453750565
 21
224.2565972986754
 31
0.0
  0
LINE
  5
6C55
330
1F
100
AcDbEntity
  8
0
100
AcDbLine
 10
273.6019453750565
 20
223.5693472986755
 30
0.0
 11
272.4709453750567
 21
223.5693472986755
 31
0.0
  0
LINE
  5
6C5C
330
1F
100
AcDbEntity
  8
0
100
AcDbLine
 10
278.7329453750565
 20
228.7003472986754
 30
0.0
 11
288.4709453750565
 21
228.7003472986749
 31
0.0
  0
LINE
  5
6C5D
330
1F
100
AcDbEntity
  8
0
100
AcDbLine
 10
278.0456953750567
 20
226.7003472986754
 30
0.0
 11
289.1581953750564
 21
226.7003472986754
 31
0.0
  0
LINE
  5
6C5E
330
1F
100
AcDbEntity
  8
0
100
AcDbLine
 10
275.6019453750565
 20
224.2565972986754
 30
0.0
 11
275.6019453750565
 21
213.1440972986755
 31
0.0
  0
LINE
  5
6C5F
330
1F
100
AcDbEntity
  8
0
100
AcDbLine
 10
273.6019453750565
 20
223.5693472986755
 30
0.0
 11
273.6019453750568
 21
213.8313472986754
 31
0.0
  0
LINE
  5
6C60
330
1F
100
AcDbEntity
  8
0
100
AcDbLine
 10
293.6019453750565
 20
223.5693472986754
 30
0.0
 11
293.6019453750567
 21
213.8313472986755
 31
0.0
  0
LINE
  5
6C61
330
1F
100
AcDbEntity
  8
0
100
AcDbLine
 10
291.6019453750567
 20
224.2565972986753
 30
0.0
 11
291.6019453750564
 21
213.1440972986755
 31
0.0
  0
MTEXT
  5
6C63
330
1F
100
AcDbEntity
  8
0
100
AcDbMText
 10
324.2156993048677
 20
273.5389247955025
 30
0.0
 40
1.5
 41
19.81673812070176
 71
     1
 72
     5
  1
三方ﾌﾚｱｰﾁｰｽﾞ　FT-3206
 73
     1
 44
1.0
1001
ACAD
1000
ACAD_MTEXT_COLUMN_INFO_BEGIN
1070
    75
1070
     2
1070
    79
1070
     0
1070
    76
1070
     1
1070
    78
1070
     0
1070
    48
1040
19.81673812070176
1070
    49
1040
7.5
1070
    50
1070
     1
1040
0.0
1000
ACAD_MTEXT_COLUMN_INFO_END
1000
MTEXTBEGIN
1070
    73
1070
     1
1070
    44
1040
1.0
1070
    74
1070
     0
1000
MTEXTEND
  0
LINE
  5
6C95
330
1F
100
AcDbEntity
  8
0
100
AcDbLine
 10
278.6019453750565
 20
224.7003472986754
 30
0.0
 11
278.6019453750565
 21
225.2003472986754
 31
0.0
  0
LINE
  5
6C96
330
1F
100
AcDbEntity
  8
0
100
AcDbLine
 10
288.6019453750565
 20
224.7003472986754
 30
0.0
 11
288.6019453750565
 21
225.2003472986754
 31
0.0
  0
LINE
  5
6C97
330
1F
100
AcDbEntity
  8
0
100
AcDbLine
 10
286.6019453750565
 20
213.7003472986755
 30
0.0
 11
277.1019453750565
 21
213.7003472986755
 31
0.0
  0
LINE
  5
6C98
330
1F
100
AcDbEntity
  8
0
100
AcDbLine
 10
280.6019453750565
 20
213.7003472986755
 30
0.0
 11
290.1019453750565
 21
213.7003472986755
 31
0.0
  0
LINE
  5
6C99
330
1F
100
AcDbEntity
  8
0
100
AcDbLine
 10
277.1019453750565
 20
213.7003472986755
 30
0.0
 11
277.1019453750565
 21
223.7003472986754
 31
0.0
  0
LINE
  5
6C9A
330
1F
100
AcDbEntity
  8
0
100
AcDbLine
 10
277.6019453750565
 20
223.7003472986754
 30
0.0
 11
277.1019453750565
 21
223.7003472986754
 31
0.0
  0
LINE
  5
6C9B
330
1F
100
AcDbEntity
  8
0
100
AcDbLine
 10
290.1019453750565
 20
213.7003472986755
 30
0.0
 11
290.1019453750565
 21
223.7003472986754
 31
0.0
  0
ARC
  5
6C9C
330
1F
100
AcDbEntity
  8
0
100
AcDbCircle
 10
289.6019453750565
 20
224.7003472986753
 30
0.0
 40
1.0
100
AcDbArc
 50
179.9999999999967
 51
270.0
1001
GENIUS_GENODEF_13
1002
{
1000
HIER
1070
     0
1002
}
1002
{
1000
MANEDIT
1070
     0
1002
}
1002
{
1000
NOSEL
1070
     0
1002
}
1002
{
1000
BEHIND
1070
     0
1002
}
1002
{
1000
REACTOR
1002
}
1001
GENIUS_GENOBJ-N-FIL_13
1002
{
1000
OWNER
1000
GEN
1002
}
  0
LINE
  5
6C9D
330
1F
100
AcDbEntity
  8
0
100
AcDbLine
 10
289.6019453750565
 20
223.7003472986754
 30
0.0
 11
290.1019453750565
 21
223.7003472986754
 31
0.0
  0
LINE
  5
6C9E
330
1F
100
AcDbEntity
  8
0
100
AcDbLine
 10
283.6019453750565
 20
225.2003472986754
 30
0.0
 11
278.6019453750565
 21
225.2003472986754
 31
0.0
  0
LINE
  5
6C9F
330
1F
100
AcDbEntity
  8
0
100
AcDbLine
 10
283.6019453750565
 20
225.2003472986754
 30
0.0
 11
278.6019453750565
 21
225.2003472986754
 31
0.0
  0
LINE
  5
6CA0
330
1F
100
AcDbEntity
  8
0
100
AcDbLine
 10
283.6019453750565
 20
225.2003472986754
 30
0.0
 11
288.6019453750565
 21
225.2003472986754
 31
0.0
  0
LINE
  5
6CA1
330
1F
100
AcDbEntity
  8
0
100
AcDbLine
 10
283.6019453750565
 20
225.2003472986754
 30
0.0
 11
288.6019453750565
 21
225.2003472986754
 31
0.0
  0
LINE
  5
6CA2
330
1F
100
AcDbEntity
  8
0
100
AcDbLine
 10
288.2065873027096
 20
216.3347276935485
 30
0.0
 11
287.1143715394138
 21
219.388954226728
 31
0.0
  0
LINE
  5
6CA3
330
1F
100
AcDbEntity
  8
0
100
AcDbLine
 10
286.089519210699
 20
219.3889542267279
 30
0.0
 11
284.9975579736888
 21
216.3354394402201
 31
0.0
  0
ELLIPSE
  5
6CA4
330
1F
100
AcDbEntity
  8
0
100
AcDbEllipse
 10
286.6019453750565
 20
212.9851621894808
 30
0.0
 11
-2.485294117647051
 21
0.000000000000051
 31
0.0
210
0.0
220
0.0
230
1.0
 40
0.953303940344945
 41
3.962594650554286
 42
5.462183310215122
  0
ELLIPSE
  5
6CA5
330
1F
100
AcDbEntity
  8
0
100
AcDbEllipse
 10
286.6019453750565
 20
219.1614852368076
 30
0.0
 11
0.565257352941185
 21
0.0000000000000471
 31
0.0
210
0.0
220
0.0
230
1.0
 40
0.953303940344951
 41
0.2213144423477107
 42
2.920278211241923
  0
LINE
  5
6CA6
330
1F
100
AcDbEntity
  8
0
100
AcDbLine
 10
286.2693911840533
 20
216.4294168294105
 30
0.0
 11
286.5326996480158
 21
217.1322532147019
 31
0.0
  0
LINE
  5
6CA7
330
1F
100
AcDbEntity
  8
0
100
AcDbLine
 10
286.6711911056033
 20
217.1322532147019
 30
0.0
 11
286.934499566564
 21
216.4294168291649
 31
0.0
  0
LINE
  5
6CA8
330
1F
100
AcDbEntity
  8
0
100
AcDbLine
 10
286.8652538377241
 20
216.3357451562814
 30
0.0
 11
286.3386369128011
 21
216.3357451562814
 31
0.0
  0
LINE
  5
6CA9
330
1F
100
AcDbEntity
  8
0
100
AcDbLine
 10
284.792370477602
 20
214.7389917028758
 30
0.0
 11
284.1019453750565
 21
216.0553616444153
 31
0.0
  0
LINE
  5
6CAA
330
1F
100
AcDbEntity
  8
0
100
AcDbLine
 10
288.4115202725109
 20
214.7389917028758
 30
0.0
 11
289.1019453750565
 21
216.0553616444153
 31
0.0
  0
LINE
  5
6CAB
330
1F
100
AcDbEntity
  8
0
100
AcDbLine
 10
284.1019453750565
 20
216.0553616444153
 30
0.0
 11
284.1466696277014
 21
216.0307458501851
 31
0.0
  0
LINE
  5
6CAC
330
1F
100
AcDbEntity
  8
0
100
AcDbLine
 10
289.1019453750565
 20
216.0553616444153
 30
0.0
 11
289.0658314006772
 21
216.034720971286
 31
0.0
  0
ELLIPSE
  5
6CAD
330
1F
100
AcDbEntity
  8
0
100
AcDbEllipse
 10
284.4407872747602
 20
216.5163843383418
 30
0.0
 11
0.5882352941176451
 21
0.0000000000000116
 31
0.0
210
0.0
220
0.0
230
1.0
 40
0.9533039403449411
 41
4.188790204786369
 42
5.954632136628113
1001
GENIUS_GENODEF_13
1002
{
1000
HIER
1070
     0
1002
}
1002
{
1000
MANEDIT
1070
     0
1002
}
1002
{
1000
NOSEL
1070
     0
1002
}
1002
{
1000
BEHIND
1070
     0
1002
}
1002
{
1000
REACTOR
1002
}
1001
GENIUS_GENOBJ-N-FIL_13
1002
{
1000
OWNER
1000
GEN
1002
}
  0
ELLIPSE
  5
6CAE
330
1F
100
AcDbEntity
  8
0
100
AcDbEllipse
 10
288.7633580016382
 20
216.5156725916702
 30
0.0
 11
-0.5882352941176458
 21
0.000000000000002
 31
0.0
210
0.0
220
0.0
230
1.0
 40
0.9533039403449464
 41
0.3285531705514608
 42
2.110876526947248
1001
GENIUS_GENODEF_13
1002
{
1000
HIER
1070
     0
1002
}
1002
{
1000
MANEDIT
1070
     0
1002
}
1002
{
1000
NOSEL
1070
     0
1002
}
1002
{
1000
BEHIND
1070
     0
1002
}
1002
{
1000
REACTOR
1002
}
1001
GENIUS_GENOBJ-N-FIL_13
1002
{
1000
OWNER
1000
GEN
1002
}
  0
ELLIPSE
  5
6CAF
330
1F
100
AcDbEntity
  8
0
100
AcDbEllipse
 10
284.8581371828227
 20
214.7703395324909
 30
0.0
 11
0.0735294117647067
 21
0.0000000000000146
 31
0.0
210
0.0
220
0.0
230
1.0
 40
0.9533039403448611
 41
3.605240262590422
 42
5.462183310214919
1001
GENIUS_GENODEF_13
1002
{
1000
HIER
1070
     0
1002
}
1002
{
1000
MANEDIT
1070
     0
1002
}
1002
{
1000
NOSEL
1070
     0
1002
}
1002
{
1000
BEHIND
1070
     0
1002
}
1002
{
1000
REACTOR
1002
}
1001
GENIUS_GENOBJ-N-FIL_13
1002
{
1000
OWNER
1000
GEN
1002
}
  0
ELLIPSE
  5
6CB0
330
1F
100
AcDbEntity
  8
0
100
AcDbEllipse
 10
288.3457535672903
 20
214.7703395324909
 30
0.0
 11
0.0735294117647032
 21
0.0000000000000345
 31
0.0
210
0.0
220
0.0
230
1.0
 40
0.9533039403449665
 41
3.962594650553778
 42
5.819537698178287
1001
GENIUS_GENODEF_13
1002
{
1000
HIER
1070
     0
1002
}
1002
{
1000
MANEDIT
1070
     0
1002
}
1002
{
1000
NOSEL
1070
     0
1002
}
1002
{
1000
BEHIND
1070
     0
1002
}
1002
{
1000
REACTOR
1002
}
1001
GENIUS_GENOBJ-N-FIL_13
1002
{
1000
OWNER
1000
GEN
1002
}
  0
ELLIPSE
  5
6CB1
330
1F
100
AcDbEntity
  8
0
100
AcDbEllipse
 10
286.6019453768096
 20
217.1086774196622
 30
0.0
 11
-0.0735294117647053
 21
0.0
 31
0.0
210
0.0
220
0.0
230
1.0
 40
0.9533039403448885
 41
3.484616594010533
 42
5.940161366758846
1001
GENIUS_GENODEF_13
1002
{
1000
HIER
1070
     0
1002
}
1002
{
1000
MANEDIT
1070
     0
1002
}
1002
{
1000
NOSEL
1070
     0
1002
}
1002
{
1000
BEHIND
1070
     0
1002
}
1002
{
1000
REACTOR
1002
}
1001
GENIUS_GENOBJ-N-FIL_13
1002
{
1000
OWNER
1000
GEN
1002
}
  0
ELLIPSE
  5
6CB2
330
1F
100
AcDbEntity
  8
0
100
AcDbEllipse
 10
286.3386369128011
 20
216.405841034248
 30
0.0
 11
-0.0735294117647077
 21
0.0000000000000054
 31
0.0
210
0.0
220
0.0
230
1.0
 40
0.9533039403448576
 41
-0.3430239422815355
 42
1.570796326795022
1001
GENIUS_GENODEF_13
1002
{
1000
HIER
1070
     0
1002
}
1002
{
1000
MANEDIT
1070
     0
1002
}
1002
{
1000
NOSEL
1070
     0
1002
}
1002
{
1000
BEHIND
1070
     0
1002
}
1002
{
1000
REACTOR
1002
}
1001
GENIUS_GENOBJ-N-FIL_13
1002
{
1000
OWNER
1000
GEN
1002
}
  0
ELLIPSE
  5
6CB3
330
1F
100
AcDbEntity
  8
0
100
AcDbEllipse
 10
286.8652538377241
 20
216.405841034248
 30
0.0
 11
0.0735294117647059
 21
0.0000000000000367
 31
0.0
210
0.0
220
0.0
230
1.0
 40
0.9533039403448807
 41
4.712388980384213
 42
6.62620924573893
1001
GENIUS_GENODEF_13
1002
{
1000
HIER
1070
     0
1002
}
1002
{
1000
MANEDIT
1070
     0
1002
}
1002
{
1000
NOSEL
1070
     0
1002
}
1002
{
1000
BEHIND
1070
     0
1002
}
1002
{
1000
REACTOR
1002
}
1001
GENIUS_GENOBJ-N-FIL_13
1002
{
1000
OWNER
1000
GEN
1002
}
  0
ARC
  5
6CB4
330
1F
100
AcDbEntity
  8
0
100
AcDbCircle
 10
277.6019453750565
 20
224.7003472986754
 30
0.0
 40
1.0
100
AcDbArc
 50
270.0
 51
0.0
1001
GENIUS_GENOREF_13
1005
6CB5
  0
POINT
  5
6CB5
330
1F
100
AcDbEntity
  8
0
 60
     1
100
AcDbPoint
 10
-25.03825657997555
 20
-112.5438666958689
 30
0.0
1001
GENIUS_GENOBJ-N-FIL_13
1002
{
1000
OWNER
1000
GEN
1002
}
1001
GENIUS_GENOENT_13
1002
{
1000
MYREF
1005
6CB5
1002
}
1002
{
1000
GRP
1005
0
1002
}
1001
GENIUS_GENOLIS_13
1002
{
1000
ENT
1005
0
1005
6CB4
1002
}
1001
GENIUS_GENODEF_13
1002
{
1000
HIER
1070
     1
1002
}
1002
{
1000
MANEDIT
1070
     1
1002
}
1002
{
1000
NOSEL
1070
     0
1002
}
1002
{
1000
BEHIND
1070
     0
1002
}
1002
{
1000
REACTOR
1002
}
  0
ENDSEC
  0
SECTION
  2
OBJECTS
  0
DICTIONARY
  5
C
330
0
100
AcDbDictionary
281
     1
  3
ACAD_2007HEADERVARS_RT
350
6DFB
  3
ACAD_COLOR
350
247
  3
ACAD_GROUP
350
D
  3
ACAD_LAYOUT
350
1A
  3
ACAD_MATERIAL
350
232
  3
ACAD_MLEADERSTYLE
350
2102
  3
ACAD_MLINESTYLE
350
17
  3
ACAD_PLOTSETTINGS
350
19
  3
ACAD_PLOTSTYLENAME
350
E
  3
ACAD_SCALELIST
350
20F0
  3
ACAD_TABLESTYLE
350
248
  3
ACAD_VISUALSTYLE
350
236
  3
ACDB_RECOMPOSE_DATA
350
6DF9
  3
AcDbVariableDictionary
350
34
  3
AcmDictionary
350
43
  3
AMG
350
2B
  3
AMGSNAPSETTINGS
350
74
  3
DWGPROPS
350
6DFA
  0
DICTIONARY
  5
CA7
330
8
100
AcDbDictionary
280
     1
281
     1
  0
DICTIONARY
  5
971
330
2
100
AcDbDictionary
280
     1
281
     1
  3
ACAD_LAYERSTATES
360
2298
  3
AMLAYER_GROUPCOLORS
360
972
  0
DICTIONARY
  5
227D
330
10
100
AcDbDictionary
280
     1
281
     1
  3
ADSK_XREC_LAYER_RECONCILED
360
227E
  0
DICTIONARY
  5
227F
330
59
100
AcDbDictionary
280
     1
281
     1
  3
ADSK_XREC_LAYER_RECONCILED
360
2280
  0
DICTIONARY
  5
2281
330
5A
100
AcDbDictionary
280
     1
281
     1
  3
ADSK_XREC_LAYER_RECONCILED
360
2282
  0
DICTIONARY
  5
2283
330
31B
100
AcDbDictionary
280
     1
281
     1
  3
ADSK_XREC_LAYER_RECONCILED
360
2284
  0
DICTIONARY
  5
2285
330
7C0
100
AcDbDictionary
280
     1
281
     1
  3
ADSK_XREC_LAYER_RECONCILED
360
2286
  0
DICTIONARY
  5
2287
330
7C1
100
AcDbDictionary
280
     1
281
     1
  3
ADSK_XREC_LAYER_RECONCILED
360
2288
  0
DICTIONARY
  5
2289
330
7C2
100
AcDbDictionary
280
     1
281
     1
  3
ADSK_XREC_LAYER_RECONCILED
360
228A
  0
DICTIONARY
  5
228B
330
7C3
100
AcDbDictionary
280
     1
281
     1
  3
ADSK_XREC_LAYER_RECONCILED
360
228C
  0
DICTIONARY
  5
228D
330
7C4
100
AcDbDictionary
280
     1
281
     1
  3
ADSK_XREC_LAYER_RECONCILED
360
228E
  0
DICTIONARY
  5
228F
330
7C5
100
AcDbDictionary
280
     1
281
     1
  3
ADSK_XREC_LAYER_RECONCILED
360
2290
  0
DICTIONARY
  5
2291
330
1264
100
AcDbDictionary
280
     1
281
     1
  3
ADSK_XREC_LAYER_RECONCILED
360
2292
  0
DICTIONARY
  5
2293
330
2276
100
AcDbDictionary
280
     1
281
     1
  3
ADSK_XREC_LAYER_RECONCILED
360
2294
  0
DICTIONARY
  5
C9
330
1F
100
AcDbDictionary
280
     1
281
     1
  3
ACAD_SORTENTS
360
97C
  0
DICTIONARY
  5
BCD
330
BBF
100
AcDbDictionary
280
     1
281
     1
  0
DICTIONARY
  5
179B
330
176D
100
AcDbDictionary
280
     1
281
     1
  0
DICTIONARY
  5
17BE
330
17BD
100
AcDbDictionary
280
     1
281
     1
  0
DICTIONARY
  5
17C3
330
17C2
100
AcDbDictionary
280
     1
281
     1
  0
DICTIONARY
  5
525E
330
17CB
100
AcDbDictionary
280
     1
281
     1
  0
DICTIONARY
  5
44AF
330
44AD
100
AcDbDictionary
280
     1
281
     1
  3
ACAD_SORTENTS
360
44B0
  0
DICTIONARY
  5
4EE8
330
4ED4
100
AcDbDictionary
280
     1
281
     1
  3
ACAD_SORTENTS
360
4EE9
  0
DICTIONARY
  5
6DFB
102
{ACAD_REACTORS
330
C
102
}
330
C
100
AcDbDictionary
281
     1
  3
DIMARCSYM
350
6DFC
  3
DIMLTEX1
350
6DFE
  3
DIMLTEX2
350
6DFF
  3
DIMLTYPE
350
6DFD
  0
DICTIONARY
  5
247
102
{ACAD_REACTORS
330
C
102
}
330
C
100
AcDbDictionary
281
     1
  0
DICTIONARY
  5
D
102
{ACAD_REACTORS
330
C
102
}
330
C
100
AcDbDictionary
281
     1
  0
DICTIONARY
  5
1A
102
{ACAD_REACTORS
330
C
102
}
330
C
100
AcDbDictionary
281
     1
  3
Model
350
22
  3
ﾚｲｱｳﾄ1
350
1E
  3
ﾚｲｱｳﾄ2
350
26
  0
DICTIONARY
  5
232
102
{ACAD_REACTORS
330
C
102
}
330
C
100
AcDbDictionary
281
     1
  3
ByBlock
350
234
  3
ByLayer
350
233
  3
Global
350
235
  0
DICTIONARY
  5
2102
102
{ACAD_REACTORS
330
C
102
}
330
C
100
AcDbDictionary
281
     1
  3
Standard
350
2103
  0
DICTIONARY
  5
17
102
{ACAD_REACTORS
330
C
102
}
330
C
100
AcDbDictionary
281
     1
  3
Standard
350
18
  0
DICTIONARY
  5
19
102
{ACAD_REACTORS
330
C
102
}
330
C
100
AcDbDictionary
281
     1
  0
ACDBDICTIONARYWDFLT
  5
E
102
{ACAD_REACTORS
330
C
102
}
330
C
100
AcDbDictionary
281
     1
  3
Normal
350
F
100
AcDbDictionaryWithDefault
340
F
  0
DICTIONARY
  5
20F0
102
{ACAD_REACTORS
330
C
102
}
330
C
100
AcDbDictionary
281
     1
  3
A0
350
20F1
  3
A1
350
20F2
  3
A2
350
20F3
  3
A3
350
20F4
  3
A4
350
20F5
  3
A5
350
20F6
  3
A6
350
20F7
  3
A7
350
20F8
  3
A8
350
20F9
  3
A9
350
20FA
  3
B0
350
20FB
  3
B1
350
20FC
  3
B2
350
20FD
  3
B3
350
20FE
  3
B4
350
20FF
  3
B5
350
2100
  3
B6
350
2101
  0
DICTIONARY
  5
248
102
{ACAD_REACTORS
330
C
102
}
330
C
100
AcDbDictionary
281
     1
  3
Standard
350
249
  0
DICTIONARY
  5
236
102
{ACAD_REACTORS
330
C
102
}
330
C
100
AcDbDictionary
281
     1
  3
2dWireframe
350
23C
  3
3D Hidden
350
23E
  3
3dWireframe
350
23D
  3
Basic
350
23B
  3
Brighten
350
242
  3
ColorChange
350
246
  3
Conceptual
350
23F
  3
Dim
350
241
  3
EdgeColorOff
350
20EF
  3
Facepattern
350
245
  3
Flat
350
237
  3
FlatWithEdges
350
238
  3
Gouraud
350
239
  3
GouraudWithEdges
350
23A
  3
Hidden
350
20E7
  3
JitterOff
350
20ED
  3
Linepattern
350
244
  3
OverhangOff
350
20EE
  3
Realistic
350
240
  3
Shaded
350
20EC
  3
Shaded with edges
350
20EB
  3
Shades of Gray
350
20E8
  3
Sketchy
350
20E9
  3
Thicken
350
243
  3
Wireframe
350
20E6
  3
X-Ray
350
20EA
  0
XRECORD
  5
6DF9
102
{ACAD_REACTORS
330
C
102
}
330
C
100
AcDbXrecord
280
     1
 90
        1
330
249
330
6C63
  0
DICTIONARY
  5
34
102
{ACAD_REACTORS
330
C
102
}
330
C
100
AcDbDictionary
281
     1
  3
CANNOSCALE
350
22EE
  3
CMLEADERSTYLE
350
22ED
  3
CTABLESTYLE
350
2C0
  3
DIMASSOC
350
6DF7
  3
EXPORTMODELSPACE
350
33A2
  3
EXPORTPAGESETUP
350
33A3
  3
INDEXCTL
350
35
  3
SORTENTS
350
6DF5
  3
XCLIPFRAME
350
6DF6
  0
DICTIONARY
  5
43
102
{ACAD_REACTORS
330
C
102
}
330
C
100
AcDbDictionary
281
     1
  3
AcmBOM
350
C4E
  3
AcmStdDictionary
350
15F
  3
AMDTSECTSYM_ARROWCOLOR
350
2A8
  0
DICTIONARY
  5
2B
102
{ACAD_REACTORS
330
C
102
}
330
C
100
AcDbDictionary
281
     1
  0
DICTIONARY
  5
74
102
{ACAD_REACTORS
330
C
102
}
330
C
100
AcDbDictionary
281
     1
  0
XRECORD
  5
6DFA
102
{ACAD_REACTORS
330
C
102
}
330
C
100
AcDbXrecord
280
     1
  1
DWGPROPS COOKIE
  2

  3

  4

  6

  7

  8
user
  9

300
AmdtFileType=84
301
=
302
=
303
=
304
=
305
=
306
=
307
=
308
=
309
=
 40
0.445277175925926
 41
2454784.375539815
 42
2456042.699407778
  1

 90
        1
  0
DICTIONARY
  5
2298
102
{ACAD_REACTORS
330
971
102
}
330
971
100
AcDbDictionary
281
     1
  0
DICTIONARY
  5
972
102
{ACAD_REACTORS
330
971
102
}
330
971
100
AcDbDictionary
280
     1
281
     1
  0
XRECORD
  5
227E
102
{ACAD_REACTORS
330
227D
102
}
330
227D
100
AcDbXrecord
280
     1
290
     1
  0
XRECORD
  5
2280
102
{ACAD_REACTORS
330
227F
102
}
330
227F
100
AcDbXrecord
280
     1
290
     1
  0
XRECORD
  5
2282
102
{ACAD_REACTORS
330
2281
102
}
330
2281
100
AcDbXrecord
280
     1
290
     1
  0
XRECORD
  5
2284
102
{ACAD_REACTORS
330
2283
102
}
330
2283
100
AcDbXrecord
280
     1
290
     1
  0
XRECORD
  5
2286
102
{ACAD_REACTORS
330
2285
102
}
330
2285
100
AcDbXrecord
280
     1
290
     1
  0
XRECORD
  5
2288
102
{ACAD_REACTORS
330
2287
102
}
330
2287
100
AcDbXrecord
280
     1
290
     1
  0
XRECORD
  5
228A
102
{ACAD_REACTORS
330
2289
102
}
330
2289
100
AcDbXrecord
280
     1
290
     1
  0
XRECORD
  5
228C
102
{ACAD_REACTORS
330
228B
102
}
330
228B
100
AcDbXrecord
280
     1
290
     1
  0
XRECORD
  5
228E
102
{ACAD_REACTORS
330
228D
102
}
330
228D
100
AcDbXrecord
280
     1
290
     1
  0
XRECORD
  5
2290
102
{ACAD_REACTORS
330
228F
102
}
330
228F
100
AcDbXrecord
280
     1
290
     1
  0
XRECORD
  5
2292
102
{ACAD_REACTORS
330
2291
102
}
330
2291
100
AcDbXrecord
280
     1
290
     1
  0
XRECORD
  5
2294
102
{ACAD_REACTORS
330
2293
102
}
330
2293
100
AcDbXrecord
280
     1
290
     1
  0
SORTENTSTABLE
  5
97C
102
{ACAD_REACTORS
330
C9
102
}
330
C9
100
AcDbSortentsTable
330
1F
331
6C98
  5
6C99
331
6C61
  5
6C6B
331
6C22
  5
6C25
331
6CA0
  5
6CA1
331
6C2A
  5
6C2D
331
6768
  5
676B
331
6643
  5
6656
331
6CA8
  5
6CA9
331
6497
  5
6584
331
6C32
  5
6C35
331
6770
  5
6773
331
6739
  5
673C
331
6778
  5
677B
331
6741
  5
6744
331
6780
  5
6783
331
65A6
  5
65AA
331
6CB0
  5
6CB1
331
6C3A
  5
6C3D
331
6C42
  5
6C45
331
6C4A
  5
6C4D
331
6470
  5
6474
331
6749
  5
674C
331
665B
  5
667B
331
65AE
  5
65B2
331
6C52
  5
6C55
331
6478
  5
647C
331
6751
  5
6754
331
6480
  5
6484
331
6AB6
  5
6AB9
331
6488
  5
648C
331
6ABE
  5
6AC1
331
65C6
  5
65CA
331
6587
  5
65A7
331
6C99
  5
6C9A
331
6C23
  5
6C26
331
6CA1
  5
6CA2
331
6490
  5
6494
331
6C2B
  5
6C2E
331
6769
  5
676C
331
6CA9
  5
6CAA
331
6498
  5
658A
331
6C33
  5
6C36
331
6771
  5
6774
331
673A
  5
673D
331
6779
  5
677C
331
6742
  5
6745
331
6781
  5
6784
331
65A7
  5
65AB
331
6CB1
  5
6CB2
331
6C3B
  5
6C3E
331
6C43
  5
6C46
331
6C4B
  5
6C4E
331
6471
  5
6475
331
674A
  5
674D
331
65AF
  5
65B3
331
6C53
  5
6C5C
331
6479
  5
647D
331
6752
  5
6755
331
667C
  5
6735
331
6481
  5
6485
331
6AB7
  5
6ABA
331
675A
  5
675D
331
6635
  5
6639
331
6489
  5
648D
331
6ABF
  5
6C1C
331
6762
  5
6765
331
65C7
  5
65CC
331
6C1C
  5
6C1F
331
6C9A
  5
6C9B
331
6C63
  5
6C95
331
6C24
  5
6C27
331
6CA2
  5
6CA3
331
6491
  5
6495
331
6C2C
  5
6C2F
331
6829
  5
6AB6
331
676A
  5
676D
331
6CAA
  5
6CAB
331
6499
  5
65A5
331
6C34
  5
6C37
331
6772
  5
6775
331
673B
  5
673E
331
677A
  5
677D
331
6743
  5
6746
331
6655
  5
665A
331
6782
  5
6785
331
6CB2
  5
6CB3
331
6C3C
  5
6C3F
331
6C44
  5
6C47
331
65A8
  5
65AE
331
6C4C
  5
6C4F
331
6472
  5
6476
331
674B
  5
674E
331
65B0
  5
65B6
331
6C54
  5
6C5D
331
647A
  5
647E
331
6753
  5
6756
331
667D
  5
6736
331
6482
  5
6486
331
6AB8
  5
6ABB
331
675B
  5
675E
331
6636
  5
663A
331
648A
  5
648E
331
6AC0
  5
6C1D
331
6763
  5
6766
331
663E
  5
6642
331
6C5C
  5
6C5F
331
6C1D
  5
6C20
331
6C9B
  5
6C9C
331
6C25
  5
6C28
331
65C8
  5
6602
331
6CA3
  5
6CA4
331
6492
  5
6496
331
6C2D
  5
6C30
331
676B
  5
676E
331
6646
  5
6658
331
6CAB
  5
6CAC
331
649A
  5
65A6
331
6C35
  5
6C38
331
6773
  5
6776
331
673C
  5
673F
331
677B
  5
677E
331
6744
  5
6747
331
6783
  5
6829
331
661F
  5
6636
331
6CB3
  5
6CB4
331
6C3D
  5
6C40
331
6C45
  5
6C48
331
65A9
  5
65AF
331
6C4D
  5
6C50
331
6473
  5
6477
331
674C
  5
674F
331
65B1
  5
65C7
331
6C55
  5
6C5E
331
647B
  5
647F
331
6754
  5
6757
331
6483
  5
6487
331
6AB9
  5
6ABC
331
675C
  5
675F
331
6637
  5
663B
331
648B
  5
648F
331
6AC1
  5
6C1E
331
6764
  5
6767
331
663F
  5
6643
331
6C5D
  5
6C60
331
6C1E
  5
6C21
331
6C9C
  5
6C9D
331
6C26
  5
6C29
331
65C9
  5
6620
331
6CA4
  5
6CA5
331
6493
  5
6497
331
6C2E
  5
6C31
331
676C
  5
676F
331
6CAC
  5
6CAD
331
6735
  5
6738
331
6C36
  5
6C39
331
6774
  5
6777
331
673D
  5
6740
331
677C
  5
677F
331
6745
  5
6748
331
6657
  5
665B
331
6784
  5
6AB4
331
6CB4
  5
6D5A
331
6C3E
  5
6C41
331
6C46
  5
6C49
331
6620
  5
6637
331
65AA
  5
65B0
331
6C4E
  5
6C51
331
6474
  5
6478
331
674D
  5
6750
331
65B2
  5
65C8
331
647C
  5
6480
331
6755
  5
6758
331
6484
  5
6488
331
6ABA
  5
6ABD
331
675D
  5
6760
331
6638
  5
663C
331
648C
  5
6490
331
6765
  5
6768
331
6C95
  5
6C96
331
6C5E
  5
6C61
331
6C1F
  5
6C22
331
6C9D
  5
6C9E
331
6C27
  5
6C2A
331
6640
  5
6644
331
6601
  5
6623
331
65CA
  5
6621
331
6494
  5
6498
331
6CA5
  5
6CA6
331
6C2F
  5
6C32
331
676D
  5
6770
331
6CAD
  5
6CAE
331
6736
  5
6739
331
6C37
  5
6C3A
331
6775
  5
6778
331
673E
  5
6741
331
677D
  5
6780
331
6746
  5
6749
331
6785
  5
6AB5
331
6C3F
  5
6C42
331
6C47
  5
6C4A
331
6658
  5
665C
331
6621
  5
6638
331
6C4F
  5
6C52
331
6475
  5
6479
331
674E
  5
6751
331
6678
  5
667D
331
647D
  5
6481
331
6756
  5
675A
331
6485
  5
6489
331
6ABB
  5
6ABE
331
675E
  5
6762
331
66F7
  5
6737
331
6639
  5
663F
331
648D
  5
6491
331
6766
  5
6769
331
6C96
  5
6C97
331
6C5F
  5
6C63
331
6C20
  5
6C23
331
6C9E
  5
6C9F
331
6C28
  5
6C2B
331
6641
  5
6647
331
6CA6
  5
6CA7
331
6495
  5
6499
331
6C30
  5
6C33
331
676E
  5
6771
331
6CAE
  5
6CAF
331
6737
  5
673A
331
6776
  5
6779
331
673F
  5
6742
331
6651
  5
6659
331
677E
  5
6781
331
6747
  5
674A
331
65A4
  5
65A8
331
6C38
  5
6C3B
331
6C40
  5
6C43
331
6C48
  5
6C4B
331
6659
  5
6679
331
6C50
  5
6C53
331
6476
  5
647A
331
674F
  5
6752
331
6679
  5
667E
331
647E
  5
6482
331
6AB4
  5
6AB7
331
6757
  5
675B
331
6486
  5
648A
331
6ABC
  5
6ABF
331
675F
  5
6763
331
663A
  5
6640
331
648E
  5
6492
331
6767
  5
676A
331
6C97
  5
6C98
331
6C60
  5
6C6A
331
6C21
  5
6C24
331
6C9F
  5
6CA0
331
6C29
  5
6C2C
331
6642
  5
6652
331
6CA7
  5
6CA8
331
6496
  5
649A
331
6C31
  5
6C34
331
676F
  5
6772
331
6CAF
  5
6CB0
331
6738
  5
673B
331
6777
  5
677A
331
6740
  5
6743
331
677F
  5
6782
331
65A5
  5
65A9
331
646F
  5
6473
331
6C39
  5
6C3C
331
6C41
  5
6C44
331
6C49
  5
6C4C
331
6748
  5
674B
331
665A
  5
667A
331
65AD
  5
65B1
331
6C51
  5
6C54
331
6477
  5
647B
331
6750
  5
6753
331
667A
  5
66FF
331
65B5
  5
65C9
331
647F
  5
6483
331
6AB5
  5
6AB8
331
6758
  5
675C
331
6487
  5
648B
331
6ABD
  5
6AC0
331
6760
  5
6764
331
663B
  5
6641
331
648F
  5
6493
  0
SORTENTSTABLE
  5
44B0
102
{ACAD_REACTORS
330
44AF
102
}
330
44AF
100
AcDbSortentsTable
330
44AD
  0
SORTENTSTABLE
  5
4EE9
102
{ACAD_REACTORS
330
4EE8
102
}
330
4EE8
100
AcDbSortentsTable
330
4ED4
  0
XRECORD
  5
6DFC
102
{ACAD_REACTORS
330
6DFB
102
}
330
6DFB
100
AcDbXrecord
280
     1
 70
     1
  0
XRECORD
  5
6DFE
102
{ACAD_REACTORS
330
6DFB
102
}
330
6DFB
100
AcDbXrecord
280
     1
340
14
  0
XRECORD
  5
6DFF
102
{ACAD_REACTORS
330
6DFB
102
}
330
6DFB
100
AcDbXrecord
280
     1
340
14
  0
XRECORD
  5
6DFD
102
{ACAD_REACTORS
330
6DFB
102
}
330
6DFB
100
AcDbXrecord
280
     1
340
14
  0
LAYOUT
  5
22
102
{ACAD_XDICTIONARY
360
229D
102
}
102
{ACAD_REACTORS
330
1A
102
}
330
1A
100
AcDbPlotSettings
  1

  2
RICOH imagio MP 5000 RPCS
  4
A3
  6
AM_VIEW1
 40
5.873749732971191
 41
5.873747825622558
 42
5.873748779296875
 43
5.873748779296875
 44
296.9259948730469
 45
419.9466552734374
 46
-5.923202056233662
 47
-5.939457428964999
 48
0.0
 49
0.0
140
0.0
141
0.0
142
2.0
143
1.0
 70
 11940
 72
     1
 73
     1
 74
     1
  7
IMAGIO.ctb
 75
     0
147
1.920232922602835
148
-222.7540739915765
149
-167.1001025612402
100
AcDbLayout
  1
Model
 70
     1
 71
     0
 10
0.0
 20
0.0
 11
12.0
 21
9.0
 12
0.0
 22
0.0
 32
0.0
 14
0.0
 24
0.0
 34
0.0
 15
0.0
 25
0.0
 35
0.0
146
0.0
 13
0.0
 23
0.0
 33
0.0
 16
1.0
 26
0.0
 36
0.0
 17
0.0
 27
1.0
 37
0.0
 76
     0
330
1F
331
230
1001
ACAD_PSEXT
1000
RICOH imagio MP 5000 RPCS
1000
RICOH imagio MP 5000 RPCS
1000
IP_192.168.1.151
1000
RPCS Driver (Windows 2000/XP/Server 2003/Vista)
1070
     0
  0
LAYOUT
  5
1E
102
{ACAD_XDICTIONARY
360
6E00
102
}
102
{ACAD_REACTORS
330
1A
102
}
330
1A
100
AcDbPlotSettings
  1

  2
MF2730
  4

  6

 40
0.0
 41
0.0
 42
0.0
 43
0.0
 44
0.0
 45
0.0
 46
0.0
 47
0.0
 48
0.0
 49
0.0
140
0.0
141
0.0
142
1.0
143
1.0
 70
   688
 72
     0
 73
     0
 74
     5
  7
IMAGIO.ctb
 75
    16
147
1.0
148
0.0
149
0.0
100
AcDbLayout
  1
ﾚｲｱｳﾄ1
 70
     1
 71
     1
 10
0.0
 20
0.0
 11
420.0
 21
297.0
 12
0.0
 22
0.0
 32
0.0
 14
1.000000000000000E+20
 24
1.000000000000000E+20
 34
1.000000000000000E+20
 15
-1.000000000000000E+20
 25
-1.000000000000000E+20
 35
-1.000000000000000E+20
146
0.0
 13
0.0
 23
0.0
 33
0.0
 16
1.0
 26
0.0
 36
0.0
 17
0.0
 27
1.0
 37
0.0
 76
     0
330
1B
  0
LAYOUT
  5
26
102
{ACAD_XDICTIONARY
360
6E03
102
}
102
{ACAD_REACTORS
330
1A
102
}
330
1A
100
AcDbPlotSettings
  1

  2
MF2730
  4

  6

 40
0.0
 41
0.0
 42
0.0
 43
0.0
 44
0.0
 45
0.0
 46
0.0
 47
0.0
 48
0.0
 49
0.0
140
0.0
141
0.0
142
1.0
143
1.0
 70
   688
 72
     0
 73
     0
 74
     5
  7
IMAGIO.ctb
 75
    16
147
1.0
148
0.0
149
0.0
100
AcDbLayout
  1
ﾚｲｱｳﾄ2
 70
     1
 71
     2
 10
0.0
 20
0.0
 11
12.0
 21
9.0
 12
0.0
 22
0.0
 32
0.0
 14
0.0
 24
0.0
 34
0.0
 15
0.0
 25
0.0
 35
0.0
146
0.0
 13
0.0
 23
0.0
 33
0.0
 16
1.0
 26
0.0
 36
0.0
 17
0.0
 27
1.0
 37
0.0
 76
     0
330
23
  0
MATERIAL
  5
234
102
{ACAD_XDICTIONARY
360
6E07
102
}
102
{ACAD_REACTORS
330
232
102
}
330
232
100
AcDbMaterial
  1
ByBlock
 73
     1
 78
     1
172
     1
176
     1
270
     1
274
     1
  0
MATERIAL
  5
233
102
{ACAD_XDICTIONARY
360
6E05
102
}
102
{ACAD_REACTORS
330
232
102
}
330
232
100
AcDbMaterial
  1
ByLayer
 73
     1
 78
     1
172
     1
176
     1
270
     1
274
     1
  0
MATERIAL
  5
235
102
{ACAD_XDICTIONARY
360
6E09
102
}
102
{ACAD_REACTORS
330
232
102
}
330
232
100
AcDbMaterial
  1
Global
 73
     1
 78
     1
172
     1
176
     1
270
     1
274
     1
  0
MLEADERSTYLE
  5
2103
102
{ACAD_REACTORS
330
2102
102
}
330
2102
100
AcDbMLeaderStyle
170
     2
171
     1
172
     0
 90
        2
 40
0.0
 41
0.0
173
     1
 91
-1056964608
340
14
 92
       -2
290
     1
 42
2.0
291
     1
 43
0.36
  3
Standard
 44
4.0
300

342
11
174
     1
178
     6
175
     1
176
     0
 93
-1056964608
 45
4.0
292
     0
297
     0
 46
4.0
 94
-1056964608
 47
1.0
 49
1.0
140
1.0
293
     1
141
0.0
294
     1
177
     0
142
1.0
295
     0
296
     0
143
0.125
1001
ACAD_MLEADERVER
1070
     2
  0
MLINESTYLE
  5
18
102
{ACAD_REACTORS
330
17
102
}
330
17
100
AcDbMlineStyle
  2
STANDARD
 70
     0
  3

 62
   256
 51
90.0
 52
90.0
 71
     2
 49
0.5
 62
   256
  6
BYLAYER
 49
-0.5
 62
   256
  6
BYLAYER
  0
ACDBPLACEHOLDER
  5
F
102
{ACAD_REACTORS
330
E
102
}
330
E
  0
SCALE
  5
20F1
102
{ACAD_REACTORS
330
20F0
102
}
330
20F0
100
AcDbScale
 70
     0
300
1:1
140
1.0
141
1.0
290
     1
  0
SCALE
  5
20F2
102
{ACAD_REACTORS
330
20F0
102
}
330
20F0
100
AcDbScale
 70
     0
300
1:2
140
1.0
141
2.0
290
     0
  0
SCALE
  5
20F3
102
{ACAD_REACTORS
330
20F0
102
}
330
20F0
100
AcDbScale
 70
     0
300
1:4
140
1.0
141
4.0
290
     0
  0
SCALE
  5
20F4
102
{ACAD_REACTORS
330
20F0
102
}
330
20F0
100
AcDbScale
 70
     0
300
1:5
140
1.0
141
5.0
290
     0
  0
SCALE
  5
20F5
102
{ACAD_REACTORS
330
20F0
102
}
330
20F0
100
AcDbScale
 70
     0
300
1:8
140
1.0
141
8.0
290
     0
  0
SCALE
  5
20F6
102
{ACAD_REACTORS
330
20F0
102
}
330
20F0
100
AcDbScale
 70
     0
300
1:10
140
1.0
141
10.0
290
     0
  0
SCALE
  5
20F7
102
{ACAD_REACTORS
330
20F0
102
}
330
20F0
100
AcDbScale
 70
     0
300
1:16
140
1.0
141
16.0
290
     0
  0
SCALE
  5
20F8
102
{ACAD_REACTORS
330
20F0
102
}
330
20F0
100
AcDbScale
 70
     0
300
1:20
140
1.0
141
20.0
290
     0
  0
SCALE
  5
20F9
102
{ACAD_REACTORS
330
20F0
102
}
330
20F0
100
AcDbScale
 70
     0
300
1:30
140
1.0
141
30.0
290
     0
  0
SCALE
  5
20FA
102
{ACAD_REACTORS
330
20F0
102
}
330
20F0
100
AcDbScale
 70
     0
300
1:40
140
1.0
141
40.0
290
     0
  0
SCALE
  5
20FB
102
{ACAD_REACTORS
330
20F0
102
}
330
20F0
100
AcDbScale
 70
     0
300
1:50
140
1.0
141
50.0
290
     0
  0
SCALE
  5
20FC
102
{ACAD_REACTORS
330
20F0
102
}
330
20F0
100
AcDbScale
 70
     0
300
1:100
140
1.0
141
100.0
290
     0
  0
SCALE
  5
20FD
102
{ACAD_REACTORS
330
20F0
102
}
330
20F0
100
AcDbScale
 70
     0
300
2:1
140
2.0
141
1.0
290
     0
  0
SCALE
  5
20FE
102
{ACAD_REACTORS
330
20F0
102
}
330
20F0
100
AcDbScale
 70
     0
300
4:1
140
4.0
141
1.0
290
     0
  0
SCALE
  5
20FF
102
{ACAD_REACTORS
330
20F0
102
}
330
20F0
100
AcDbScale
 70
     0
300
8:1
140
8.0
141
1.0
290
     0
  0
SCALE
  5
2100
102
{ACAD_REACTORS
330
20F0
102
}
330
20F0
100
AcDbScale
 70
     0
300
10:1
140
10.0
141
1.0
290
     0
  0
SCALE
  5
2101
102
{ACAD_REACTORS
330
20F0
102
}
330
20F0
100
AcDbScale
 70
     0
300
100:1
140
100.0
141
1.0
290
     0
  0
TABLESTYLE
  5
249
102
{ACAD_XDICTIONARY
360
229F
102
}
102
{ACAD_REACTORS
330
248
102
}
330
248
100
AcDbTableStyle
  3
Standard
 70
     0
 71
     0
 40
1.5
 41
1.5
280
     0
281
     0
  7
STANDARD
140
4.5
170
     2
 62
     0
 63
     7
283
     0
274
    -2
284
     1
 64
     0
275
    -2
285
     1
 65
     0
276
    -2
286
     1
 66
     0
277
    -2
287
     1
 67
     0
278
    -2
288
     1
 68
     0
279
    -2
289
     1
 69
     0
  7
STANDARD
140
6.0
170
     5
 62
     0
 63
     7
283
     0
274
    -2
284
     1
 64
     0
275
    -2
285
     1
 65
     0
276
    -2
286
     1
 66
     0
277
    -2
287
     1
 67
     0
278
    -2
288
     1
 68
     0
279
    -2
289
     1
 69
     0
  7
STANDARD
140
4.5
170
     5
 62
     0
 63
     7
283
     0
274
    -2
284
     1
 64
     0
275
    -2
285
     1
 65
     0
276
    -2
286
     1
 66
     0
277
    -2
287
     1
 67
     0
278
    -2
288
     1
 68
     0
279
    -2
289
     1
 69
     0
  0
VISUALSTYLE
  5
23C
102
{ACAD_XDICTIONARY
360
6E15
102
}
102
{ACAD_REACTORS
330
236
102
}
330
236
100
AcDbVisualStyle
  2
2dWireframe
 70
     4
 71
     0
 72
     2
 73
     0
 90
        0
 40
-0.6
 41
-30.0
 62
     5
 63
     7
 74
     1
 91
        4
 64
     7
 65
   257
 75
     1
175
     1
 42
1.0
 92
        0
 66
   257
 43
1.0
 76
     1
 77
     6
 78
     2
 67
     7
 79
     5
170
     0
171
     0
290
     0
174
     0
 93
        1
 44
0.0
173
     0
291
     0
 45
0.0
1001
ACAD
1000
AcDbSavedByObjectVersion
1070
     0
  0
VISUALSTYLE
  5
23E
102
{ACAD_XDICTIONARY
360
6E19
102
}
102
{ACAD_REACTORS
330
236
102
}
330
236
100
AcDbVisualStyle
  2
3D Hidden
 70
     6
 71
     1
 72
     2
 73
     2
 90
        0
 40
-0.6
 41
-30.0
 62
     5
 63
     7
 74
     2
 91
        2
 64
     7
 65
   257
 75
     2
175
     1
 42
40.0
 92
        0
 66
   257
 43
1.0
 76
     1
 77
     6
 78
     2
 67
     7
 79
     3
170
     0
171
     0
290
     0
174
     0
 93
        1
 44
0.0
173
     0
291
     0
 45
0.0
1001
ACAD
1000
AcDbSavedByObjectVersion
1070
     0
  0
VISUALSTYLE
  5
23D
102
{ACAD_XDICTIONARY
360
6E17
102
}
102
{ACAD_REACTORS
330
236
102
}
330
236
100
AcDbVisualStyle
  2
3dWireframe
 70
     5
 71
     0
 72
     2
 73
     0
 90
        0
 40
-0.6
 41
-30.0
 62
     5
 63
     7
 74
     1
 91
        4
 64
     7
 65
   257
 75
     1
175
     1
 42
1.0
 92
        0
 66
   257
 43
1.0
 76
     1
 77
     6
 78
     2
 67
     7
 79
     5
170
     0
171
     0
290
     0
174
     0
 93
        1
 44
0.0
173
     0
291
     0
 45
0.0
1001
ACAD
1000
AcDbSavedByObjectVersion
1070
     0
  0
VISUALSTYLE
  5
23B
102
{ACAD_XDICTIONARY
360
6E13
102
}
102
{ACAD_REACTORS
330
236
102
}
330
236
100
AcDbVisualStyle
  2
Basic
 70
     7
 71
     1
 72
     0
 73
     1
 90
        0
 40
-0.6
 41
-30.0
 62
     5
 63
     7
 74
     0
 91
        4
 64
     7
 65
   257
 75
     1
175
     1
 42
1.0
 92
        8
 66
     7
 43
1.0
 76
     1
 77
     6
 78
     2
 67
     7
 79
     5
170
     0
171
     0
290
     0
174
     0
 93
        1
 44
0.0
173
     0
291
     1
 45
0.0
1001
ACAD
1000
AcDbSavedByObjectVersion
1070
     0
  0
VISUALSTYLE
  5
242
102
{ACAD_XDICTIONARY
360
6E21
102
}
102
{ACAD_REACTORS
330
236
102
}
330
236
100
AcDbVisualStyle
  2
Brighten
 70
    12
 71
     2
 72
     2
 73
     0
 90
        0
 40
-0.6
 41
-30.0
 62
     5
 63
     7
 74
     1
 91
        4
 64
     7
 65
   257
 75
     1
175
     1
 42
1.0
 92
        8
 66
     7
 43
1.0
 76
     1
 77
     6
 78
     2
 67
     7
 79
     5
170
     0
171
     0
290
     0
174
     0
 93
        1
 44
50.0
173
     0
291
     1
 45
0.0
1001
ACAD
1000
AcDbSavedByObjectVersion
1070
     0
  0
VISUALSTYLE
  5
246
102
{ACAD_XDICTIONARY
360
6E29
102
}
102
{ACAD_REACTORS
330
236
102
}
330
236
100
AcDbVisualStyle
  2
ColorChange
 70
    16
 71
     2
 72
     2
 73
     3
 90
        0
 40
-0.6
 41
-30.0
 62
     5
 63
     8
 74
     1
 91
        4
 64
     7
 65
   257
 75
     1
175
     1
 42
1.0
 92
        8
 66
     8
 43
1.0
 76
     1
 77
     6
 78
     2
 67
     7
 79
     5
170
     0
171
     0
290
     0
174
     0
 93
        1
 44
0.0
173
     0
291
     1
 45
0.0
1001
ACAD
1000
AcDbSavedByObjectVersion
1070
     0
  0
VISUALSTYLE
  5
23F
102
{ACAD_XDICTIONARY
360
6E1B
102
}
102
{ACAD_REACTORS
330
236
102
}
330
236
100
AcDbVisualStyle
  2
Conceptual
 70
     9
 71
     3
 72
     2
 73
     0
 90
        0
 40
-0.6
 41
-30.0
 62
     5
 63
     7
 74
     2
 91
        2
 64
     7
 65
   257
 75
     1
175
     1
 42
40.0
 92
        8
 66
     7
 43
1.0
 76
     1
 77
     6
 78
     2
 67
     7
 79
     3
170
     0
171
     0
290
     0
174
     0
 93
        1
 44
0.0
173
     0
291
     0
 45
0.0
1001
ACAD
1000
AcDbSavedByObjectVersion
1070
     0
  0
VISUALSTYLE
  5
241
102
{ACAD_XDICTIONARY
360
6E1F
102
}
102
{ACAD_REACTORS
330
236
102
}
330
236
100
AcDbVisualStyle
  2
Dim
 70
    11
 71
     2
 72
     2
 73
     0
 90
        0
 40
-0.6
 41
-30.0
 62
     5
 63
     7
 74
     1
 91
        4
 64
     7
 65
   257
 75
     1
175
     1
 42
1.0
 92
        8
 66
     7
 43
1.0
 76
     1
 77
     6
 78
     2
 67
     7
 79
     5
170
     0
171
     0
290
     0
174
     0
 93
        1
 44
-50.0
173
     0
291
     1
 45
0.0
1001
ACAD
1000
AcDbSavedByObjectVersion
1070
     0
  0
VISUALSTYLE
  5
20EF
102
{ACAD_XDICTIONARY
360
6E3E
102
}
102
{ACAD_REACTORS
330
236
102
}
330
236
100
AcDbVisualStyle
  2
EdgeColorOff
 70
    22
 71
     2
 72
     2
 73
     0
 90
        0
 40
-0.6
 41
-30.0
 62
     5
 63
     7
 74
     1
 91
        4
 64
     7
 65
   257
 75
     1
175
     1
 42
1.0
 92
        8
 66
     7
 43
1.0
 76
     1
 77
     6
 78
     2
 67
     7
 79
     5
170
     0
171
     0
290
     0
174
     0
 93
        1
 44
0.0
173
     0
291
     1
 45
0.0
1001
ACAD
1000
AcDbSavedByObjectVersion
1070
     0
  0
VISUALSTYLE
  5
245
102
{ACAD_XDICTIONARY
360
6E27
102
}
102
{ACAD_REACTORS
330
236
102
}
330
236
100
AcDbVisualStyle
  2
Facepattern
 70
    15
 71
     2
 72
     2
 73
     0
 90
        0
 40
-0.6
 41
-30.0
 62
     5
 63
     7
 74
     1
 91
        4
 64
     7
 65
   257
 75
     1
175
     1
 42
1.0
 92
        8
 66
     7
 43
1.0
 76
     1
 77
     6
 78
     2
 67
     7
 79
     5
170
     0
171
     0
290
     0
174
     0
 93
        1
 44
0.0
173
     0
291
     1
 45
0.0
1001
ACAD
1000
AcDbSavedByObjectVersion
1070
     0
  0
VISUALSTYLE
  5
237
102
{ACAD_XDICTIONARY
360
6E0B
102
}
102
{ACAD_REACTORS
330
236
102
}
330
236
100
AcDbVisualStyle
  2
Flat
 70
     0
 71
     2
 72
     1
 73
     1
 90
        2
 40
-0.6
 41
30.0
 62
     5
 63
     7
 74
     0
 91
        4
 64
     7
 65
   257
 75
     1
175
     1
 42
1.0
 92
        8
 66
     7
 43
1.0
 76
     1
 77
     6
 78
     2
 67
     7
 79
     5
170
     0
171
     0
290
     0
174
     0
 93
       13
 44
0.0
173
     0
291
     1
 45
0.0
1001
ACAD
1000
AcDbSavedByObjectVersion
1070
     0
  0
VISUALSTYLE
  5
238
102
{ACAD_XDICTIONARY
360
6E0D
102
}
102
{ACAD_REACTORS
330
236
102
}
330
236
100
AcDbVisualStyle
  2
FlatWithEdges
 70
     1
 71
     2
 72
     1
 73
     1
 90
        2
 40
-0.6
 41
30.0
 62
     5
 63
     7
 74
     1
 91
        4
 64
     7
 65
   257
 75
     1
175
     1
 42
1.0
 92
        0
 66
   257
 43
1.0
 76
     1
 77
     6
 78
     2
 67
     7
 79
     5
170
     0
171
     0
290
     0
174
     0
 93
       13
 44
0.0
173
     0
291
     1
 45
0.0
1001
ACAD
1000
AcDbSavedByObjectVersion
1070
     0
  0
VISUALSTYLE
  5
239
102
{ACAD_XDICTIONARY
360
6E0F
102
}
102
{ACAD_REACTORS
330
236
102
}
330
236
100
AcDbVisualStyle
  2
Gouraud
 70
     2
 71
     2
 72
     2
 73
     1
 90
        2
 40
-0.6
 41
30.0
 62
     5
 63
     7
 74
     0
 91
        4
 64
     7
 65
   257
 75
     1
175
     1
 42
1.0
 92
        0
 66
     7
 43
1.0
 76
     1
 77
     6
 78
     2
 67
     7
 79
     5
170
     0
171
     0
290
     0
174
     0
 93
       13
 44
0.0
173
     0
291
     1
 45
0.0
1001
ACAD
1000
AcDbSavedByObjectVersion
1070
     0
  0
VISUALSTYLE
  5
23A
102
{ACAD_XDICTIONARY
360
6E11
102
}
102
{ACAD_REACTORS
330
236
102
}
330
236
100
AcDbVisualStyle
  2
GouraudWithEdges
 70
     3
 71
     2
 72
     2
 73
     1
 90
        2
 40
-0.6
 41
30.0
 62
     5
 63
     7
 74
     1
 91
        4
 64
     7
 65
   257
 75
     1
175
     1
 42
1.0
 92
        0
 66
   257
 43
1.0
 76
     1
 77
     6
 78
     2
 67
     7
 79
     5
170
     0
171
     0
290
     0
174
     0
 93
       13
 44
0.0
173
     0
291
     1
 45
0.0
1001
ACAD
1000
AcDbSavedByObjectVersion
1070
     0
  0
VISUALSTYLE
  5
20E7
102
{ACAD_XDICTIONARY
360
6E2E
102
}
102
{ACAD_REACTORS
330
236
102
}
330
236
100
AcDbVisualStyle
  2
Hidden
 70
     6
 71
     1
 72
     2
 73
     2
 90
        0
 40
-0.6
 41
-30.0
 62
     5
 63
     7
 74
     2
 91
        2
 64
     7
 65
   257
 75
     2
175
     1
 42
40.0
 92
        0
 66
   257
 43
1.0
 76
     1
 77
     6
 78
     2
 67
     7
 79
     3
170
     0
171
     0
290
     0
174
     0
 93
        1
 44
0.0
173
     0
291
     0
 45
0.0
1001
ACAD
1000
AcDbSavedByObjectVersion
1070
     0
  0
VISUALSTYLE
  5
20ED
102
{ACAD_XDICTIONARY
360
6E3A
102
}
102
{ACAD_REACTORS
330
236
102
}
330
236
100
AcDbVisualStyle
  2
JitterOff
 70
    20
 71
     2
 72
     2
 73
     0
 90
        0
 40
-0.6
 41
-30.0
 62
     5
 63
     7
 74
     1
 91
        4
 64
     7
 65
   257
 75
     1
175
     1
 42
1.0
 92
       10
 66
     7
 43
1.0
 76
     1
 77
     6
 78
     2
 67
     7
 79
     5
170
     0
171
     0
290
     0
174
     0
 93
        1
 44
0.0
173
     0
291
     1
 45
0.0
1001
ACAD
1000
AcDbSavedByObjectVersion
1070
     0
  0
VISUALSTYLE
  5
244
102
{ACAD_XDICTIONARY
360
6E25
102
}
102
{ACAD_REACTORS
330
236
102
}
330
236
100
AcDbVisualStyle
  2
Linepattern
 70
    14
 71
     2
 72
     2
 73
     0
 90
        0
 40
-0.6
 41
-30.0
 62
     5
 63
     7
 74
     1
 91
        4
 64
     7
 65
   257
 75
     7
175
     7
 42
1.0
 92
        8
 66
     7
 43
1.0
 76
     1
 77
     6
 78
     2
 67
     7
 79
     5
170
     0
171
     0
290
     0
174
     0
 93
        1
 44
0.0
173
     0
291
     1
 45
0.0
1001
ACAD
1000
AcDbSavedByObjectVersion
1070
     0
  0
VISUALSTYLE
  5
20EE
102
{ACAD_XDICTIONARY
360
6E3C
102
}
102
{ACAD_REACTORS
330
236
102
}
330
236
100
AcDbVisualStyle
  2
OverhangOff
 70
    21
 71
     2
 72
     2
 73
     0
 90
        0
 40
-0.6
 41
-30.0
 62
     5
 63
     7
 74
     1
 91
        4
 64
     7
 65
   257
 75
     1
175
     1
 42
1.0
 92
        9
 66
     7
 43
1.0
 76
     1
 77
     6
 78
     2
 67
     7
 79
     5
170
     0
171
     0
290
     0
174
     0
 93
        1
 44
0.0
173
     0
291
     1
 45
0.0
1001
ACAD
1000
AcDbSavedByObjectVersion
1070
     0
  0
VISUALSTYLE
  5
240
102
{ACAD_XDICTIONARY
360
6E1D
102
}
102
{ACAD_REACTORS
330
236
102
}
330
236
100
AcDbVisualStyle
  2
Realistic
 70
     8
 71
     2
 72
     2
 73
     0
 90
        0
 40
-0.6
 41
-30.0
 62
     5
 63
     7
 74
     1
 91
        0
 64
     7
 65
   257
 75
     1
175
     1
 42
1.0
 92
        8
 66
     8
 43
1.0
 76
     1
 77
     6
 78
     2
 67
     7
 79
     5
170
     0
171
     0
290
     0
174
     0
 93
       13
 44
0.0
173
     0
291
     0
 45
0.0
1001
ACAD
1000
AcDbSavedByObjectVersion
1070
     0
  0
VISUALSTYLE
  5
20EC
102
{ACAD_XDICTIONARY
360
6E38
102
}
102
{ACAD_REACTORS
330
236
102
}
330
236
100
AcDbVisualStyle
  2
Shaded
 70
    27
 71
     2
 72
     2
 73
     1
 90
        2
 40
-0.6
 41
30.0
 62
     5
 63
     7
 74
     0
 91
        4
 64
     7
 65
   257
 75
     1
175
     1
 42
1.0
 92
        8
 66
   257
 43
1.0
 76
     1
 77
     6
 78
     2
 67
     8
 79
     3
170
     0
171
     0
290
     0
174
     0
 93
        5
 44
0.0
173
     0
291
     0
 45
0.0
1001
ACAD
1000
AcDbSavedByObjectVersion
1070
     0
  0
VISUALSTYLE
  5
20EB
102
{ACAD_XDICTIONARY
360
6E36
102
}
102
{ACAD_REACTORS
330
236
102
}
330
236
100
AcDbVisualStyle
  2
Shaded with edges
 70
    26
 71
     2
 72
     2
 73
     1
 90
        2
 40
-0.6
 41
30.0
 62
     5
 63
     7
 74
     1
 91
       10
 64
     7
 65
   257
 75
     2
175
     1
 42
1.0
 92
        8
 66
   257
 43
1.0
 76
     1
 77
     6
 78
     2
 67
     7
 79
     3
170
     0
171
     0
290
     0
174
     0
 93
        5
 44
0.0
173
     0
291
     0
 45
0.0
1001
ACAD
1000
AcDbSavedByObjectVersion
1070
     0
  0
VISUALSTYLE
  5
20E8
102
{ACAD_XDICTIONARY
360
6E30
102
}
102
{ACAD_REACTORS
330
236
102
}
330
236
100
AcDbVisualStyle
  2
Shades of Gray
 70
    23
 71
     2
 72
     2
 73
     3
 90
        0
 40
-0.6
 41
-30.0
 62
     5
 63
     7
 74
     2
 91
        2
 64
     7
 65
     7
 75
     1
175
     1
 42
40.0
 92
        8
 66
     7
 43
1.0
 76
     1
 77
     6
 78
     2
 67
     7
 79
     3
170
     0
171
     0
290
     0
174
     0
 93
        1
 44
0.0
173
     0
291
     0
 45
0.0
1001
ACAD
1000
AcDbSavedByObjectVersion
1070
     0
  0
VISUALSTYLE
  5
20E9
102
{ACAD_XDICTIONARY
360
6E32
102
}
102
{ACAD_REACTORS
330
236
102
}
330
236
100
AcDbVisualStyle
  2
Sketchy
 70
    24
 71
     1
 72
     2
 73
     2
 90
        0
 40
-0.6
 41
-30.0
 62
     5
 63
     7
 74
     2
 91
        2
 64
     7
 65
     7
 75
     1
175
     1
 42
40.0
 92
       11
 66
     7
 43
1.0
 76
     1
 77
     6
 78
     2
 67
     7
 79
     6
170
     0
171
     0
290
     0
174
     0
 93
        1
 44
0.0
173
     0
291
     0
 45
0.0
1001
ACAD
1000
AcDbSavedByObjectVersion
1070
     0
  0
VISUALSTYLE
  5
243
102
{ACAD_XDICTIONARY
360
6E23
102
}
102
{ACAD_REACTORS
330
236
102
}
330
236
100
AcDbVisualStyle
  2
Thicken
 70
    13
 71
     2
 72
     2
 73
     0
 90
        0
 40
-0.6
 41
-30.0
 62
     5
 63
     7
 74
     1
 91
        4
 64
     7
 65
   257
 75
     1
175
     1
 42
1.0
 92
       12
 66
     7
 43
1.0
 76
     1
 77
     6
 78
     2
 67
     7
 79
     5
170
     0
171
     0
290
     0
174
     0
 93
        1
 44
0.0
173
     0
291
     1
 45
0.0
1001
ACAD
1000
AcDbSavedByObjectVersion
1070
     0
  0
VISUALSTYLE
  5
20E6
102
{ACAD_XDICTIONARY
360
6E2C
102
}
102
{ACAD_REACTORS
330
236
102
}
330
236
100
AcDbVisualStyle
  2
Wireframe
 70
     5
 71
     0
 72
     2
 73
     0
 90
        0
 40
-0.6
 41
-30.0
 62
     5
 63
     7
 74
     1
 91
        4
 64
     7
 65
   257
 75
     1
175
     1
 42
1.0
 92
        0
 66
   257
 43
1.0
 76
     1
 77
     6
 78
     2
 67
     7
 79
     3
170
     0
171
     0
290
     0
174
     0
 93
        1
 44
0.0
173
     0
291
     0
 45
0.0
1001
ACAD
1000
AcDbSavedByObjectVersion
1070
     0
  0
VISUALSTYLE
  5
20EA
102
{ACAD_XDICTIONARY
360
6E34
102
}
102
{ACAD_REACTORS
330
236
102
}
330
236
100
AcDbVisualStyle
  2
X-Ray
 70
    25
 71
     2
 72
     2
 73
     1
 90
        1
 40
0.5
 41
-30.0
 62
     5
 63
     7
 74
     1
 91
        0
 64
     7
 65
   257
 75
     1
175
     1
 42
1.0
 92
        8
 66
     7
 43
1.0
 76
     1
 77
     6
 78
     2
 67
     7
 79
     3
170
     0
171
     0
290
     0
174
     0
 93
       13
 44
0.0
173
     0
291
     0
 45
0.0
1001
ACAD
1000
AcDbSavedByObjectVersion
1070
     0
  0
DICTIONARYVAR
  5
22EE
102
{ACAD_REACTORS
330
34
102
}
330
34
100
DictionaryVariables
280
     0
  1
2:1
  0
DICTIONARYVAR
  5
22ED
102
{ACAD_REACTORS
330
34
102
}
330
34
100
DictionaryVariables
280
     0
  1
STANDARD
  0
DICTIONARYVAR
  5
2C0
102
{ACAD_REACTORS
330
34
102
}
330
34
100
DictionaryVariables
280
     0
  1
STANDARD
  0
DICTIONARYVAR
  5
6DF7
102
{ACAD_REACTORS
330
34
102
}
330
34
100
DictionaryVariables
280
     0
  1
2
  0
DICTIONARYVAR
  5
33A2
102
{ACAD_REACTORS
330
34
102
}
330
34
100
DictionaryVariables
280
     0
  1
1
  0
DICTIONARYVAR
  5
33A3
102
{ACAD_REACTORS
330
34
102
}
330
34
100
DictionaryVariables
280
     0
  1
1
  0
DICTIONARYVAR
  5
35
102
{ACAD_REACTORS
330
34
102
}
330
34
100
DictionaryVariables
280
     0
  1
0
  0
DICTIONARYVAR
  5
6DF5
102
{ACAD_REACTORS
330
34
102
}
330
34
100
DictionaryVariables
280
     0
  1
127
  0
DICTIONARYVAR
  5
6DF6
102
{ACAD_REACTORS
330
34
102
}
330
34
100
DictionaryVariables
280
     0
  1
0
  0
DICTIONARY
  5
C4E
102
{ACAD_REACTORS
330
43
102
}
330
43
100
AcDbDictionary
281
     1
  0
DICTIONARY
  5
15F
102
{ACAD_REACTORS
330
43
102
}
330
43
100
AcDbDictionary
281
     1
  0
XRECORD
  5
2A8
102
{ACAD_REACTORS
330
43
102
}
330
43
100
AcDbXrecord
280
     1
 90
-1023410169
  0
DICTIONARY
  5
229D
330
22
100
AcDbDictionary
280
     1
281
     1
  3
ACAD_XREC_ROUNDTRIP
360
6E02
  3
AcPublish_PlotSettingsOverride
360
33AC
  3
ADSK_XREC_LAYOUTTHUMBNAIL
360
229E
  0
DICTIONARY
  5
6E00
330
1E
100
AcDbDictionary
280
     1
281
     1
  3
ACAD_XREC_ROUNDTRIP
360
6E01
  0
DICTIONARY
  5
6E03
330
26
100
AcDbDictionary
280
     1
281
     1
  3
ACAD_XREC_ROUNDTRIP
360
6E04
  0
DICTIONARY
  5
6E07
330
234
100
AcDbDictionary
280
     1
281
     1
  3
ACAD_XREC_ROUNDTRIP
360
6E08
  0
DICTIONARY
  5
6E05
330
233
100
AcDbDictionary
280
     1
281
     1
  3
ACAD_XREC_ROUNDTRIP
360
6E06
  0
DICTIONARY
  5
6E09
330
235
100
AcDbDictionary
280
     1
281
     1
  3
ACAD_XREC_ROUNDTRIP
360
6E0A
  0
DICTIONARY
  5
229F
330
249
100
AcDbDictionary
280
     1
281
     1
  3
ACAD_ROUNDTRIP_2008_TABLESTYLE_CELLSTYLEMAP
360
6DF8
  3
ACAD_XREC_ROUNDTRIP
360
6E2B
  0
DICTIONARY
  5
6E15
330
23C
100
AcDbDictionary
280
     1
281
     1
  3
ACAD_XREC_ROUNDTRIP
360
6E16
  0
DICTIONARY
  5
6E19
330
23E
100
AcDbDictionary
280
     1
281
     1
  3
ACAD_XREC_ROUNDTRIP
360
6E1A
  0
DICTIONARY
  5
6E17
330
23D
100
AcDbDictionary
280
     1
281
     1
  3
ACAD_XREC_ROUNDTRIP
360
6E18
  0
DICTIONARY
  5
6E13
330
23B
100
AcDbDictionary
280
     1
281
     1
  3
ACAD_XREC_ROUNDTRIP
360
6E14
  0
DICTIONARY
  5
6E21
330
242
100
AcDbDictionary
280
     1
281
     1
  3
ACAD_XREC_ROUNDTRIP
360
6E22
  0
DICTIONARY
  5
6E29
330
246
100
AcDbDictionary
280
     1
281
     1
  3
ACAD_XREC_ROUNDTRIP
360
6E2A
  0
DICTIONARY
  5
6E1B
330
23F
100
AcDbDictionary
280
     1
281
     1
  3
ACAD_XREC_ROUNDTRIP
360
6E1C
  0
DICTIONARY
  5
6E1F
330
241
100
AcDbDictionary
280
     1
281
     1
  3
ACAD_XREC_ROUNDTRIP
360
6E20
  0
DICTIONARY
  5
6E3E
330
20EF
100
AcDbDictionary
280
     1
281
     1
  3
ACAD_XREC_ROUNDTRIP
360
6E3F
  0
DICTIONARY
  5
6E27
330
245
100
AcDbDictionary
280
     1
281
     1
  3
ACAD_XREC_ROUNDTRIP
360
6E28
  0
DICTIONARY
  5
6E0B
330
237
100
AcDbDictionary
280
     1
281
     1
  3
ACAD_XREC_ROUNDTRIP
360
6E0C
  0
DICTIONARY
  5
6E0D
330
238
100
AcDbDictionary
280
     1
281
     1
  3
ACAD_XREC_ROUNDTRIP
360
6E0E
  0
DICTIONARY
  5
6E0F
330
239
100
AcDbDictionary
280
     1
281
     1
  3
ACAD_XREC_ROUNDTRIP
360
6E10
  0
DICTIONARY
  5
6E11
330
23A
100
AcDbDictionary
280
     1
281
     1
  3
ACAD_XREC_ROUNDTRIP
360
6E12
  0
DICTIONARY
  5
6E2E
330
20E7
100
AcDbDictionary
280
     1
281
     1
  3
ACAD_XREC_ROUNDTRIP
360
6E2F
  0
DICTIONARY
  5
6E3A
330
20ED
100
AcDbDictionary
280
     1
281
     1
  3
ACAD_XREC_ROUNDTRIP
360
6E3B
  0
DICTIONARY
  5
6E25
330
244
100
AcDbDictionary
280
     1
281
     1
  3
ACAD_XREC_ROUNDTRIP
360
6E26
  0
DICTIONARY
  5
6E3C
330
20EE
100
AcDbDictionary
280
     1
281
     1
  3
ACAD_XREC_ROUNDTRIP
360
6E3D
  0
DICTIONARY
  5
6E1D
330
240
100
AcDbDictionary
280
     1
281
     1
  3
ACAD_XREC_ROUNDTRIP
360
6E1E
  0
DICTIONARY
  5
6E38
330
20EC
100
AcDbDictionary
280
     1
281
     1
  3
ACAD_XREC_ROUNDTRIP
360
6E39
  0
DICTIONARY
  5
6E36
330
20EB
100
AcDbDictionary
280
     1
281
     1
  3
ACAD_XREC_ROUNDTRIP
360
6E37
  0
DICTIONARY
  5
6E30
330
20E8
100
AcDbDictionary
280
     1
281
     1
  3
ACAD_XREC_ROUNDTRIP
360
6E31
  0
DICTIONARY
  5
6E32
330
20E9
100
AcDbDictionary
280
     1
281
     1
  3
ACAD_XREC_ROUNDTRIP
360
6E33
  0
DICTIONARY
  5
6E23
330
243
100
AcDbDictionary
280
     1
281
     1
  3
ACAD_XREC_ROUNDTRIP
360
6E24
  0
DICTIONARY
  5
6E2C
330
20E6
100
AcDbDictionary
280
     1
281
     1
  3
ACAD_XREC_ROUNDTRIP
360
6E2D
  0
DICTIONARY
  5
6E34
330
20EA
100
AcDbDictionary
280
     1
281
     1
  3
ACAD_XREC_ROUNDTRIP
360
6E35
  0
XRECORD
  5
6E02
102
{ACAD_REACTORS
330
229D
102
}
330
229D
100
AcDbXrecord
280
     1
102
SHADEPLOT
 70
     0
102
SHADEPLOTRESLEVEL
 70
     2
102
SHADEPLOTCUSTOMDPI
 70
   300
  0
PLOTSETTINGS
  5
33AC
102
{ACAD_XDICTIONARY
360
6E40
102
}
102
{ACAD_REACTORS
330
229D
102
}
330
229D
100
AcDbPlotSettings
  1

  2
DWG To PDF.pc3
  4
ISO_full_bleed_A3_(420.00_x_297.00_MM)
  6
AM_VIEW1
 40
0.7937499880790711
 41
0.7937499880790711
 42
0.79376220703125
 43
0.79376220703125
 44
420.0
 45
297.0
 46
-0.8312048536232339
 47
-0.8050835008356784
 48
0.0
 49
0.0
140
0.0
141
0.0
142
2.0
143
1.0
 70
 11940
 72
     1
 73
     0
 74
     1
  7
IMAGIO.ctb
 75
     0
147
1.920232922602835
148
-222.7540590264311
149
-167.1000919798244
1001
ACAD_PSEXT
1000
DWG To PDF.pc3
1000
DWG To PDF
1000
ファイル
1000

1070
     0
  0
XRECORD
  5
229E
102
{ACAD_REACTORS
330
229D
102
}
330
229D
100
AcDbXrecord
280
     1
310
28000000000100008C0000000100080000000000008C0000000000000000000000010000000000000000000000000000FFFFFF000000000000000000000000000000000000000000000000000000000000000000330000006600000099000000CC000000FF00000000330000333300006633000099330000CC330000FF3300
310
0000660000336600006666000099660000CC660000FF66000000990000339900006699000099990000CC990000FF99000000CC000033CC000066CC000099CC0000CCCC0000FFCC000000FF000033FF000066FF000099FF0000CCFF0000FFFF000000003300330033006600330099003300CC003300FF003300003333003333
310
33006633330099333300CC333300FF33330000663300336633006666330099663300CC663300FF66330000993300339933006699330099993300CC993300FF99330000CC330033CC330066CC330099CC3300CCCC3300FFCC330000FF330033FF330066FF330099FF3300CCFF3300FFFF330000006600330066006600660099
310
006600CC006600FF00660000336600333366006633660099336600CC336600FF33660000666600336666006666660099666600CC666600FF66660000996600339966006699660099996600CC996600FF99660000CC660033CC660066CC660099CC6600CCCC6600FFCC660000FF660033FF660066FF660099FF6600CCFF6600
310
FFFF660000009900330099006600990099009900CC009900FF00990000339900333399006633990099339900CC339900FF33990000669900336699006666990099669900CC669900FF66990000999900339999006699990099999900CC999900FF99990000CC990033CC990066CC990099CC9900CCCC9900FFCC990000FF99
310
0033FF990066FF990099FF9900CCFF9900FFFF99000000CC003300CC006600CC009900CC00CC00CC00FF00CC000033CC003333CC006633CC009933CC00CC33CC00FF33CC000066CC003366CC006666CC009966CC00CC66CC00FF66CC000099CC003399CC006699CC009999CC00CC99CC00FF99CC0000CCCC0033CCCC0066CC
310
CC0099CCCC00CCCCCC00FFCCCC0000FFCC0033FFCC0066FFCC0099FFCC00CCFFCC00FFFFCC000000FF003300FF006600FF009900FF00CC00FF00FF00FF000033FF003333FF006633FF009933FF00CC33FF00FF33FF000066FF003366FF006666FF009966FF00CC66FF00FF66FF000099FF003399FF006699FF009999FF00CC
310
99FF00FF99FF0000CCFF0033CCFF0066CCFF0099CCFF00CCCCFF00FFCCFF0000FFFF0033FFFF0066FFFF0099FFFF00CCFFFF00FFFFFF00000000000D0D0D001A1A1A00282828003535350043434300505050005D5D5D006B6B6B00787878008686860093939300A1A1A100AEAEAE00BBBBBB00C9C9C900D6D6D600E4E4E400
310
F1F1F100FFFFFF00000000000000000000000000000000000000000000000000000000000000000000000000000000000000000000000000000000000000000000000000000000000000000000F5F5F5F5F5F5F5F5F5F5F5000000000000000000000000000000000000000000000000000000000000000000000000000000
310
00000000000000000000000000000000000000000000000000000000000000000000000000000000000000000000000000000000000000000000000000000000000000000000000000000000000000000000000000000000000000000000000000000000000000000000000000000000000000000000000000000000000000
310
00000000000000000000F5F5F5F5F5F5F5F5F5F5F500000000000000000000000000000000000000000000000000000000000000000000000000000000000000000000000000000000000000000000F50000000000000000000000000000000000000000000000000000000000000000000000000000000000000000000000
310
00000000000000000000000000000000000000000000000000000000000000000000000000000000000000000000000000000000000000000000000000000000000000000000000000000000000000000000000000000000000000000000000000000000000000000000000000000000000000000000000000000000000000
310
00000000000000000000000000000000000000000000F500000000000000000000000000000000000000000000000000000000000000000000000000000000000000000000000000000000000000000000F5000000000000000000000000000000000000000000000000000000000000000000000000000000000000000000
310
00000000000000000000000000000000000000000000000000000000000000000000000000000000000000000000000000000000000000000000000000000000000000000000000000000000000000000000000000000000000000000000000000000000000000000000000000000000000000000000000000000000000000
310
000000000000000000000000000000000000000000000000F500000000000000000000000000000000000000000000000000000000000000000000000000000000000000000000000000000000000000000000F500000000000000000000000000000000000000000000000000000000000000000000000000000000000000
310
00000000000000000000000000000000000000000000000000000000000000000000000000000000000000000000000000000000000000000000000000000000000000000000000000000000000000000000000000000000000000000000000000000000000000000000000000000000000000000000000000000000000000
310
0000000000000000000000000000000000000000000000000000F500000000000000000000000000000000000000000000000000000000000000000000000000000000000000000000000000000000000000000000F50000000000000000000000000000000000000000000000000000000000000000000000000000000000
310
00000000000000000000000000000000000000000000000000000000000000000000000000000000000000000000000000000000000000000000000000000000000000000000000000000000000000000000000000000000000000000000000000000000000000000000000000000000000000000000000000000000000000
310
00000000000000000000000000000000000000000000000000000000F500000000000000000000000000000000000000000000000000000000000000000000000000000000000000000000000000000000000000000000F5000000000000000000000000000000000000000000000000000000000000000000000000000000
310
00000000000000000000000000000000000000000000000000000000000000000000000000000000000000000000000000000000000000000000000000000000000000000000000000000000000000000000000000000000000000000000000000000000000000000000000000000000000000000000000000000000000000
310
000000000000000000000000000000000000000000000000000000000000F500000000000000000000000000000000000000000000000000000000000000000000000000000000000000000000000000000000000000000000F50000000000CECECECECECECECECECECECECECECECECECECECECECECECECECECECECECECECE
310
CECECECECECECECECECECECECECECECECECECECECECECECECECECECECECECECECECECECECECECECECECECECECECECECECECECECECECECECECECECECECECECECECECECECECECECECECECECECECECECECECECECECECECECECECECECECECECECECECECECECECECECFCFCFCFCFCFCFCFCFCFCFCFCFCFCFCFCFCFCFCFCFCFCF0FCF
310
CFCFCFCFCFCFCFCFCFCFCFCFCFCFCFCFCFCFCFCFCFCFCFCFCFCFCF0000000000F500000000000000000000000000000000000000000000000000000000000000000000000000000000000000000000000000000000000000000000F50000000000CE0000000000000000000000000000000000000000000000000000000000
310
0000000000000000000000000000000000000000000000000000000000000000000000000000000000000000000000000000000000000000000000000000000000000000000000000000000000000000000000000000000000000000000000000000000000000000CFF5F5F5BEBE0000F5F5F5F5F5F5F5F5F5F5F5F5F50000
310
0F00000000F5F500F500F5F5F5F5F500000000000000000000000000CF0000000000F500000000000000000000000000000000000000000000000000000000000000000000000000000000000000000000000000000000000000000000F50000000000CE000000000000000000000000000000000000000000000000000000
310
00000000000000000000000000000000000000000000000000000000000000000000000000000000000000000000000000000000000000000000000000000000000000000000000000000000000000000000000000000000000000000000000000000000000000000000F5F5F5F5BEBEF5F500F5F50000F5F5F5F5F5F5F5F5
310
F5F5F500000000F5F5F5F5F5F5F5F5F5F500000000000000000000000000CF0000000000F500000000000000000000000000000000000000000000000000000000000000000000000000000000000000000000000000000000000000000000F50000000000CE00000000000000000000000000000000000000000000000000
310
000000000000000000000000000000000000000000000000000000000000000000000000000000000000000000000000000000000000000000000000000000000000000000000000000000000000000000000000000000000000000000000000000000000000000000000000CFF5F5F5BEBE00F500F5F50000F5F5F5F5F5F5
310
F5F5F5F50FDCDCDCDCF5F5F5F500F5F5F5F5F500000000000000000000000000CF0000000000F500000000000000000000000000000000000000000000000000000000000000000000000000000000000000000000000000000000000000000000F50000000000CE0000000000000000000000000000000000000000000000
310
0000000000000000000000000000000000000000000000000000000000000000000000000000000000000000000000000000000000000000000000000000000000000000000000000000000000000000000000000000000000000000000000000000000000000000000000000000CF00F5BEF50000F5F5F5F5F5F5F5F5F5F5
310
F5F5F5F5F5F5F5DCDCDCDCDC0F0F0F0F0F0F0F0F0F0F0F0F0F0F0F0F0F0F0F0F0F0F0F0000000000F500000000000000000000000000000000000000000000000000000000000000000000000000000000000000000000000000000000000000000000000000000000CE000000000000000000000000000000000000000000
310
00000000000000000000000000000000000000000000000000000000000000000000000000000000000000000000000000000000000000000000000000000000000000000000000000000000000000000000000000000000000000000000000000000000000000000000000000000000CFBEF5BEF500F5F5F5F5F50000F5F5
310
F5F5F5F5F5F5F5F5F5000000000000000000000000000000000000000000000000000000CF00000000000000000000000000000000000000000000000000000000000000000000000000000000000000000000000000000000000000000000000000000000000000000000CE00000000000000000000000000000000000000
310
000000000000000000000000000000000000000000000000000000000000000000000000000000000000000000000000000000000000000000000000000000000000000000000000000000000000000000000000000000000000000000000000000000000000000000000000000000000000CFBEBEF50000F5F5F5F5F5F500
310
F5F5F5F5F5F5F5F5F5F50F00000000F5F5F5F5F5F5F5F5F5F5F50000F5F5F5F5F5F5F5F50000CF00000000000000000000000000000000000000000000000000000000000000000000000000000000000000000000000000000000000000000000000000000000000000000000CE0000000000000000000000000000000000
310
0000000000000000000000000000000000000000000000000000000000000000000000000000000000000000000000000000000000000000000000000000000000000000000000000000000000000000000000000000000000000000000000000000000000000000000000000000000000000000CFBEBEF500000000000000
310
0000F5F5F500F500F500F5F50FDCDCDCDCF5F5F5F5F5F5F5F5F5F5F5F500F5F5F5F5F5F5F5F50000CF00000000000000000000000000000000000000000000000000000000000000000000000000000000000000000000000000000000000000000000000000000000000000000000CE000000000000000000000000000000
310
00000000000000000000000000000000000000000000000000000000000000000000000000000000000000000000000000000000000000000000000000000000000000000000000000000000000000000000000000000000000000000000000000000000000000000000000000000000000000000000CF0000000000000000
310
00000000000000000000000000000FDCDCDCDC0000000000000000000000000000000000000000000000CF00000000000000000000000000000000000000000000000000000000000000000000000000000000000000000000000000000000000000000000000000000000000000000000CE00000000000000000000000000
310
0000000000000000000000000000000000000000000000000000000000000000000000000000000000000000000000000000000000000000000000000000000000000000000000000000000000000000000000000000000000000000000000000000000000000000000000000000000000000000000000000F0F0F0F0F0FDC
310
DCDCDC0F0F0F0F0F0F0FDCDCDCDCDCDC0F0F0F0F0F0F0F0F0F0F0F0F0F0F0F0F0F0F0F0F0F0F0F0F0F0F0F0F0F00000000000000000000000000000000000000000000000000000000000000000000000000000000000000000000000000000000000000000000000000000000000000000000CE0000000000000000000000
310
0000000000000000000000000000000000000000000000000000000000000000000000000000000000000000000000000000000000000000000000000000000000000000000000000000000000000000000000000000000000000000000000000000000000000000000000000000000000000000000000000000CFDCDCDC00
310
00DCDCDCDC0000DCDCDCDC00DCDCDCDCDCDC0FDCDC00DC0000000000000000000000000000000000000000000000CF00000000000000000000000000000000000000000000000000000000000000000000000000000000000000000000000000000000000000000000000000000000000000000000CE000000000000000000
310
00000000000000000000000000000000000000000000000000000000000000000000000000000000000000000000000000000000000000000000000000000000000000000000000000000000000000000000000000000000000000000000000000000000000000000000000000000000000000000000000000000000DCDCDC
310
DC0000DC0000000000DCDCDCDC00DCDC000000000FDCDCDCDCDC00000000000000000000000000000000000000000000CF00000000000000000000000000000000000000000000000000000000000000000000000000000000000000000000000000000000000000000000000000000000000000000000CE00000000000000
310
0000000000000000000000000000000000000000000000000000000000000000000000000000000000000000000000000000000000000000000000000000000000000000000000000000000000000000000000000000000000000000000000000000000000000000000000000000000000000000000000000000000000000F
310
DCDCDC0F0FDCDCDCDC0F0FDCDC0F0F0FDCDCDCDCDC0F0FDCDC0FDC0F0F0F0F0F0F0F0F0F0F0F0F0F0F0F0F0F0F0F0F0F0F0F0F00000000000000000000000000000000000000000000000000000000000000000000000000000000000000000000000000000000000000000000000000000000000000000000CE0000000000
310
00000000000000000000000000000000000000000000000000000000000000000000000000000000000000000000000000000000000000000000000000000000000000000000000000000000000000000000000000000000000000000000000000000000000000000000000000000000000000000000000000000000000000
310
00CFDCDCDC0000DCDCDCDC0000DCDCDCDC00DCDC00DCDC000FDCDCDCDCDC00000000000000000000000000000000000000000000CF00000000000000000000000000000000000000000000000000000000000000000000000000000000000000000000000000000000000000000000000000000000000000000000CE000000
310
00000000000000000000000000000000000000000000000000000000000000000000000000000000000000000000000000000000000000000000000000000000000000000000000000000000000000000000000000000000000000000000000000000000000000000000000000000000000000000000000000000000000000
310
000000DCDCDCDC0000DCDCDCDC0000DCDCDCDC0000DC00DCDC000FDCDCDCDC0000000000000000000000000000000000000000000000CF00000000000000000000000000000000000000000000000000000000000000000000000000000000000000000000000000000000000000000000000000000000000000000000CE00
310
00000000000000000000000000000000000000000000000000000000000000000000000000000000000000000000000000000000000000000000000000000000000000000000000000000000000000000000000000000000000000000000000000000000000000000000000000000000000000000000000000000000000000
310
00000000000FDCDCDC0F0F0F0F0F0F0F0FDCDCDCDC0F0F0F0F0F0F0F0FDCDCDCDCDC0F0F0F0F0F0F0F0F0F0F0F0F0F0F0F0F0F0F0F0F0F0F0F00000000000000000000000000000000000000000000000000000000000000000000000000000000000000000000000000000000000000000000000000000000000000000000
310
CE000000000000000000000000000000000000000000000000000000000000000000000000000000000000000000000000000000000000000000000000000000000000000000000000000000000000000000000000000000000000000000000000000000000000000000000000000000000000000000000000000000000000
310
00000000000000CF000000000000000000000000000FDCDCDCDCDCDCDCDC0F00DCDCDCDCDCDCDC00DCDCDCDCDCDC0000000FDCDCDCDCDCDCDCDCDC0000000000000000000000000000000000000000000000000000000000000000000000000000000000000000000000000000000000000000000000000000000000000000
310
0000CE00000000000000000000000000000000000000000000000000000000000000000000000000000000000000000000000000000000000000000000000000000000000000000000000000000000000000000000000000000000000000000000000000000000000000000000000000000000000000000000000000000000
310
000000000000000000CF000000000000000000000000000FDCDCDCDCDCDCDCDC0F00DCDCDC00DCDCDC00DCDCDCDCDCDC0000000FDCDCDCDCDCDCDCDCDC000000000000000000000000000000000000000000000000000000000000000000000000000000000000000000000000000000000000000000000000000000000000
310
00000000CE0000000000000000000000000000000000000000000000000000000000000000000000000000000000000000000000000000000000000000000000000000000000000000000000000000000000000000000000000000000000000000000000000000000000000000000000000000000000000000000000000000
310
0000000000000000000000F5CFCFCFCFCFCFCFCFCFCFCFCFCFF5CFCFCFCFCFCFCFCF0FCFCFCFCFCFCFCFCFCF0FCFCFCFCFCFCFCFCF0FCFCFCFCFCFCFCFCFCF00000000000000000000000000000000000000000000000000000000000000000000000000000000000000000000000000000000000000000000000000000000
310
000000000000CE000000000000000000000000000000000000000000000000000000000000000000000000000000000000000000000000000000000000000000000000000000000000000000000000000000000000000000000000000000000000000000000000000000000000000000000000000000000000000000000000
310
00000000000000000000000000F50000F5F5F5F5F5F5F5F5000000F5000000000000F5F500F5F5F5F50000000000000000000000000000000000000000000000CE0000000000000000000000000000000000000000000000000000000000000000000000000000000000000000000000000000000000000000000000000000
310
0000000000000000CE00000000000000000000000000000000000000000000000000000000000000000000000000000000000000000000000000000000000000000000000000000000000000000000000000000000000000000000000000000000000000000000000000000000000000000000000000000000000000000000
310
000000000000000000000000000000F50000F5F5F5F5F5F5F5F5000000F5000000000000F5F500F5F5F5F50000000000000000000000000000000000000000000000CE000000000000000000000000000000000000000000000000000000000000000000000000000000000000000000000000000000000000000000000000
310
00000000000000000000CE0000000000000000000000000000000000000000000000000000000000000000000000000000000000000000000000000000000000000000000000000000000000000000000000000000000000000000000000000000000000000000000000000000000000000000000000000000000000000000
310
0000000000000000000000000000000000F500000000000000000000000000F5000000000000000000000000000000000000000000000000000000000000000000000000CE00000000000000000000000000000000000000000000000000000000000000000000000000000000000000000000000000000000000000000000
310
000000000000000000000000CE000000000000000000000000000000000000000000000000000000000000000000000000000000000000000000000000000000000000000000000000000000000000000000000000000000000000000000000000000000000000000000000000000000000000000000000000000000000000
310
2D000000000000000000000000000000000000F5F5F5F5F5F5F5F5F5F5F5F5F5F5F5F5F5F5F5F5F5F5F5F5F5F5F5F5F5F5F5F5F5F5F5F5F5F5F5F5F5F5F5F5F5F5F5F5F5F5F5F50000000000000000000000000000000000000000000000000000000000000000000000000000000000000000000000000000000000000000
310
0000000000000000000000000000CE000000000000000000000000000000000000000000000000000000000000000000F5F5F5F5F5F5F5000000000000000000000000000000000000000000F5F5F5F5F5F5F5F500000000000000000000000000000000000000000000000000000000000000000000000000000000000000
310
00002D000000000000000000000000000000000000000000000000000000000000000000000000000000000000000000000000000000000000000000000000000000000000000000CE000000000000000000000000000000000000000000000000000000000000000000000000000000000000000000000000000000000000
310
00000000000000000000000000000000CE0000000000000000000000002828282828282828282828000000000000000000F5F5000000000000F50000000000000000000000000000000000000000F5000000000000F5F500000000000000000028282828282828282828282800000000000000000000000000000000000000
310
0000F5F52DF5F500000000000000000000000000000000000000000000000000000000000000000000000000000000000000000000000000000000000000000000000000000000000000CE00000000000000000000000000000000000000000000000000000000000000000000000000000000000000000000000000000000
310
000000000000000000000000000000000000CE000000000000000000000000DCDCDCDCDCDCDCDCDC0028000000000000F5F5F5F500000000000000F50000000000000000002D00000000000000000000F500000000000000F5F5F5F5000000000000002800DCDCDCDCDCDCDCDCDC0000000000000000000000000000000000
310
0000F5F5F5F52DF5F5F5F50000000000000000000000000000000000000000000000000000000000000000000000000000000000000000000000000000000000000000000000000000000000CE0000000000000000000000000000000000000000000000000000000000000000000000000000000000000000000000000000
310
0000000000000000000000000000000000000000CE000000000000000000000000DCDCDCDCDCDCDCDCDC280000F5F5F5F5F5000000F500000000000000F50000BEBEF5BEF5BEBE2DBEF5BEBEF5BEBEBE0000F5000000000000F5F5000000F5F5F5F5F500002800DCDCDCDCDCDCDCDCDC000000000000000000000000000000
310
0000F5F5F5F50000F50000F5F5F5F5000000000000000000000000000000000000000000000000000000000000000000000000000000000000000000000000000000000000000000000000000000CE000000000000000000000000000000000000000000000000000000000000000000000000000000000000000000000000
310
00000000000000000000000000000000000000000000CE000000000000000000000000DCDCDCDCDCDCDCDCDC2800F5F500000000000000F5F5F5F5F5F5F5F5BEBEF5F5BEBE00BE00BEBE00BE00BEBE00BEBEF5BE28F5F5F5F5F5F5F5F500000000000000F500000028DCDCDCDCDCDCDCDCDC00000000000000000000000000
310
000000F500F500F5F5F5F5F5F5F500F500F5F500000000000000000000000000000000000000000000000000000000000000000000000000000000000000000000000000000000000000000000000000CE00000000000000000000000000000000000000000000000000000000000000000000000000000000000000000000
310
000000000000000000000000000000000000000000000000CE0000000000000000000000000000000000000000282800F5F500000000000000F5F50000000000F5BEBEBEBE00BEBEBEBE00BEBE00BE00BEBE00BEBEBEBE000000000000F5F500000000000000F5000000282800000000000000000000000000000000000000
310
0000000000F5F50000F5F5002D0000F5F500F500F500000000000000000000000000000000000000000000000000000000000000000000000000000000000000000000000000000000000000000000000000CE0000000000000000000000000000000000000000000000000000000000000000000000000000000000000000
310
0000000000000000000000000000000000000000000000000000CE0000000000000000000000000000000000000000280000F52800000000000000F500000000000000F5BEF5BEBEF5BEF5BEBEC3BEBEF5BEF5BEBEF5BEF5BE000000000000F5F500000000000000F500000000280000000000000000000000000000000000
310
00000000000000F5F500F50000F52DF50000F5F500F5F500000000000000000000000000000000000000000000000000000000000000000000000000000000000000000000000000000000000000000000000000CE000000000000000000000000000000000000000000000000000000000000000000000000000000000000
310
00000000000000000000000000000000000000000000000000000000CE0000000000000000000000000000000000000000280000F5F500000000000000F500000000000000F500000000000000C3C3C3C3C3C300000000000000F5000000000000F5F500000000000000F50000000028000000000000000000000000000000
310
000000000000000000F500F50000F5F52DF5F50000F500F5F500000000000000000000000000000000000000000000000000000000000000000000000000000000000000000000000000000000000000000000000000CE00000000000000000000000000000000000000000000000000000000000000000000000000000000
310
000000000000000000000000000000000000000000000000000000000000CE0000000000000000000000000000000000DCDCDC280000F5F500000000000000F500000000000000F500000000000000C3C32D0000C300000000000000F500000000000000F500000000000000F50000DCDC2800000000000000000000000000
310
0000000000000000000000F500F50000F5002D00F5F500F5F5F5F500000000000000000000000000000000000000000000000000000000000000000000000000000000000000000000000000000000000000000000000000CE0000000000000000000000000000000000000000000000000000000000000000000000000000
310
0000000000000000000000000000000000000000000000000000000000000000CE000000000000000000000000000000000000DCDC28002D2D2D2D2D2D2D2D2D2D2D2D2D2D2D2D2D2D2D2D2D2D2D2D2D2D2D2D2D2D2D2D2D2D2D2D2D2D2D2D2D2D2D2D2D2D2D2D2D2D2D2D2D2D2D2D2D00DCDC280000000000000000000000
310
00000000000000000000002D2D2D2DF52D2D2D2D2D2D2D2D2DF5F52D2D2D282828282828280000000000000000000000000000000000000000000000000000000000000000000000000000000000000000000000000000000000CE000000000000000000000000000000000000000000000000000000000000000000000000
310
00000000000000000000000000000000000000000000000000000000000000000000CE0000000000000000000000000000000000DCDCDC280000F5F50000000000F50000000000000000000000000000000000C3C32D0000C30000000000000000000000000000000000F50000000000F50000DCDC28000000000000000000
310
000000000000000000000000000000F500F50000F5002D00F5F500F500F5F500000000000028000000000000000000000000000000000000000000000000000000000000000000000000000000000000000000000000000000000000CE00000000000000000000000000000000000000000000000000000000000000000000
310
000000000000000000000000000000000000000000000000000000000000000000000000CE0000000000000000000000000000000000000000280000F5F50000000000BEBEF5BEF5BEBEF5BEF5BEBEF5BEF5BEBEF5C3C32DC3C3BEBEF5BEF5BEBEF5BEF5BEBEF5BEF5BEBEF5F50000000000F5000000002800000000000000
310
0000000000000000000000000000000000F50000F500F5F52DF5F50000F500F5F500000000000028000000000000000000000000000000000000000000000000000000000000000000000000000000000000000000000000000000000000CE0000000000000000000000000000000000000000000000000000000000000000
310
0000000000000000000000000000000000000000000000000000000000000000000000000000CE00000000000000000000000000000000000000282828282828BEBEF5BEF5BEBEBE00BE00BEBE00BE00BEBE00BE00BEBEF5002D0000BEBEBE00BE00BEBE00BE00BEBE00BE00BEBEBEF5BEBEF5BEBE28282828282800000000
310
00000000000000000000000000000000000000F5F500F50000002D000000F5F5F500F500000000000028000000000000000000000000000000000000000000000000000000000000000000000000000000000000000000000000000000000000CE000000000000000000000000000000000000000000000000000000000000
310
00000000000000000000000000000000000000000000000000000000000000000000000000000000CE0000000000000000000000000000000000000000000000BEBEBEBEBE00BEBEF5BEBE28BEBE28BE28BEBE00BE00BE00BEBE002D0000F5BEBEBEBEBE00BEBE28BE28BEBE28BEBEBE00BEBE00BEBEF50000000000000000
310
000000000000000000000000000000000000000000F500F500F5F5F52D00F5F5F500F500F500000000000028000000000000000000000000000000000000000000000000000000000000000000000000000000000000000000000000000000000000CE00000000000000000000000000000000000000000000000000000000
310
000000000000000000000000000000000000000000000000000000000000000000000000000000000000CE0000000000000000000000000000000000000000000000F5BEBE0000BEBEBE00BE28BEF5BEBEF5BEF5BEBEBEBE00BE00BE002D0000BE00BEBEF5BEBEF5BEBEF5BEF5BEBE28BE00BEBEBEBE00BEF5000000000000
310
000000000000000000000000000000000000000000000000F5F50000F5F5F5F5F50000F5F5F50000000000000028000000000000000000000000000000000000000000000000000000000000000000000000000000000000000000000000000000000000CE0000000000000000000000000000000000000000000000000000
310
0000000000000000000000000000000000000000000000000000000000000000000000000000000000000000CE0000000000000000000000000000000000000000000000000000F5BEBEBE0000BEBE00BEBE28BE00BE000000F5BE00BEF5002D0000F5BEBEF52D000000BE00BEBE00BEBEBEBEBEBEBEF5F5BE000000000000
310
000000000000000000000000000000000000000000000000000000F5F5F500002D000000F5F5F5000000000000000028000000000000000000000000000000000000000000000000000000000000000000000000000000000000000000000000000000000000CE000000000000000000000000000000000000000000000000
310
00000000000000000000000000000000000000000000000000000000000000000000000000000000000000000000CE000000000000000000000000000000000000000000000000000000000000F5BEBEBEBEBEBEBEBEBEF500000000BEBE00BE002D0000BEBEF5BE28000000F5BEBE28BEBE00BEF5BEF52D28000000000000
310
0000000000000000000000000000000000000000000000000000000000F5F5F5F5F52DF5F5F5F5F5F5000000000000000028000000000000000000000000000000000000000000000000000000000000000000000000000000000000000000000000000000000000CE00000000000000000000000000000000000000000000
310
000000000000000000000000000000000000000000000000000000000000000000000000000000000000000000000000CE0000000000000000000000000000000000000000000000000000000000000000BEF5BEBEF5BEF5BE0000000000F5BEBEF5002D0000BEBEBE0000280000BEBEF5BEBEF5BEF5000000002800000000
310
00000000000000000000000000000000000000000000000000000000000000F5280000002DF5000000F500000000000000000028000000000000000000000000000000000000000000000000000000000000000000000000000000000000000000000000000000000000CE0000000000000000000000000000000000000000
310
0000000000000000000000000000000000000000000000000000000000000000000000000000000000000000000000000000CE000000000000000000000000000000000000000000000000000000000000000000000028000000000000000000BE28BEBE002D0000F5BE280000280000000000280000000000000000002800
310
000000000000000000000000000000000000000000000000000000000000000000F5F5F5F5F52DF5F5F5F5F500000000000000000028000000000000000000000000000000000000000000000000000000000000000000000000000000000000000000000000000000000000CE000000000000000000000000000000000000
310
00000000000000000000000000000000000000000000000000000000000000000000000000000000000000000000000000000000CE00000000000000000000000000000000000000000000000000000000000000000000002800000000000000F5F5F5F5F5F5F5F50000BEBEBEF5BEBE280000000028000000000000000000
310
280000000000000000000000000000000000000000000000000000000000000000F5F5F528F5F5F52DF5F5F5F528F5F5F500000000000028000000000000000000000000000000000000000000000000000000000000000000000000000000000000000000000000000000000000CE00000000000000000000000000000000
310
000000000000000000000000000000000000000000000000000000000000000000000000000000000000000000000000000000000000CE000000000000000000000000000000000000000000000000000000000000000000000028000000000000F5000000F5F500002D0000F5BEBEBEBEF5BE280000000028000000000000
310
0000002800000000000000000000000000000000000000000000000000000000000000F5F500000000F52DF50000000000F5F500000000000028000000000000000000000000000000000000000000000000000000000000000000000000000000000000000000000000000000000000CE0000000000000000000000000000
310
0000000000000000000000000000000000000000000000000000000000000000000000000000000000000000000000000000000000000000CE000000000000000000000000000000000000000000000000000000000000000000000028000000000000F5000000F50000002D0000BEBE28BE00BEF528000000002800000000
310
00000000002800000000000000000000000000000000000000000000000000000000000000F50000000000002D00000000000000F500000000DCDC28000000000000000000000000000000000000000000000000000000000000000000000000000000000000000000000000000000000000CE000000000000000000000000
310
00000000000000000000000000000000000000000000000000000000000000000000000000000000000000000000000000000000000000000000CE000000000000000000000000000000000000000000000000000000000000000000002800000000000000F5000000F50000002D0000BEBEBE28BE28BE0028000000280000
310
000000000000000028000000000000000000000000000000000000000000000000000000000000F50000000000002D00000000000000F500000000DCDC28000000000000000000000000000000000000000000000000000000000000000000000000000000000000000000000000000000000000CE00000000000000000000
310
000000000000000000000000000000000000000000000000000000000000000000000000000000000000000000000000000000000000000000000000CE000000000000000000000000000000000000000000000000000000000000000000002800000000000000F5000000F50000002D0000F5BE28BE00BEF5282828000028
310
0000000000000000000028000000000000000000000000000000000000000000000000000000000000F50000000000002D00000000000000F500000000DCDC28000000000000000000000000000000000000000000000000000000000000000000000000000000000000000000000000000000000000CE0000000000000000
310
0000000000000000000000000000000000000000000000000000000000000000000000000000000000000000000000000000000000000000000000000000CE000000000000000000000000000000000000000000000028282828282828282828282800000000000000F5000000F50000002D0000BEBEBE00BE00BE00002828
310
28282828282828282828282828280000000000000000000000000000000000000000000000000000000000F50000000000002D00000000000000F500000000000028000000000000000000000000000000000000000000000000000000000000000000000000000000000000000000000000000000000000CE000000000000
310
00000000000000000000000000000000000000000000000000000000000000000000000000000000000000000000000000000000000000000000000000000000CE0000000000000000000000000000000000000000000000DCDCDCDC00DCDCDCDCDCDCDC00000000000000F5000000F50000002D0000F5BEBEBE00BEBE0000
310
002800DCDCDCDC00DCDCDCDCDCDCDC280000000000000000000000000000000000000000000000000000000000F50000000000002D00000000000000F500000000000028000000000000000000000000000000000000000000000000000000000000000000000000000000000000000000000000000000000000CE00000000
310
000000000000000000000000000000000000000000000000000000000000000000000000000000000000000000000000000000000000000000000000000000000000CE0000000000000000000000000000000000000000000000DCDCDCDCDCDCDCDCDCDCDCDC00000000000000F5000000F50000002D0000BEBEF500BEBEF5
310
0000002800DCDCDCDC00DCDCDCDC00DCDC002800000000000000000000000000000000000000000000000000000000F50000000000002DF50000000000F5F500000000000028000000000000000000000000000000000000000000000000000000000000000000000000000000000000000000000000000000000000CE0000
310
0000000000000000000000000000000000000000000000000000000000000000000000000000000000000000000000000000000000000000000000000000000000000000CE00000000000000000000000000000000000000000000000000000000000000000000000000000000000000F5F5F5F5F5F5F5F50000BEBEF5BEBE
310
F5000000000028000000000000000000000000002800000000000000000000000000000000000000000000000000000000F5F5F5F5F5F5F52DF5F5F5F5F5F5F5F500000000000028000000000000000000000000000000000000000000000000000000000000000000000000000000000000000000000000000000000000CE
310
00000000000000000000000000000000000000000000000000000000000000000000000000000000000000000000000000000000000000000000000000000000000000000000CE00000000000000000000000000000000000000000000000000000000000000000000000000000000000000F50000000000002D0000F5BEBE
310
BEF500000000000000280000000000000000000000000028000000000000000000000000000000000000000000000000000000F50000000000002D000000000000F528000000000000280000000000000000000000000000000000000000000000000000000000000000000000000000000000000000000000000000000000
310
00CE00000000000000000000000000000000000000000000000000000000000000000000000000000000000000000000000000000000000000000000000000000000000000000000CE0000000000000000000000000000000000000000000000000000000000000000000000000000000000000000F500000000002DF5F5BE
310
BEBE00BE0000000000000028000000000000000000000000002800000000000000000000000000000000000000000000000000000028F500000000002D000000000000F52800000000000028000000000000000000000000000000000000000000000000000000000000000000000000000000000000000000000000000000
310
000000CE00000000000000000000000000000000000000000000000000000000000000000000000000000000000000000000000000000000000000000000000000000000000000000000CE0000000000000000000000000000000000000000000000000000000000000000000000000000000000000000F500000000002D00
310
00BEBE00BEF50000000000000000280000000000000000000000000028000000000000000000000000000000000000000000000000000028F500000000002D000000000000F5280000000000002800000000000000000000000000000000000000000000000000000000000000000000000000000000000000000000000000
310
0000000000CE00000000000000000000000000000000000000000000000000000000000000000000000000000000000000000000000000000000000000000000000000000000000000000000CE0000000000000000000000000000000000000000000000000000000000000000000000000000000000000000F50000000000
310
2D0000BE00BE00BE0000000000000000002800000000000000000000000028000000000000000000000000000000000000000000000000000028F500000000002D000000000000F528000000000000280000000000000000000000000000000000000000000000000000000000000000000000000000000000000000000000
310
00000000000000CE00000000000000000000000000000000000000000000000000000000000000000000000000000000000000000000000000000000000000000000000000000000000000000000CE0000000000000000000000000000000000000000000000000000000000000000000000000000000000000000F5000000
310
00002D0000F5BE00BE000000000000000000002800000000000000000000000000280000000000000000000000000000000000000000000000000028F500000000002D0000000000F5002800000000000028000000000000000000000000000000000000000000000000000000000000000000000000000000000000000000
310
000000000000000000CE00000000000000000000000000000000000000000000000000000000000000000000000000000000000000000000000000000000000000000000000000000000000000000000CE000000000000000000000000000000000000000000000000000000000000000000000000000000000000000000F5
310
000000002D0000BEBEBEBE00000000000000000000002800000000000000000000000028000000000000000000000000000000000000000000000000002800F5000000002D0000000000F500280000000000002800000000000000000000000000000000000000000000000000000000000000000000000000000000000000
310
0000000000000000000000CE00000000000000000000000000000000000000000000000000000000000000000000000000000000000000000000000000000000000000000000000000000000000000000000CE0000000000000000000000000000000000000000000000000000000000000000000000000000000000000000
310
00F5000000002D0000BE00BEF500000000000000000000002800000000000000000000000000280000000000000000000000000000000000000000000000002800F5000000002D0000000000F50028000000000000280000000000000000000000000000000000000000000000000000000000000000000000000000000000
310
00000000000000000000000000CE00000000000000000000000000000000000000000000000000000000000000000000000000000000000000000000000000000000000000000000000000000000000000000000CE000000000000000000000000000000000000000000000000000000000000000000000000000000000000
310
000000F5F5F5F5F5F5F5F5F5BEF5F500000000000000000000000028000000000000000000000000280000000000000000000000000000000000000000000000002800F5F5F5F5F52DF5F5F5F5F5F5282828282828282828280000000000000000000000000000000000000000000000000000000000000000000000000000
310
000000000000000000000000000000CE00000000000000000000000000000000000000000000000000000000000000000000000000000000000000000000000000000000000000000000000000000000000000000000CE00000000000000000000000000000000000000000000000000000000000000000000000000000000
310
000000000000000000002D0000280000000000000000000000000000000028000000000000000000000000280000000000000000000000000000000000000000000000280000000000002D00000000000000280000000000000000000000000000000000000000000000000000000000000000000000000000000000000000
310
0000000000000000000000000000000000CE00000000000000000000000000000000000000000000000000000000000000000000000000000000000000000000000000000000000000000000000000000000000000000000CE0000000000000000000000000000000000000000000000000000000000000000000000000000
310
0000000000000000000000002D0000280000000000000000000000000000000028F5F5F5F50000000000000000F5F5F5F50000000000000000000000000000000000000000280000000000002D0000000000000028000000000000000000000000000000000000000000000000000000000000000000000000000000000000
310
00000000000000000000000000000000000000CE00000000000000000000000000000000000000000000000000000000000000000000000000000000000000000000000000000000000000000000000000000000000000000000CE000000000000000000000000000000000000000000000000000000000000000000000000
310
00000000000000000000002828282828282800000000000000000000000000000000F528000000F5F50000000000F500000000F5F50000000000000000000000000000000000002800000000000000000000000000002800000000000000000000000000000000000000000000000000000000000000000000000000000000
310
000000000000000000000000000000000000000000CE00000000000000000000000000000000000000000000000000000000000000000000000000000000000000000000000000000000000000000000000000000000000000000000CE00000000000000000000000000000000000000000000000000000000000000000000
310
000000000000000000000000002800DCDCDC282800000000000000000000000000000000F5000000000000F500000000F5000000000000F50000000000000000000000000000000000280000000000000000000000000000280000000000000000000000000000000000000000000000000000000000000000000000000000
310
0000000000000000000000000000000000000000000000CE00000000000000000000000000000000000000000000000000000000000000000000000000000000000000000000000000000000000000000000000000000000000000000000CE0000000000000000000000000000000000000000000000000000000000000000
310
0000000000000000000000000000002800DCDCDC0000000000000000000000000000000000F5000000F5000000F5000000F50000F5F5000000F5000000000000000000000000000000000028282828282828282828282828282828000000000000000000000000000000000000000000000000000000000000000000000000
310
00000000000000000000000000000000000000000000000000CE00000000000000000000000000000000000000000000000000000000000000000000000000000000000000000000000000000000000000000000000000000000000000000000CE000000000000000000000000000000000000000000000000000000000000
310
0000000000000000000000000000000028000000DCDC0000000000000000000000000000000000F5000000F5000000F50000F500000000F5000000F5000000000000000000000000000000000000000000DCDCDCDC00DCDC000000000000000000000000000000000000000000000000000000000000000000000000000000
310
000000000000000000000000000000000000000000000000000000CE00000000000000000000000000000000000000000000000000000000000000000000000000000000000000000000000000000000000000000000000000000000000000000000CE00000000000000000000000000000000000000000000000000000000
310
0000000000000028282828282828282828280000000000000000000000000000000000000000000000F5000000F5000000F5000000F50000F5F5000000F5000000000000000000000000000000000000000000DCDCDCDC00DCDC00000000000000000000000000000000000000000000000000000000000000000000000000
310
0000000000000000000000000000000000000000000000000000000000CE00000000000000000000000000000000000000000000000000000000000000000000000000000000000000000000000000000000000000000000000000000000000000000000CE0000000000000000000000000000000000000000000000000000
310
00000000000000000000DCDCDCDCDCDCDCDCDCDC0000000000000000000000000000000000000000000000F500000000000000F5000000F500000000000000F5000000000000000000000000000000000000000000000000000000000000000000000000000000000000000000000000000000000000000000000000000000
310
00000000000000000000000000000000000000000000000000000000000000CE00000000000000000000000000000000000000000000000000000000000000000000000000000000000000000000000000000000000000000000000000000000000000000000CE000000000000000000000000000000000000000000000000
310
000000000000000000000000DCDCDCDCDCDCDCDCDC00000000000000000000000000000000000000000000000000F50000000000F50000000000F50000000000F50000000000000000000000000000000000000000000000000000000000000000000000000000000000000000000000000000000000000000000000000000
310
000000000000000000000000000000000000000000000000000000000000000000CE00000000000000000000000000000000000000000000000000000000000000000000000000000000000000000000000000000000000000000000000000000000000000000000CE00000000000000000000000000000000000000000000
310
00000000000000000000000000000000000000000000000000000000000000000000000000000000000000000000000000F5F5F5F5F500000000000000F5F5F5F5F500000000000000000000000000000000000000000000000000000000000000000000000000000000000000000000000000000000000000000000000000
310
0000000000000000000000000000000000000000000000000000000000000000000000CE00000000000000000000000000000000000000000000000000000000000000000000000000000000000000000000000000000000000000000000000000000000000000000000CE0000000000000000000000000000000000000000
310
00000000000000000000000000000000000000000000000000000000000000000000000000000000000000000000000000000000000000000000000000000000000000000000000000000000000000000000000000000000000000000000000000000000000000000000000000000000000000000000000000000000000000
310
00000000000000000000000000000000000000000000000000000000000000000000000000CE00000000000000000000000000000000000000000000000000000000000000000000000000000000000000000000000000000000000000000000000000000000000000000000CE000000000000000000000000000000000000
310
00000000000000000000000000000000000000000000000000000000000000000000000000000000000000000000000000000000000000000000000000000000000000000000000000000000000000000000000000000000000000000000000000000000000000000000000000000000000000000000000000000000000000
310
000000000000000000000000000000000000000000000000000000000000000000000000000000CE00000000000000000000000000000000000000000000000000000000000000000000000000000000000000000000000000000000000000000000000000000000000000000000CE00000000000000000000000000000000
310
00000000000000000000000000000000000000000000000000000000000000000000000000000000000000000000000000000000000000000000000000000000000000000000000000000000000000000000000000000000000000000000000000000000000000000000000000000000000000000000000000000000000000
310
0000000000000000000000000000000000000000000000000000000000000000000000000000000000CE00000000000000000000000000000000000000000000000000000000000000000000000000000000000000000000000000000000000000000000000000000000000000000000CE0000000000000000000000000000
310
00000000000000000000000000000000000000000000000000000000000000000000000000000000000000000000000000000000000000000000000000000000000000000000000000000000000000000000000000000000000000000000000000000000000000000000000000000000000000000000000000000000000000
310
00000000000000000000000000000000000000000000000000000000000000000000000000000000000000CE00000000000000000000000000000000000000000000000000000000000000000000000000000000000000000000000000000000000000000000000000000000000000000000CE000000000000000000000000
310
00000000000000000000000000000000000000000000000000000000000000000000000000000000000000000000000000000000000000000000000000000000000000000000000000000000000000000000000000000000000000000000000000000000000000000000000000000000000000000000000000000000000000
310
000000000000000000000000000000000000000000000000000000000000000000000000000000000000000000CE00000000000000000000000000000000000000000000000000000000000000000000000000000000000000000000000000000000000000000000000000000000000000000000CE00000000000000000000
310
00000000000000000000000000000000000000000000000000000000000000000000000000000000000000000000000000000000000000000000000000000000000000000000000000000000000000000000000000000000000000000000000000000000000000000000000000000000000000000000000000000000000000
310
0000000000000000000000000000000000000000000000000000000000000000000000000000000000000000000000CE00000000000000000000000000000000000000000000000000000000000000000000000000000000000000000000000000000000000000000000000000000000000000000000CE0000000000000000
310
00000000000000000000000000000000000000000000000000000000000000000000000000000000000000000000000000000000000000000000000000000000000000000000000000000000000000000000000000000000000000000000000000000000000000000000000000000000000000000000000000000000000000
310
00000000000000000000000000000000000000000000000000000000000000000000000000000000000000000000000000CE00000000000000000000000000000000000000000000000000000000000000000000000000000000000000000000000000000000000000000000000000000000000000000000CE000000000000
310
00000000000000000000000000000000000000000000000000000000000000000000000000000000000000000000000000000000000000000000000000000000000000000000000000000000000000000000000000000000000000000000000000000000000000000000000000000000000000000000000000000000000000
310
000000000000000000000000000000000000000000000000000000000000000000000000000000000000000000000000000000CE00000000000000000000000000000000000000000000000000000000000000000000000000000000000000000000000000000000000000000000000000000000000000000000CE00000000
310
00000000000000000000000000000000000000000000000000000000000000000000000000000000000000000000000000000000000000000000000000000000000000000000000000000000000000000000000000000000000000000000000000000000000000000000000000000000000000000000000000000000000000
310
0000000000000000000000000000000000000000000000000000000000000000000000000000000000000000000000000000000000CE00000000000000000000000000000000000000000000000000000000000000000000000000000000000000000000000000000000000000000000000000000000000000000000CE0000
310
00000000000000000000000000000000000000000000000000000000000000000000000000000000000000000000000000000000000000000000000000000000000000000000000000000000000000000000000000000000000000000000000000000000000000000000000000000000000000000000000000000000000000
310
00000000000000000000000000000000000000000000000000000000000000000000000000000000000000000000000000000000000000CE00000000000000000000000000000000000000000000000000000000000000000000000000000000000000000000000000000000000000000000000000000000000000000000CE
310
00000000000000000000000000000000000000000000000000000000000000000000000000000000000000000000000000000000000000000000000000000000000000000000000000000000000000000000000000000000000000000000000000000000000000000000000000000000000000000000000000000000000000
310
000000000000000000000000000000000000000000000000000000000000000000000000000000000000000000000000000000000000000000CE000000000000000000000000000000000000000000000000000000000000000000000000000000000000000000000000000000000000000000000000000000000000000000
310
00CE0000000000000000000000000000000000000000000000000000000000000000000000000000000000000000000000000000000000000000000000000000000000000000000000000000000000000000000000000000000000000000000000000000000000000000000000000000000000000000000000000000000000
310
0000000000000000000000000000000000000000000000000000000000000000000000000000000000000000000000000000000000000000000000CE00000000000000000000000000000000000000000000000000000000000000000000000000000000000000000000000000000000000000000000000000000000000000
310
000000CE000000000000000000000000000000000000000000000000000000000000000000000000000000000000000000000000000000000000000000000000000000000000000000000000000000000000000000000000000000000000000000000000000000000000000000000000000000000000000000000000000000
310
00000000000000000000000000000000000000000000000000000000000000000000000000000000000000000000000000000000000000000000000000CE0000000000000000000000000000000000000000000000000000000000000000000000000000000000000000000000000000000000000000000000000000000000
310
0000000000CE00000000000000000000000000000000000000000000000000000000000000000000000000000000000000000000000000000000000000000000000000000000000000000000000000000000000000000000000000000000000000000000000000000000000000000000000000000000000000000000000000
310
000000000000000000000000000000000000000000000000000000000000000000000000000000000000000000000000000000000000000000000000000000CE000000000000000000000000000000000000000000000000000000000000000000000000000000000000000000000000000000000000000000000000000000
310
00000000000000CE0000000000000000000000000000000000000000000000000000000000000000000000000000000000000000000000000000000000000000000000000000000000000000000000000000000000000000000000000000000000000000000000000000000000000000000000000000000000000000000000
310
0000000000000000000000000000000000000000000000000000000000000000000000000000000000000000000000000000000000000000000000000000000000CE00000000000000000000000000000000000000000000000000000000000000000000000000000000000000000000000000000000000000000000000000
310
000000000000000000CE000000000000000000000000000000000000000000000000000000000000000000000000000000000000000000000000000000000000000000000000000000000000000000000000000000000000000000000000000000000000000000000000000000000000000000000000000000000000000000
310
00000000000000000000000000000000000000000000000000000000000000000000000000000000000000000000000000000000000000000000000000000000000000CE0000000000000000000000000000000000000000000000000000000000000000000000000000000000000000000000000000000000000000000000
310
0000000000000000000000CE00000000000000000000000000000000000000000000000000000000000000000000000000000000000000000000000000002D00000000000000000000000000000000000000000000000000000000000000000000000000000000000000000000000000000000000000000000000000000000
310
000000000000000000000000000000000000000000000000000000000000000000000000000000000000000000000000000000000000000000000000000000000000000000CE000000000000000000000000000000000000000000000000000000000000000000000000000000000000000000000000000000000000000000
310
00000000000000000000000000CE00000000000000000000000000000000000000282828282828282828282828F5F5F5F5F5F5F5F5F5F50000000000F5F5F5F52DF5F5F5F5F50000000000F5F5F5F5F5F5F5F5F5F5282828282828282828282828280000000000000000000000000000000000000000000000000000000000
310
0000000000000000000000000000000000000000000000000000000000000000000000000000000000000000000000000000000000000000000000000000000000000000000000CE00000000000000000000000000000000000000000000000000000000000000000000000000000000000000000000000000000000000000
310
000000000000000000000000000000CE000000000000000000000000000000000000002828000000000000F5F5F5F500F5F5000000000000F500000000F500F500002D0000F5F500F500000000F5000000000000F5F500F5F5F5F5000000000000000028000000000000000000000000000000000000000000000000000000
310
00000000000000000000000000000000000000000000000000000000000000000000000000000000000000000000000000000000000000000000000000000000000000000000000000CE0000000000000000000000000000000000000000000000000000000000000000000000000000000000000000000000000000000000
310
0000000000000000000000000000000000CE000000000000000000000000000000000000002800000000F5F5F50000000000F500000000000000F5F5F5F5F5F5F50000F5F5F5F50000F5F5F5F5F5F5F5000000000000F5F50000000000F5F5F500000000002800000000000000000000000000000000000000000000000000
310
000000000000000000000000000000000000000000000000000000000000000000000000000000000000000000000000000000000000000000000000000000000000000000000000000000CE000000000000000000000000000000000000000000000000000000000000000000000000000000000000000000000000000000
310
00000000000000000000000000000000000000CE0000000000000000000000000000000000000028000000F5F500000000000000F50000000000000028F528F5F5F500F5F5F5F5F5F5F50000F5F5F528F528000000000000F5F500000000000000F50000000000280000000000000000000000000000000000000000000000
310
0000000000000000000000000000000000000000000000000000000000000000000000000000000000000000000000000000000000000000000000000000000000000000000000000000000000CE00000000000000000000000000000000000000000000000000000000000000000000000000000000000000000000000000
310
000000000000000000000000000000000000000000CE0000000000000000000000000000000000DCDCDC000000F5F500000000000000F500000000000000F5F500F5F500F5F500002D000000F5F5F5F5F500F5F5000000000000F5F500000000000000F5000000DCDC28000000000000000000000000000000000000000000
310
00000000000000000000000000000000000000000000000000000000000000000000000000000000000000000000000000000000000000000000000000000000000000000000000000000000000000CE0000000000000000000000000000000000000000000000000000000000000000000000000000000000000000000000
310
0000000000000000000000000000000000000000000000CE0000000000000000000000000000000000DCDCDC000000F5F500000000000000F500000000000000F5F500F5F500F500F5F52DF5F500F5F500F5F500F5F5000000000000F5F500000000000000F5000000DCDC2800000000000000000000000000000000000000
310
000000000000000000000000000000000000000000000000000000000000000000000000000000000000000000000000000000000000000000000000000000000000000000000000000000000000000000CE000000000000000000000000000000000000000000000000000000000000000000000000000000000000000000
310
00000000000000000000000000000000000000000000000000CE0000000000000000000000000000000000DCDCDC000000F5F500000000000000F5F5000000000000F5F500F500F5F500F5002D00F5F500F500F5F500F5F5000000000000F5F500000000000000F5000000DCDC280000000000000000000000000000000000
310
0000000000000000000000000000000000000000000000000000000000000000000000000000000000000000000000000000000000000000000000000000000000000000000000000000000000000000000000CE00000000000000000000000000000000000000000000000000000000000000000000000000000000000000
310
000000000000000000000000000000000000000000000000000000CE0000000000000000000000000000000000DC00DC00002D2D2D2D2D2D2D2D2D2D2D2D2D2D2D2D2D2D2D2D2D2D2D2D2D2D2D2D2D2D2D2D2D2D2D2D2D2D2D2D2D2D2D2D2D2D2D2D2D2D2D2D2D2D2D2D2D0000DCDC28000000000000000000000000000000
310
00000000000000000000000000000000000000000000000000000000000000000000000000000000000000000000000000000000000000000000000000000000000000000000000000000000000000000000000000CE0000000000000000000000000000000000000000000000000000000000000000000000000000000000
310
0000000000000000000000000000000000000000000000000000000000CE0000000000000000000000000000000000DCDCDC000000F5F500000000000000F5F50000000000F5F5F500F500F5F500F5002D0000F500F5F5F500F5F5F5000000000000F5F500000000000000F5000000DCDC2800000000000000000000000000
310
000000000000000000000000000000000000000000000000000000000000000000000000000000000000000000000000000000000000000000000000000000000000000000000000000000000000000000000000000000CE000000000000000000000000000000000000000000000000000000000000000000000000000000
310
00000000000000000000000000000000000000000000000000000000000000CE0000000000000000000000000000000000DCDCDC000000F5F500000000000000F500000000000000F5F500F500F5F500F5F52DF5F50000F500F5F500F5F5000000000000F5F500000000000000F5000000DCDC280000000000000000000000
310
0000000000000000000000000000000000000000000000000000000000000000000000000000000000000000000000000000000000000000000000000000000000000000000000000000000000000000000000000000000000CE00000000000000000000000000000000000000000000000000000000000000000000000000
310
000000000000000000000000000000000000000000000000000000000000000000CE0000000000000000000000000000000000DCDCDC000000F5F500000000000000F500000000000000F5F500F5F500F50000F52DF50000F5F500F5F500F5F5000000000000F5F500000000000000F5000000DCDC28000000000000000000
310
00000000000000000000000000000000000000000000000000000000000000000000000000000000000000000000000000000000000000000000000000000000000000000000000000000000000000000000000000000000000000CE0000000000000000000000000000000000000000000000000000000000000000000000
310
0000000000000000000000000000000000000000000000000000000000000000000000CE000000000000000000000000000000000000DC28000000F5F500000000000000F500000000000000F5F500F5F500F5F500002D0000F500F5F5F5F500F5F5000000000000F5F500000000000000F500000000DC2800000000000000
310
000000000000000000000000000000000000000000000000000000000000000000000000000000000000000000000000000000000000000000000000000000000000000000000000000000000000000000000000000000000000000000CE000000000000000000000000000000000000000000000000000000000000000000
310
00000000000000000000000000000000000000000000000000000000000000000000000000CE0000000000000000000000000000000000000028000000F5F500000000000000F50000000000000028F500F5F5F500F5F5F5F5F5F5F5F500F5F5F500F528000000000000F5F500000000000000F50000000000280000000000
310
0000000000000000000000000000000000000000000000000000000000000000000000000000000000000000000000000000000000000000000000000000000000000000000000000000000000000000000000000000000000000000000000CE00000000000000000000000000000000000000000000000000000000000000
310
000000000000000000000000000000000000000000000000000000000000000000000000000000CE000000000000000000000000000000000000002800000028F5F5000000000000F500000000000000F5F5F5F5F5F50000F5F5F5F5F50000F5F5F5F5F5F5F5000000000000F5F5000000000000F5F5000000000028000000
310
00000000000000000000000000000000000000000000000000000000000000000000000000000000000000000000000000000000000000000000000000000000000000000000000000000000000000000000000000000000000000000000000000CE0000000000000000000000000000000000000000000000000000000000
310
0000000000000000000000000000000000000000000000000000000000000000000000000000000000CE0000000000000000000000000000000000000028280000280000F5F5F5F50000F5F50000000000F5F50000000000F5F5F5002D00F5F5F500F500000000F5000000000000F5F50000F5F5F5F5002800000000002800
310
000000000000000000000000000000000000000000000000000000000000000000000000000000000000000000000000000000000000000000000000000000000000000000000000000000000000000000000000000000000000000000000000000000CE000000000000000000000000000000000000000000000000000000
310
00000000000000000000000000000000000000000000000000000000000000000000000000000000000000CE000000000000000000000000000000000000002828282828282828282828F5F5F5F5F5F5F5F5F5F5F50000000000F5F5F5F52DF5F5F5F5F50000000000F5F5F5F5F5F5F5F5F5F5F52828282828282828282828
310
2800000000000000000000000000000000000000000000000000000000000000000000000000000000000000000000000000000000000000000000000000000000000000000000000000000000000000000000000000000000000000000000000000000000CE00000000000000000000000000000000000000000000000000
310
000000000000000000000000000000000000000000000000000000000000000000000000000000000000000000CE00000000000000000000000000000000000000000000002800000000000000000000000000000000000000000000000000002D000000000000000000000000000000000000000000000000000028000000
310
00000000000000000000000000000000000000000000000000000000000000000000000000000000000000000000000000000000000000000000000000000000000000000000000000000000000000000000000000000000000000000000000000000000000000CE0000000000000000000000000000000000000000000000
310
0000000000000000000000000000000000000000000000000000000000000000000000000000000000000000000000CE00000000000000000000000000000000000000000000002800000000000000000000000000000000000000000000000000002800000000000000000000000000000000000000000000000000002800
310
000000000000000000000000000000000000000000000000000000000000000000000000000000000000000000000000000000000000000000000000000000000000000000000000000000000000000000000000000000000000000000000000000000000000000000CE000000000000000000000000000000000000000000
310
00000000000000000000000000000000000000000000000000000000000000000000000000000000000000000000000000CE0000000000000000000000000000000000000000000000280000000000000000000000000000000000000000000000000000280000000000000000000000000000000000000000000000000000
310
2800000000000000000000000000000000000000000000000000000000000000000000000000000000000000000000000000000000000000000000000000000000000000000000000000000000000000000000000000000000000000000000000000000000000000000000CE00000000000000000000000000000000000000
310
000000000000000000000000000000000000000000000000000000000000000000000000000000000000000000000000000000CE000000000000000000000000000000000000000000000028000000000000000000000000000000000000000000000000000028000000000000000000000000000000000000000000000000
310
00002800000000000000000000000000000000000000000000000000000000000000000000000000000000000000000000000000000000000000000000000000000000000000000000000000000000000000000000000000000000000000000000000000000000000000000000CE0000000000000000000000000000000000
310
0000000000000000000000000000000000000000000000000000000000000000000000000000000000000000000000000000000000CE00000000000000000000000000000000000000000000002828282828282828282828282828282828282828282828282828282828282828282828282828282828282828282828282828
310
282828282800000000000000000000000000000000000000000000000000000000000000000000000000000000000000000000000000000000000000000000000000000000000000000000000000000000000000000000000000000000000000000000000000000000000000000000CE000000000000000000000000000000
310
00000000000000000000000000000000000000000000000000000000000000000000000000000000000000000000000000000000000000CE000000000000000000000000000000000000000000000028000000000000000000000000DCDCDC000000000000000000000000000000000000000000000000DCDC000000000000
310
0000000000002800000000000000000000000000000000000000000000000000000000000000000000000000000000000000000000000000000000000000000000000000000000000000000000000000000000000000000000000000000000000000000000000000000000000000000000CE00000000000000000000000000
310
000000000000000000000000000000000000000000000000000000000000000000000000000000000000000000000000000000000000000000CE000000000000000000000000000000000000000000000028000000000000000000000000DCDCDC000000000000000000000000000000000000000000000000DCDC00000000
310
00000000000000002800000000000000000000000000000000000000000000000000000000000000000000000000000000000000000000000000000000000000000000000000000000000000000000000000000000000000000000000000000000000000000000000000000000000000000000CE0000000000000000000000
310
0000000000000000000000000000000000000000000000000000000000000000000000000000000000000000000000000000000000000000000000CE00000000000000000000000000000000000000000000002800280000000000000000000000000000000000000000000000000000000000000000000000000000000000
310
000000000000000000282800000000000000000000000000000000000000000000000000000000000000000000000000000000000000000000000000000000000000000000000000000000000000000000000000000000000000000000000000000000000000000000000000000000000000000000CE000000000000000000
310
00000000000000000000000000000000000000000000000000000000000000000000000000000000000000000000000000000000000000000000000000CE0000000000000000000000000000000000000000000000282828282828282828282828282828282828282828282828282828282828282828282828282828282828
310
2828282828282828282828282800000000000000000000000000000000000000000000000000000000000000000000000000000000000000000000000000000000000000000000000000000000000000000000000000000000000000000000000000000000000000000000000000000000000000000000CE00000000000000
310
000000000000000000000000000000000000000000000000000000000000000000000000000000000000000000000000000000000000000000000000000000CE00000000000000000000000000000000000000000000000000000000000000000000000000000000000000000000000000DCDCDC0000000000000000000000
310
00000000000000000000000000000000000000000000000000000000000000000000000000000000000000000000000000000000000000000000000000000000000000000000000000000000000000000000000000000000000000000000000000000000000000000000000000000000000000000000000000CE0000000000
310
0000000000000000000000000000000000000000000000000000000000000000000000000000000000000000000000000000000000000000000000000000000000CE00000000000000000000000000000000000000000000000000000000000000000000000000000000000000000000000000DCDCDC000000000000000000
310
000000000000000000000000000000000000000000000000000000000000000000000000000000000000000000000000000000000000000000000000000000000000000000000000000000000000000000000000000000000000000000000000000000000000000000000000000000000000000000000000000000CE000000
310
00000000000000000000000000000000000000000000000000000000000000000000000000000000000000000000000000000000000000000000000000000000000000CE0000000000000000000000000000000000000000000000000000000000000000000000000000000000000000000000000000000000000000000000
310
0000000000000000000000000000000000000000000000000000000000000000000000000000000000000000000000000000000000000000000000000000000000000000000000000000000000000000000000000000000000000000000000000000000000000000000000000000000000000000000000000000000000CE00
310
000000000000000000000000000000000000000000000000000000000000000000000000000000000000000000000000000000000000000000000000000000000000000000CE000000000000000000000000000000000000000000000000000000000000000000000000000000000000000000000000000000000000000000
310
00000000000000000000000000000000000000000000000000000000000000000000000000000000000000000000000000000000000000000000000000000000000000000000000000000000000000000000000000000000000000000000000000000000000000000000000000000000000000000000000000000000000000
310
CE00000000000000000000000000000000000000000000000000000000000000000000000000000000000000000000000000000000000000000000000000000000000000000000CE00000000000000000000000000000000000000000000000000000000000000000000000000000000000000000000000000000000000000
310
00000000000000000000000000000000000000000000000000000000000000000000000000000000000000000000000000000000000000000000000000000000000000000000000000000000000000000000000000000000000000000000000000000000000000000000000000000000000000000000000000000000000000
310
0000CE00000000000000000000000000000000000000000000000000000000000000000000000000000000000000000000000000000000000000000000000000000000000000000000CE0000000000000000000000000000000000000000000000000000000000000000000000000000000000000000000000000000000000
310
00000000000000000000000000000000000000000000000000000000000000000000000000000000000000000000000000000000000000000000000000000000000000000000000000000000000000000000000000000000000000000000000000000000000000000000000000000000000000000000000000000000000000
310
00000000CE00000000000000000000000000000000000000000000000000000000000000000000000000000000000000000000000000000000000000000000000000000000000000000000CE000000000000000000000000000000000000000000000000000000000000000000000000000000000000000000000000000000
310
000000000000000000000000000000000000000000000000000000000000000000000000000000000000000000F5F5F5F5F5F5F5F5F5F5F5F5F5F5F5F5F5F5F5F5F5F5F5F5F5F5F5F5F5F5F5F5F5F5F5F5F5F5F5F5F5F5F5F5F5F5F5F5F5F5F5F5F5F5F5F5F5F5F5F5F5F5F5F5F5F5F5F5F5F5F5F5F5F5F5F5F5F5F5F5F5F5
310
F5F5F5F5F5F5F500000000000000000000000000000000000000000000000000000000000000000000000000000000000000000000000000000000000000000000000000000000000000000000CE00000000000000000000000000000000000000000000000000000000000000000000000000000000000000000000000000
310
0000000000000000000000000000000000000000000000000000000000000000000000000000000000000000000000F500DC00BE00DCDC00DCDCDCDCDCDCDCDCDCDCDCDCDCDCDC00000000000000000000000000DCDCDCDCDCDCDCDCDC0000000000000000000000000000BEDCDCDCDCDCDCDCDC0000000000BE0000000000
310
0000000000000000F500000000000000000000000000000000000000000000000000000000000000000000000000000000000000000000000000000000000000000000000000000000000000000000CE0000000000000000000000000000000000000000000000000000000000000000000000000000000000000000000000
310
00000000000000000000000000000000000000000000000000000000000000000000000000000000000000000000000000F5BEDCBEBEBEDCDCBEBEBEBEBEBEBEBEDCDCDCBEDCDCDCDCBEBEBEBEBEBEBEBEBEBEBEBEBEBEDCDCDCDCDCDCDCBEBEBEBEBEBEBEBEBEBEBEBEBEBEBEBEDCDCDCDCDCDCDCDCBEBEBEBEBEBEBEBEBE
310
BEBEBEBEBEBEBEBEBEBEF500000000000000000000000000000000000000000000000000000000000000000000000000000000000000000000000000000000000000000000000000000000000000000000CE000000000000000000000000000000000000000000000000000000000000000000000000000000000000000000
310
000000000000000000000000000000000000000000000000000000000000000000000000000000000000000000000000000000F500DC00BE0000DC00DCDCDCDCDCDCDCDCDCDCDCDCDCDCDCDC00DCDCDCDCDCDCDC00000000DCDCDCDCDCDCDCDC000000000000000000000000000000BEDCDCDCDCDCDCDCDCDCDC000000BE00
310
000000000000000000000000F500000000000000000000000000000000000000000000000000000000000000000000000000000000000000000000000000000000000000000000000000000000000000000000CE00000000000000000000000000000000000000000000000000000000000000000000000000000000000000
310
0000000000000000000000000000000000000000000000000000000000000000000000000000000000000000000000000000000000F500DC00BE00DCDC00DCDCDCDCDCDCDCDCDCDCDCDCDCDCDCDCDCDCDC00DCDCDCDC00000000DCDCDCDCDCDCDCDC000000000000000000000000000000BEDCDCDCDCDCDCDCDCDCDC000000
310
BE00000000000000000000000000F500000000000000000000000000000000000000000000000000000000000000000000000000000000000000000000000000000000000000000000000000000000000000000000CE0000000000000000000000000000000000000000000000000000000000000000000000000000000000
310
00000000000000000000000000000000000000000000000000000000000000000000000000000000000000000000000000000000000000F5BEBEBEBEBEBEBEBEBEBEBEBEBEBEBEBEBEBEBEBEBEBEBEBEBEBEBEBEBEBEBEBEBEBEBEBEBEBEBEBEBEBEBEBEBEBEBEBEBEBEBEBEBEBEBEBEBEBEBEBEBEBEBEBEBEBEBEBEBEBEBE
310
BEBEBEBEBEBEBEBEBEBEBEBEBEBEBEBEF500000000000000000000000000000000000000000000000000000000000000000000000000000000000000000000000000000000000000000000000000000000F50000000000CE000000000000000000000000000000000000000000000000000000000000000000000000000000
310
000000000000000000000000000000000000000000000000000000000000000000000000000000000000000000000000000000000000000000F5DCDCDCBEDCDCDCDCBE0000000000000000000000DCDCDCDC000000000000000000000000BE000000000000000000DCDCDCDC000000000000000000BE0000000000DCDCDCDC
310
00000000BE0000000000DCDCDCDC00000000F50000000000F500000000000000000000000000000000000000000000000000000000000000000000000000000000000000000000000000000000000000000000F50000000000CE00000000000000000000000000000000000000000000000000000000000000000000000000
310
0000000000000000000000000000000000000000000000000000000000000000000000000000000000000000000000000000000000000000000000F5DCDCDCBEDCDCDCDCBE000000000000000000000000DCDCDCDC0000000000000000000000BE000000000000000000DCDCDCDC000000000000000000BE0000000000DCDC
310
DCDC00000000BE0000000000DCDCDCDC00000000F50000000000F500000000000000000000000000000000000000000000000000000000000000000000000000000000000000000000000000000000000000000000F50000000000CE0000000000000000000000000000000000000000000000000000000000000000000000
310
00000000000000000000000000000000000000000000000000000000000000000000000000000000000000000000000000000000000000000000000000F5BEBEBEBEBEBEBEBEBEBEBEBEBEBEBEBEBEBEBEBEBEBEBEBEBEBEBEBEBEBEBEBEBEBEBEBEBEBEBEBEBEBEBEBEBEBEBEBEBEBEBEBEBEBEBEBEBEBEBEBEBEBEBEBEBE
310
BEBEBEBEBEBEBEBEBEBEBEBEBEBEBEBEBEBEBEBEBEBEF50000000000F500000000000000000000000000000000000000000000000000000000000000000000000000000000000000000000000000000000000000000000F50000000000CE000000000000000000000000000000000000000000000000000000000000000000
310
000000000000000000000000000000000000000000000000000000000000000000000000000000000000000000000000000000000000000000000000000000F5000000000000000000000000000000000000000000000000000000000000000000000000000000DCDCDCDCDCDCDCDCDC000000000000000000000000000000
310
000000000000000000000000000000000000000000000000F50000000000F500000000000000000000000000000000000000000000000000000000000000000000000000000000000000000000000000000000000000000000F50000000000CECECECECECECECECECECECECECECECECECECECECECECECECECECECECECECECE
310
CECECECECECECECECECECECECECECECECECECECECECECECECECECECECECECECECECECECECECECECECECECECECECECECECECECECECECECECECECECECECECECECECEF5F5F5F5F5F5F5F5F5F5F5F5F5F5F5F5F5F5F5F5F5F5F5F5F5F5F5F5F5F5F5F5F5F5F5F5F5F5F5F5F5F5F5F5F5F5F5F5F5F5F5F5F5F5F5F5F5F5F5F5F5F5
310
F5F5F5F5F5F5F5F5F5F5F5F5F5F5F5F5F5F5F5F5F5F5F5F5F5F5F50000000000F500000000000000000000000000000000000000000000000000000000000000000000000000000000000000000000000000000000000000000000F50000000000000000000000000000000000000000000000000000000000000000000000
310
00000000000000000000000000000000000000000000000000000000000000000000000000000000000000000000000000000000000000000000000000000000000000000000000000000000000000000000000000000000000000000000000000000000000000000000000000000000000000000000000000000000000000
310
00000000000000000000000000000000000000000000000000000000000000000000F500000000000000000000000000000000000000000000000000000000000000000000000000000000000000000000000000000000000000000000F5000000000000000000000000000000000000000000000000000000000000000000
310
00000000000000000000000000000000000000000000000000000000000000000000000000000000000000000000000000000000000000000000000000000000000000000000000000000000000000000000000000000000000000000000000000000000000000000000000000000000000000000000000000000000000000
310
000000000000000000000000000000000000000000000000000000000000000000000000F500000000000000000000000000000000000000000000000000000000000000000000000000000000000000000000000000000000000000000000F500000000000000000000000000000000000000000000000000000000000000
310
00000000000000000000000000000000000000000000000000000000000000000000000000000000000000000000000000000000000000000000000000000000000000000000000000000000000000000000000000000000000000000000000000000000000000000000000000000000000000000000000000000000000000
310
0000000000000000000000000000000000000000000000000000000000000000000000000000F500000000000000000000000000000000000000000000000000000000000000000000000000000000000000000000000000000000000000000000F50000000000000000000000000000000000000000000000000000000000
310
00000000000000000000000000000000000000000000000000000000000000000000000000000000000000000000000000000000000000000000000000000000000000000000000000000000000000000000000000000000000000000000000000000000000000000000000000000000000000000000000000000000000000
310
00000000000000000000000000000000000000000000000000000000000000000000000000000000F500000000000000000000000000000000000000000000000000000000000000000000000000000000000000000000000000000000000000000000F5000000000000000000000000000000000000000000000000000000
310
00000000000000000000000000000000000000000000000000000000000000000000000000000000000000000000000000000000000000000000000000000000000000000000000000000000000000000000000000000000000000000000000000000000000000000000000000000000000000000000000000000000000000
310
000000000000000000000000000000000000000000000000000000000000000000000000000000000000F500000000000000000000000000000000000000000000000000000000000000000000000000000000000000000000000000000000000000000000F5F5F5F5F5F5F5F5F5F5F5000000000000000000000000000000
310
00000000000000000000000000000000000000000000000000000000000000000000000000000000000000000000000000000000000000000000000000000000000000000000000000000000000000000000000000000000000000000000000000000000000000000000000000000000000000000000000000000000000000
310
00000000000000000000000000000000000000000000000000000000000000000000F5F5F5F5F5F5F5F5F5F5F50000000000000000000000000000000000000000000000000000000000
  0
XRECORD
  5
6E01
102
{ACAD_REACTORS
330
6E00
102
}
330
6E00
100
AcDbXrecord
280
     1
102
SHADEPLOT
 70
     0
102
SHADEPLOTRESLEVEL
 70
     2
102
SHADEPLOTCUSTOMDPI
 70
   300
  0
XRECORD
  5
6E04
102
{ACAD_REACTORS
330
6E03
102
}
330
6E03
100
AcDbXrecord
280
     1
102
SHADEPLOT
 70
     0
102
SHADEPLOTRESLEVEL
 70
     2
102
SHADEPLOTCUSTOMDPI
 70
   300
  0
XRECORD
  5
6E08
102
{ACAD_REACTORS
330
6E07
102
}
330
6E07
100
AcDbXrecord
280
     1
102
MATERIAL
148
0.0
149
0.0
149
0.0
 93
        0
 94
       63
282
     0
 72
     1
 77
     1
171
     1
175
     1
179
     1
273
     0
  0
XRECORD
  5
6E06
102
{ACAD_REACTORS
330
6E05
102
}
330
6E05
100
AcDbXrecord
280
     1
102
MATERIAL
148
0.0
149
0.0
149
0.0
 93
        0
 94
       63
282
     0
 72
     1
 77
     1
171
     1
175
     1
179
     1
273
     0
  0
XRECORD
  5
6E0A
102
{ACAD_REACTORS
330
6E09
102
}
330
6E09
100
AcDbXrecord
280
     1
102
MATERIAL
148
0.0
149
0.0
149
0.0
 93
        0
 94
       63
282
     0
 72
     1
 77
     1
171
     1
175
     1
179
     1
273
     0
  0
CELLSTYLEMAP
  5
6DF8
102
{ACAD_REACTORS
330
229F
102
}
330
229F
100
AcDbCellStyleMap
 90
        3
300
CELLSTYLE
  1
TABLEFORMAT_BEGIN
 90
        5
170
     1
 91
        0
 92
    32768
 62
   257
 93
        1
300
CONTENTFORMAT
  1
CONTENTFORMAT_BEGIN
 90
        0
 91
        0
 92
      512
 93
        0
300

 40
0.0
140
1.0
 94
        5
 62
     0
340
11
144
6.0
309
CONTENTFORMAT_END
171
     1
301
MARGIN
  1
CELLMARGIN_BEGIN
 40
1.5
 40
1.5
 40
1.5
 40
1.5
 40
0.18
 40
0.18
309
CELLMARGIN_END
 94
        6
 95
        1
302
GRIDFORMAT
  1
GRIDFORMAT_BEGIN
 90
        0
 91
        1
 62
     0
 92
       -2
340
0
 93
        0
 40
0.045
309
GRIDFORMAT_END
 95
        2
302
GRIDFORMAT
  1
GRIDFORMAT_BEGIN
 90
        0
 91
        1
 62
     0
 92
       -2
340
0
 93
        0
 40
0.045
309
GRIDFORMAT_END
 95
        4
302
GRIDFORMAT
  1
GRIDFORMAT_BEGIN
 90
        0
 91
        1
 62
     0
 92
       -2
340
0
 93
        0
 40
0.045
309
GRIDFORMAT_END
 95
        8
302
GRIDFORMAT
  1
GRIDFORMAT_BEGIN
 90
        0
 91
        1
 62
     0
 92
       -2
340
0
 93
        0
 40
0.045
309
GRIDFORMAT_END
 95
       16
302
GRIDFORMAT
  1
GRIDFORMAT_BEGIN
 90
        0
 91
        1
 62
     0
 92
       -2
340
0
 93
        0
 40
0.045
309
GRIDFORMAT_END
 95
       32
302
GRIDFORMAT
  1
GRIDFORMAT_BEGIN
 90
        0
 91
        1
 62
     0
 92
       -2
340
0
 93
        0
 40
0.045
309
GRIDFORMAT_END
309
TABLEFORMAT_END
  1
CELLSTYLE_BEGIN
 90
        1
 91
        1
300
_TITLE
309
CELLSTYLE_END
300
CELLSTYLE
  1
TABLEFORMAT_BEGIN
 90
        5
170
     1
 91
        0
 92
        0
 62
   257
 93
        1
300
CONTENTFORMAT
  1
CONTENTFORMAT_BEGIN
 90
        0
 91
        0
 92
      512
 93
        0
300

 40
0.0
140
1.0
 94
        5
 62
     0
340
11
144
4.5
309
CONTENTFORMAT_END
171
     1
301
MARGIN
  1
CELLMARGIN_BEGIN
 40
1.5
 40
1.5
 40
1.5
 40
1.5
 40
0.18
 40
0.18
309
CELLMARGIN_END
 94
        6
 95
        1
302
GRIDFORMAT
  1
GRIDFORMAT_BEGIN
 90
        0
 91
        1
 62
     0
 92
       -2
340
0
 93
        0
 40
0.045
309
GRIDFORMAT_END
 95
        2
302
GRIDFORMAT
  1
GRIDFORMAT_BEGIN
 90
        0
 91
        1
 62
     0
 92
       -2
340
0
 93
        0
 40
0.045
309
GRIDFORMAT_END
 95
        4
302
GRIDFORMAT
  1
GRIDFORMAT_BEGIN
 90
        0
 91
        1
 62
     0
 92
       -2
340
0
 93
        0
 40
0.045
309
GRIDFORMAT_END
 95
        8
302
GRIDFORMAT
  1
GRIDFORMAT_BEGIN
 90
        0
 91
        1
 62
     0
 92
       -2
340
0
 93
        0
 40
0.045
309
GRIDFORMAT_END
 95
       16
302
GRIDFORMAT
  1
GRIDFORMAT_BEGIN
 90
        0
 91
        1
 62
     0
 92
       -2
340
0
 93
        0
 40
0.045
309
GRIDFORMAT_END
 95
       32
302
GRIDFORMAT
  1
GRIDFORMAT_BEGIN
 90
        0
 91
        1
 62
     0
 92
       -2
340
0
 93
        0
 40
0.045
309
GRIDFORMAT_END
309
TABLEFORMAT_END
  1
CELLSTYLE_BEGIN
 90
        2
 91
        1
300
_HEADER
309
CELLSTYLE_END
300
CELLSTYLE
  1
TABLEFORMAT_BEGIN
 90
        5
170
     1
 91
        0
 92
        0
 62
   257
 93
        1
300
CONTENTFORMAT
  1
CONTENTFORMAT_BEGIN
 90
        0
 91
        0
 92
      512
 93
        0
300

 40
0.0
140
1.0
 94
        2
 62
     0
340
11
144
4.5
309
CONTENTFORMAT_END
171
     1
301
MARGIN
  1
CELLMARGIN_BEGIN
 40
1.5
 40
1.5
 40
1.5
 40
1.5
 40
0.18
 40
0.18
309
CELLMARGIN_END
 94
        6
 95
        1
302
GRIDFORMAT
  1
GRIDFORMAT_BEGIN
 90
        0
 91
        1
 62
     0
 92
       -2
340
0
 93
        0
 40
0.045
309
GRIDFORMAT_END
 95
        2
302
GRIDFORMAT
  1
GRIDFORMAT_BEGIN
 90
        0
 91
        1
 62
     0
 92
       -2
340
0
 93
        0
 40
0.045
309
GRIDFORMAT_END
 95
        4
302
GRIDFORMAT
  1
GRIDFORMAT_BEGIN
 90
        0
 91
        1
 62
     0
 92
       -2
340
0
 93
        0
 40
0.045
309
GRIDFORMAT_END
 95
        8
302
GRIDFORMAT
  1
GRIDFORMAT_BEGIN
 90
        0
 91
        1
 62
     0
 92
       -2
340
0
 93
        0
 40
0.045
309
GRIDFORMAT_END
 95
       16
302
GRIDFORMAT
  1
GRIDFORMAT_BEGIN
 90
        0
 91
        1
 62
     0
 92
       -2
340
0
 93
        0
 40
0.045
309
GRIDFORMAT_END
 95
       32
302
GRIDFORMAT
  1
GRIDFORMAT_BEGIN
 90
        0
 91
        1
 62
     0
 92
       -2
340
0
 93
        0
 40
0.045
309
GRIDFORMAT_END
309
TABLEFORMAT_END
  1
CELLSTYLE_BEGIN
 90
        3
 91
        2
300
_DATA
309
CELLSTYLE_END
  0
XRECORD
  5
6E2B
102
{ACAD_REACTORS
330
229F
102
}
330
229F
100
AcDbXrecord
280
     1
102
ACAD_ROUNDTRIP_PRE2007_TABLESTYLE
 90
      512
 91
        0
  1

 92
      512
 93
        0
  2

 94
      512
 95
        0
  3

  0
XRECORD
  5
6E16
102
{ACAD_REACTORS
330
6E15
102
}
330
6E15
100
AcDbXrecord
280
     1
102
RTVSPropertyOp0
 70
     1
102
RTVSPropertyOp1
 70
     1
102
RTVSPropertyOp2
 70
     1
102
RTVSPropertyOp3
 70
     1
102
RTVSPropertyOp4
 70
     1
102
RTVSPropertyOp5
 70
     1
102
RTVSPropertyOp6
 70
     1
102
RTVSPropertyOp7
 70
     1
102
RTVSPropertyOp8
 70
     1
102
RTVSPropertyOp9
 70
     1
102
RTVSPropertyOp10
 70
     1
102
RTVSPropertyOp11
 70
     1
102
RTVSPropertyOp12
 70
     1
102
RTVSPropertyOp13
 70
     1
102
RTVSPropertyOp14
 70
     1
102
RTVSPropertyOp15
 70
     1
102
RTVSPropertyOp16
 70
     1
102
RTVSPropertyOp17
 70
     1
102
RTVSPropertyOp18
 70
     1
102
RTVSPropertyOp19
 70
     1
102
RTVSPropertyOp20
 70
     1
102
RTVSPropertyOp21
 70
     1
102
RTVSPropertyOp22
 70
     1
102
RTVSPropertyOp23
 70
     1
102
RTVSPropertyOp24
 70
     1
102
RTVSPropertyOp25
 70
     1
102
RTVSPropertyOp26
 70
     1
102
RTVSPropertyOp27
 70
     1
102
RTVSPropertyOp28
 70
     1
102
RTVSPropertyOp29
 70
     1
102
RTVSPropertyOp30
 70
     1
102
RTVSPropertyOp31
 70
     1
102
RTVSPropertyOp32
 70
     1
  0
XRECORD
  5
6E1A
102
{ACAD_REACTORS
330
6E19
102
}
330
6E19
100
AcDbXrecord
280
     1
102
RTVSPropertyOp0
 70
     1
102
RTVSPropertyOp1
 70
     1
102
RTVSPropertyOp2
 70
     1
102
RTVSPropertyOp3
 70
     1
102
RTVSPropertyOp4
 70
     1
102
RTVSPropertyOp5
 70
     1
102
RTVSPropertyOp6
 70
     1
102
RTVSPropertyOp7
 70
     1
102
RTVSPropertyOp8
 70
     1
102
RTVSPropertyOp9
 70
     1
102
RTVSPropertyOp10
 70
     1
102
RTVSPropertyOp11
 70
     1
102
RTVSPropertyOp12
 70
     1
102
RTVSPropertyOp13
 70
     1
102
RTVSPropertyOp14
 70
     1
102
RTVSPropertyOp15
 70
     1
102
RTVSPropertyOp16
 70
     1
102
RTVSPropertyOp17
 70
     1
102
RTVSPropertyOp18
 70
     1
102
RTVSPropertyOp19
 70
     1
102
RTVSPropertyOp20
 70
     1
102
RTVSPropertyOp21
 70
     1
102
RTVSPropertyOp22
 70
     1
102
RTVSPropertyOp23
 70
     1
102
RTVSPropertyOp24
 70
     1
102
RTVSPropertyOp25
 70
     1
102
RTVSPropertyOp26
 70
     1
102
RTVSPropertyOp27
 70
     1
102
RTVSPropertyOp28
 70
     1
102
RTVSPropertyOp29
 70
     1
102
RTVSPropertyOp30
 70
     1
102
RTVSPropertyOp31
 70
     1
102
RTVSPropertyOp32
 70
     1
  0
XRECORD
  5
6E18
102
{ACAD_REACTORS
330
6E17
102
}
330
6E17
100
AcDbXrecord
280
     1
102
RTVSPropertyOp0
 70
     1
102
RTVSPropertyOp1
 70
     1
102
RTVSPropertyOp2
 70
     1
102
RTVSPropertyOp3
 70
     1
102
RTVSPropertyOp4
 70
     1
102
RTVSPropertyOp5
 70
     1
102
RTVSPropertyOp6
 70
     1
102
RTVSPropertyOp7
 70
     1
102
RTVSPropertyOp8
 70
     1
102
RTVSPropertyOp9
 70
     1
102
RTVSPropertyOp10
 70
     1
102
RTVSPropertyOp11
 70
     1
102
RTVSPropertyOp12
 70
     1
102
RTVSPropertyOp13
 70
     1
102
RTVSPropertyOp14
 70
     1
102
RTVSPropertyOp15
 70
     1
102
RTVSPropertyOp16
 70
     1
102
RTVSPropertyOp17
 70
     1
102
RTVSPropertyOp18
 70
     1
102
RTVSPropertyOp19
 70
     1
102
RTVSPropertyOp20
 70
     1
102
RTVSPropertyOp21
 70
     1
102
RTVSPropertyOp22
 70
     1
102
RTVSPropertyOp23
 70
     1
102
RTVSPropertyOp24
 70
     1
102
RTVSPropertyOp25
 70
     1
102
RTVSPropertyOp26
 70
     1
102
RTVSPropertyOp27
 70
     1
102
RTVSPropertyOp28
 70
     1
102
RTVSPropertyOp29
 70
     1
102
RTVSPropertyOp30
 70
     1
102
RTVSPropertyOp31
 70
     1
102
RTVSPropertyOp32
 70
     1
  0
XRECORD
  5
6E14
102
{ACAD_REACTORS
330
6E13
102
}
330
6E13
100
AcDbXrecord
280
     1
102
RTVSPropertyOp0
 70
     1
102
RTVSPropertyOp1
 70
     1
102
RTVSPropertyOp2
 70
     1
102
RTVSPropertyOp3
 70
     1
102
RTVSPropertyOp4
 70
     1
102
RTVSPropertyOp5
 70
     1
102
RTVSPropertyOp6
 70
     1
102
RTVSPropertyOp7
 70
     1
102
RTVSPropertyOp8
 70
     1
102
RTVSPropertyOp9
 70
     1
102
RTVSPropertyOp10
 70
     1
102
RTVSPropertyOp11
 70
     1
102
RTVSPropertyOp12
 70
     1
102
RTVSPropertyOp13
 70
     1
102
RTVSPropertyOp14
 70
     1
102
RTVSPropertyOp15
 70
     1
102
RTVSPropertyOp16
 70
     1
102
RTVSPropertyOp17
 70
     1
102
RTVSPropertyOp18
 70
     1
102
RTVSPropertyOp19
 70
     1
102
RTVSPropertyOp20
 70
     1
102
RTVSPropertyOp21
 70
     1
102
RTVSPropertyOp22
 70
     1
102
RTVSPropertyOp23
 70
     1
102
RTVSPropertyOp24
 70
     1
102
RTVSPropertyOp25
 70
     1
102
RTVSPropertyOp26
 70
     1
102
RTVSPropertyOp27
 70
     1
102
RTVSPropertyOp28
 70
     1
102
RTVSPropertyOp29
 70
     1
102
RTVSPropertyOp30
 70
     1
102
RTVSPropertyOp31
 70
     1
102
RTVSPropertyOp32
 70
     1
  0
XRECORD
  5
6E22
102
{ACAD_REACTORS
330
6E21
102
}
330
6E21
100
AcDbXrecord
280
     1
102
RTVSPropertyOp0
 70
     1
102
RTVSPropertyOp1
 70
     1
102
RTVSPropertyOp2
 70
     1
102
RTVSPropertyOp3
 70
     1
102
RTVSPropertyOp4
 70
     1
102
RTVSPropertyOp5
 70
     1
102
RTVSPropertyOp6
 70
     1
102
RTVSPropertyOp7
 70
     1
102
RTVSPropertyOp8
 70
     1
102
RTVSPropertyOp9
 70
     1
102
RTVSPropertyOp10
 70
     1
102
RTVSPropertyOp11
 70
     1
102
RTVSPropertyOp12
 70
     1
102
RTVSPropertyOp13
 70
     1
102
RTVSPropertyOp14
 70
     1
102
RTVSPropertyOp15
 70
     1
102
RTVSPropertyOp16
 70
     1
102
RTVSPropertyOp17
 70
     1
102
RTVSPropertyOp18
 70
     1
102
RTVSPropertyOp19
 70
     1
102
RTVSPropertyOp20
 70
     1
102
RTVSPropertyOp21
 70
     1
102
RTVSPropertyOp22
 70
     1
102
RTVSPropertyOp23
 70
     1
102
RTVSPropertyOp24
 70
     1
102
RTVSPropertyOp25
 70
     1
102
RTVSPropertyOp26
 70
     1
102
RTVSPropertyOp27
 70
     1
102
RTVSPropertyOp28
 70
     1
102
RTVSPropertyOp29
 70
     1
102
RTVSPropertyOp30
 70
     1
102
RTVSPropertyOp31
 70
     1
102
RTVSPropertyOp32
 70
     1
  0
XRECORD
  5
6E2A
102
{ACAD_REACTORS
330
6E29
102
}
330
6E29
100
AcDbXrecord
280
     1
102
RTVSPropertyOp0
 70
     1
102
RTVSPropertyOp1
 70
     1
102
RTVSPropertyOp2
 70
     1
102
RTVSPropertyOp3
 70
     1
102
RTVSPropertyOp4
 70
     1
102
RTVSPropertyOp5
 70
     1
102
RTVSPropertyOp6
 70
     1
102
RTVSPropertyOp7
 70
     1
102
RTVSPropertyOp8
 70
     1
102
RTVSPropertyOp9
 70
     1
102
RTVSPropertyOp10
 70
     1
102
RTVSPropertyOp11
 70
     1
102
RTVSPropertyOp12
 70
     1
102
RTVSPropertyOp13
 70
     1
102
RTVSPropertyOp14
 70
     1
102
RTVSPropertyOp15
 70
     1
102
RTVSPropertyOp16
 70
     1
102
RTVSPropertyOp17
 70
     1
102
RTVSPropertyOp18
 70
     1
102
RTVSPropertyOp19
 70
     1
102
RTVSPropertyOp20
 70
     1
102
RTVSPropertyOp21
 70
     1
102
RTVSPropertyOp22
 70
     1
102
RTVSPropertyOp23
 70
     1
102
RTVSPropertyOp24
 70
     1
102
RTVSPropertyOp25
 70
     1
102
RTVSPropertyOp26
 70
     1
102
RTVSPropertyOp27
 70
     1
102
RTVSPropertyOp28
 70
     1
102
RTVSPropertyOp29
 70
     1
102
RTVSPropertyOp30
 70
     1
102
RTVSPropertyOp31
 70
     1
102
RTVSPropertyOp32
 70
     1
  0
XRECORD
  5
6E1C
102
{ACAD_REACTORS
330
6E1B
102
}
330
6E1B
100
AcDbXrecord
280
     1
102
RTVSPropertyOp0
 70
     1
102
RTVSPropertyOp1
 70
     1
102
RTVSPropertyOp2
 70
     1
102
RTVSPropertyOp3
 70
     1
102
RTVSPropertyOp4
 70
     1
102
RTVSPropertyOp5
 70
     1
102
RTVSPropertyOp6
 70
     1
102
RTVSPropertyOp7
 70
     1
102
RTVSPropertyOp8
 70
     1
102
RTVSPropertyOp9
 70
     1
102
RTVSPropertyOp10
 70
     1
102
RTVSPropertyOp11
 70
     1
102
RTVSPropertyOp12
 70
     1
102
RTVSPropertyOp13
 70
     1
102
RTVSPropertyOp14
 70
     1
102
RTVSPropertyOp15
 70
     1
102
RTVSPropertyOp16
 70
     1
102
RTVSPropertyOp17
 70
     1
102
RTVSPropertyOp18
 70
     1
102
RTVSPropertyOp19
 70
     1
102
RTVSPropertyOp20
 70
     1
102
RTVSPropertyOp21
 70
     1
102
RTVSPropertyOp22
 70
     1
102
RTVSPropertyOp23
 70
     1
102
RTVSPropertyOp24
 70
     1
102
RTVSPropertyOp25
 70
     1
102
RTVSPropertyOp26
 70
     1
102
RTVSPropertyOp27
 70
     1
102
RTVSPropertyOp28
 70
     1
102
RTVSPropertyOp29
 70
     1
102
RTVSPropertyOp30
 70
     1
102
RTVSPropertyOp31
 70
     1
102
RTVSPropertyOp32
 70
     1
  0
XRECORD
  5
6E20
102
{ACAD_REACTORS
330
6E1F
102
}
330
6E1F
100
AcDbXrecord
280
     1
102
RTVSPropertyOp0
 70
     1
102
RTVSPropertyOp1
 70
     1
102
RTVSPropertyOp2
 70
     1
102
RTVSPropertyOp3
 70
     1
102
RTVSPropertyOp4
 70
     1
102
RTVSPropertyOp5
 70
     1
102
RTVSPropertyOp6
 70
     1
102
RTVSPropertyOp7
 70
     1
102
RTVSPropertyOp8
 70
     1
102
RTVSPropertyOp9
 70
     1
102
RTVSPropertyOp10
 70
     1
102
RTVSPropertyOp11
 70
     1
102
RTVSPropertyOp12
 70
     1
102
RTVSPropertyOp13
 70
     1
102
RTVSPropertyOp14
 70
     1
102
RTVSPropertyOp15
 70
     1
102
RTVSPropertyOp16
 70
     1
102
RTVSPropertyOp17
 70
     1
102
RTVSPropertyOp18
 70
     1
102
RTVSPropertyOp19
 70
     1
102
RTVSPropertyOp20
 70
     1
102
RTVSPropertyOp21
 70
     1
102
RTVSPropertyOp22
 70
     1
102
RTVSPropertyOp23
 70
     1
102
RTVSPropertyOp24
 70
     1
102
RTVSPropertyOp25
 70
     1
102
RTVSPropertyOp26
 70
     1
102
RTVSPropertyOp27
 70
     1
102
RTVSPropertyOp28
 70
     1
102
RTVSPropertyOp29
 70
     1
102
RTVSPropertyOp30
 70
     1
102
RTVSPropertyOp31
 70
     1
102
RTVSPropertyOp32
 70
     1
  0
XRECORD
  5
6E3F
102
{ACAD_REACTORS
330
6E3E
102
}
330
6E3E
100
AcDbXrecord
280
     1
102
RTVSPropertyOp0
 70
     0
102
RTVSPropertyOp1
 70
     0
102
RTVSPropertyOp2
 70
     0
102
RTVSPropertyOp3
 70
     0
102
RTVSPropertyOp4
 70
     0
102
RTVSPropertyOp5
 70
     0
102
RTVSPropertyOp6
 70
     0
102
RTVSPropertyOp7
 70
     0
102
RTVSPropertyOp8
 70
     0
102
RTVSPropertyOp9
 70
     0
102
RTVSPropertyOp10
 70
     0
102
RTVSPropertyOp11
 70
     0
102
RTVSPropertyOp12
 70
     0
102
RTVSPropertyOp13
 70
     0
102
RTVSPropertyOp14
 70
     2
102
RTVSPropertyOp15
 70
     0
102
RTVSPropertyOp16
 70
     0
102
RTVSPropertyOp17
 70
     0
102
RTVSPropertyOp18
 70
     0
102
RTVSPropertyOp19
 70
     0
102
RTVSPropertyOp20
 70
     0
102
RTVSPropertyOp21
 70
     0
102
RTVSPropertyOp22
 70
     0
102
RTVSPropertyOp23
 70
     0
102
RTVSPropertyOp24
 70
     0
102
RTVSPropertyOp25
 70
     0
102
RTVSPropertyOp26
 70
     0
102
RTVSPropertyOp27
 70
     0
102
RTVSPropertyOp28
 70
     0
102
RTVSPropertyOp29
 70
     0
102
RTVSPropertyOp30
 70
     0
102
RTVSPropertyOp31
 70
     0
102
RTVSPropertyOp32
 70
     0
  0
XRECORD
  5
6E28
102
{ACAD_REACTORS
330
6E27
102
}
330
6E27
100
AcDbXrecord
280
     1
102
RTVSPropertyOp0
 70
     1
102
RTVSPropertyOp1
 70
     1
102
RTVSPropertyOp2
 70
     1
102
RTVSPropertyOp3
 70
     1
102
RTVSPropertyOp4
 70
     1
102
RTVSPropertyOp5
 70
     1
102
RTVSPropertyOp6
 70
     1
102
RTVSPropertyOp7
 70
     1
102
RTVSPropertyOp8
 70
     1
102
RTVSPropertyOp9
 70
     1
102
RTVSPropertyOp10
 70
     1
102
RTVSPropertyOp11
 70
     1
102
RTVSPropertyOp12
 70
     1
102
RTVSPropertyOp13
 70
     1
102
RTVSPropertyOp14
 70
     1
102
RTVSPropertyOp15
 70
     1
102
RTVSPropertyOp16
 70
     1
102
RTVSPropertyOp17
 70
     1
102
RTVSPropertyOp18
 70
     1
102
RTVSPropertyOp19
 70
     1
102
RTVSPropertyOp20
 70
     1
102
RTVSPropertyOp21
 70
     1
102
RTVSPropertyOp22
 70
     1
102
RTVSPropertyOp23
 70
     1
102
RTVSPropertyOp24
 70
     1
102
RTVSPropertyOp25
 70
     1
102
RTVSPropertyOp26
 70
     1
102
RTVSPropertyOp27
 70
     1
102
RTVSPropertyOp28
 70
     1
102
RTVSPropertyOp29
 70
     1
102
RTVSPropertyOp30
 70
     1
102
RTVSPropertyOp31
 70
     1
102
RTVSPropertyOp32
 70
     1
  0
XRECORD
  5
6E0C
102
{ACAD_REACTORS
330
6E0B
102
}
330
6E0B
100
AcDbXrecord
280
     1
102
RTVSPropertyOp0
 70
     1
102
RTVSPropertyOp1
 70
     1
102
RTVSPropertyOp2
 70
     1
102
RTVSPropertyOp3
 70
     1
102
RTVSPropertyOp4
 70
     1
102
RTVSPropertyOp5
 70
     1
102
RTVSPropertyOp6
 70
     1
102
RTVSPropertyOp7
 70
     1
102
RTVSPropertyOp8
 70
     1
102
RTVSPropertyOp9
 70
     1
102
RTVSPropertyOp10
 70
     1
102
RTVSPropertyOp11
 70
     1
102
RTVSPropertyOp12
 70
     1
102
RTVSPropertyOp13
 70
     1
102
RTVSPropertyOp14
 70
     1
102
RTVSPropertyOp15
 70
     1
102
RTVSPropertyOp16
 70
     1
102
RTVSPropertyOp17
 70
     1
102
RTVSPropertyOp18
 70
     1
102
RTVSPropertyOp19
 70
     1
102
RTVSPropertyOp20
 70
     1
102
RTVSPropertyOp21
 70
     1
102
RTVSPropertyOp22
 70
     1
102
RTVSPropertyOp23
 70
     1
102
RTVSPropertyOp24
 70
     1
102
RTVSPropertyOp25
 70
     1
102
RTVSPropertyOp26
 70
     1
102
RTVSPropertyOp27
 70
     1
102
RTVSPropertyOp28
 70
     1
102
RTVSPropertyOp29
 70
     1
102
RTVSPropertyOp30
 70
     1
102
RTVSPropertyOp31
 70
     1
102
RTVSPropertyOp32
 70
     1
  0
XRECORD
  5
6E0E
102
{ACAD_REACTORS
330
6E0D
102
}
330
6E0D
100
AcDbXrecord
280
     1
102
RTVSPropertyOp0
 70
     1
102
RTVSPropertyOp1
 70
     1
102
RTVSPropertyOp2
 70
     1
102
RTVSPropertyOp3
 70
     1
102
RTVSPropertyOp4
 70
     1
102
RTVSPropertyOp5
 70
     1
102
RTVSPropertyOp6
 70
     1
102
RTVSPropertyOp7
 70
     1
102
RTVSPropertyOp8
 70
     1
102
RTVSPropertyOp9
 70
     1
102
RTVSPropertyOp10
 70
     1
102
RTVSPropertyOp11
 70
     1
102
RTVSPropertyOp12
 70
     1
102
RTVSPropertyOp13
 70
     1
102
RTVSPropertyOp14
 70
     1
102
RTVSPropertyOp15
 70
     1
102
RTVSPropertyOp16
 70
     1
102
RTVSPropertyOp17
 70
     1
102
RTVSPropertyOp18
 70
     1
102
RTVSPropertyOp19
 70
     1
102
RTVSPropertyOp20
 70
     1
102
RTVSPropertyOp21
 70
     1
102
RTVSPropertyOp22
 70
     1
102
RTVSPropertyOp23
 70
     1
102
RTVSPropertyOp24
 70
     1
102
RTVSPropertyOp25
 70
     1
102
RTVSPropertyOp26
 70
     1
102
RTVSPropertyOp27
 70
     1
102
RTVSPropertyOp28
 70
     1
102
RTVSPropertyOp29
 70
     1
102
RTVSPropertyOp30
 70
     1
102
RTVSPropertyOp31
 70
     1
102
RTVSPropertyOp32
 70
     1
  0
XRECORD
  5
6E10
102
{ACAD_REACTORS
330
6E0F
102
}
330
6E0F
100
AcDbXrecord
280
     1
102
RTVSPropertyOp0
 70
     1
102
RTVSPropertyOp1
 70
     1
102
RTVSPropertyOp2
 70
     1
102
RTVSPropertyOp3
 70
     1
102
RTVSPropertyOp4
 70
     1
102
RTVSPropertyOp5
 70
     1
102
RTVSPropertyOp6
 70
     1
102
RTVSPropertyOp7
 70
     1
102
RTVSPropertyOp8
 70
     1
102
RTVSPropertyOp9
 70
     1
102
RTVSPropertyOp10
 70
     1
102
RTVSPropertyOp11
 70
     1
102
RTVSPropertyOp12
 70
     1
102
RTVSPropertyOp13
 70
     1
102
RTVSPropertyOp14
 70
     1
102
RTVSPropertyOp15
 70
     1
102
RTVSPropertyOp16
 70
     1
102
RTVSPropertyOp17
 70
     1
102
RTVSPropertyOp18
 70
     1
102
RTVSPropertyOp19
 70
     1
102
RTVSPropertyOp20
 70
     1
102
RTVSPropertyOp21
 70
     1
102
RTVSPropertyOp22
 70
     1
102
RTVSPropertyOp23
 70
     1
102
RTVSPropertyOp24
 70
     1
102
RTVSPropertyOp25
 70
     1
102
RTVSPropertyOp26
 70
     1
102
RTVSPropertyOp27
 70
     1
102
RTVSPropertyOp28
 70
     1
102
RTVSPropertyOp29
 70
     1
102
RTVSPropertyOp30
 70
     1
102
RTVSPropertyOp31
 70
     1
102
RTVSPropertyOp32
 70
     1
  0
XRECORD
  5
6E12
102
{ACAD_REACTORS
330
6E11
102
}
330
6E11
100
AcDbXrecord
280
     1
102
RTVSPropertyOp0
 70
     1
102
RTVSPropertyOp1
 70
     1
102
RTVSPropertyOp2
 70
     1
102
RTVSPropertyOp3
 70
     1
102
RTVSPropertyOp4
 70
     1
102
RTVSPropertyOp5
 70
     1
102
RTVSPropertyOp6
 70
     1
102
RTVSPropertyOp7
 70
     1
102
RTVSPropertyOp8
 70
     1
102
RTVSPropertyOp9
 70
     1
102
RTVSPropertyOp10
 70
     1
102
RTVSPropertyOp11
 70
     1
102
RTVSPropertyOp12
 70
     1
102
RTVSPropertyOp13
 70
     1
102
RTVSPropertyOp14
 70
     1
102
RTVSPropertyOp15
 70
     1
102
RTVSPropertyOp16
 70
     1
102
RTVSPropertyOp17
 70
     1
102
RTVSPropertyOp18
 70
     1
102
RTVSPropertyOp19
 70
     1
102
RTVSPropertyOp20
 70
     1
102
RTVSPropertyOp21
 70
     1
102
RTVSPropertyOp22
 70
     1
102
RTVSPropertyOp23
 70
     1
102
RTVSPropertyOp24
 70
     1
102
RTVSPropertyOp25
 70
     1
102
RTVSPropertyOp26
 70
     1
102
RTVSPropertyOp27
 70
     1
102
RTVSPropertyOp28
 70
     1
102
RTVSPropertyOp29
 70
     1
102
RTVSPropertyOp30
 70
     1
102
RTVSPropertyOp31
 70
     1
102
RTVSPropertyOp32
 70
     1
  0
XRECORD
  5
6E2F
102
{ACAD_REACTORS
330
6E2E
102
}
330
6E2E
100
AcDbXrecord
280
     1
102
RTVSPropertyOp0
 70
     1
102
RTVSPropertyOp1
 70
     1
102
RTVSPropertyOp2
 70
     1
102
RTVSPropertyOp3
 70
     1
102
RTVSPropertyOp4
 70
     1
102
RTVSPropertyOp5
 70
     1
102
RTVSPropertyOp6
 70
     1
102
RTVSPropertyOp7
 70
     1
102
RTVSPropertyOp8
 70
     1
102
RTVSPropertyOp9
 70
     1
102
RTVSPropertyOp10
 70
     1
102
RTVSPropertyOp11
 70
     1
102
RTVSPropertyOp12
 70
     1
102
RTVSPropertyOp13
 70
     1
102
RTVSPropertyOp14
 70
     1
102
RTVSPropertyOp15
 70
     1
102
RTVSPropertyOp16
 70
     1
102
RTVSPropertyOp17
 70
     1
102
RTVSPropertyOp18
 70
     1
102
RTVSPropertyOp19
 70
     1
102
RTVSPropertyOp20
 70
     1
102
RTVSPropertyOp21
 70
     1
102
RTVSPropertyOp22
 70
     1
102
RTVSPropertyOp23
 70
     1
102
RTVSPropertyOp24
 70
     1
102
RTVSPropertyOp25
 70
     1
102
RTVSPropertyOp26
 70
     1
102
RTVSPropertyOp27
 70
     1
102
RTVSPropertyOp28
 70
     1
102
RTVSPropertyOp29
 70
     1
102
RTVSPropertyOp30
 70
     1
102
RTVSPropertyOp31
 70
     1
102
RTVSPropertyOp32
 70
     1
  0
XRECORD
  5
6E3B
102
{ACAD_REACTORS
330
6E3A
102
}
330
6E3A
100
AcDbXrecord
280
     1
102
RTVSPropertyOp0
 70
     0
102
RTVSPropertyOp1
 70
     0
102
RTVSPropertyOp2
 70
     0
102
RTVSPropertyOp3
 70
     0
102
RTVSPropertyOp4
 70
     0
102
RTVSPropertyOp5
 70
     0
102
RTVSPropertyOp6
 70
     0
102
RTVSPropertyOp7
 70
     0
102
RTVSPropertyOp8
 70
     0
102
RTVSPropertyOp9
 70
     0
102
RTVSPropertyOp10
 70
     0
102
RTVSPropertyOp11
 70
     0
102
RTVSPropertyOp12
 70
     0
102
RTVSPropertyOp13
 70
     0
102
RTVSPropertyOp14
 70
     2
102
RTVSPropertyOp15
 70
     0
102
RTVSPropertyOp16
 70
     0
102
RTVSPropertyOp17
 70
     0
102
RTVSPropertyOp18
 70
     0
102
RTVSPropertyOp19
 70
     0
102
RTVSPropertyOp20
 70
     0
102
RTVSPropertyOp21
 70
     0
102
RTVSPropertyOp22
 70
     0
102
RTVSPropertyOp23
 70
     0
102
RTVSPropertyOp24
 70
     0
102
RTVSPropertyOp25
 70
     0
102
RTVSPropertyOp26
 70
     0
102
RTVSPropertyOp27
 70
     0
102
RTVSPropertyOp28
 70
     0
102
RTVSPropertyOp29
 70
     0
102
RTVSPropertyOp30
 70
     0
102
RTVSPropertyOp31
 70
     0
102
RTVSPropertyOp32
 70
     0
  0
XRECORD
  5
6E26
102
{ACAD_REACTORS
330
6E25
102
}
330
6E25
100
AcDbXrecord
280
     1
102
RTVSPropertyOp0
 70
     1
102
RTVSPropertyOp1
 70
     1
102
RTVSPropertyOp2
 70
     1
102
RTVSPropertyOp3
 70
     1
102
RTVSPropertyOp4
 70
     1
102
RTVSPropertyOp5
 70
     1
102
RTVSPropertyOp6
 70
     1
102
RTVSPropertyOp7
 70
     1
102
RTVSPropertyOp8
 70
     1
102
RTVSPropertyOp9
 70
     1
102
RTVSPropertyOp10
 70
     1
102
RTVSPropertyOp11
 70
     1
102
RTVSPropertyOp12
 70
     1
102
RTVSPropertyOp13
 70
     1
102
RTVSPropertyOp14
 70
     1
102
RTVSPropertyOp15
 70
     1
102
RTVSPropertyOp16
 70
     1
102
RTVSPropertyOp17
 70
     1
102
RTVSPropertyOp18
 70
     1
102
RTVSPropertyOp19
 70
     1
102
RTVSPropertyOp20
 70
     1
102
RTVSPropertyOp21
 70
     1
102
RTVSPropertyOp22
 70
     1
102
RTVSPropertyOp23
 70
     1
102
RTVSPropertyOp24
 70
     1
102
RTVSPropertyOp25
 70
     1
102
RTVSPropertyOp26
 70
     1
102
RTVSPropertyOp27
 70
     1
102
RTVSPropertyOp28
 70
     1
102
RTVSPropertyOp29
 70
     1
102
RTVSPropertyOp30
 70
     1
102
RTVSPropertyOp31
 70
     1
102
RTVSPropertyOp32
 70
     1
  0
XRECORD
  5
6E3D
102
{ACAD_REACTORS
330
6E3C
102
}
330
6E3C
100
AcDbXrecord
280
     1
102
RTVSPropertyOp0
 70
     0
102
RTVSPropertyOp1
 70
     0
102
RTVSPropertyOp2
 70
     0
102
RTVSPropertyOp3
 70
     0
102
RTVSPropertyOp4
 70
     0
102
RTVSPropertyOp5
 70
     0
102
RTVSPropertyOp6
 70
     0
102
RTVSPropertyOp7
 70
     0
102
RTVSPropertyOp8
 70
     0
102
RTVSPropertyOp9
 70
     0
102
RTVSPropertyOp10
 70
     0
102
RTVSPropertyOp11
 70
     0
102
RTVSPropertyOp12
 70
     0
102
RTVSPropertyOp13
 70
     0
102
RTVSPropertyOp14
 70
     2
102
RTVSPropertyOp15
 70
     0
102
RTVSPropertyOp16
 70
     0
102
RTVSPropertyOp17
 70
     0
102
RTVSPropertyOp18
 70
     0
102
RTVSPropertyOp19
 70
     0
102
RTVSPropertyOp20
 70
     0
102
RTVSPropertyOp21
 70
     0
102
RTVSPropertyOp22
 70
     0
102
RTVSPropertyOp23
 70
     0
102
RTVSPropertyOp24
 70
     0
102
RTVSPropertyOp25
 70
     0
102
RTVSPropertyOp26
 70
     0
102
RTVSPropertyOp27
 70
     0
102
RTVSPropertyOp28
 70
     0
102
RTVSPropertyOp29
 70
     0
102
RTVSPropertyOp30
 70
     0
102
RTVSPropertyOp31
 70
     0
102
RTVSPropertyOp32
 70
     0
  0
XRECORD
  5
6E1E
102
{ACAD_REACTORS
330
6E1D
102
}
330
6E1D
100
AcDbXrecord
280
     1
102
RTVSPropertyOp0
 70
     1
102
RTVSPropertyOp1
 70
     1
102
RTVSPropertyOp2
 70
     1
102
RTVSPropertyOp3
 70
     1
102
RTVSPropertyOp4
 70
     1
102
RTVSPropertyOp5
 70
     1
102
RTVSPropertyOp6
 70
     1
102
RTVSPropertyOp7
 70
     1
102
RTVSPropertyOp8
 70
     1
102
RTVSPropertyOp9
 70
     1
102
RTVSPropertyOp10
 70
     1
102
RTVSPropertyOp11
 70
     1
102
RTVSPropertyOp12
 70
     1
102
RTVSPropertyOp13
 70
     1
102
RTVSPropertyOp14
 70
     1
102
RTVSPropertyOp15
 70
     1
102
RTVSPropertyOp16
 70
     1
102
RTVSPropertyOp17
 70
     1
102
RTVSPropertyOp18
 70
     1
102
RTVSPropertyOp19
 70
     1
102
RTVSPropertyOp20
 70
     1
102
RTVSPropertyOp21
 70
     1
102
RTVSPropertyOp22
 70
     1
102
RTVSPropertyOp23
 70
     1
102
RTVSPropertyOp24
 70
     1
102
RTVSPropertyOp25
 70
     1
102
RTVSPropertyOp26
 70
     1
102
RTVSPropertyOp27
 70
     1
102
RTVSPropertyOp28
 70
     1
102
RTVSPropertyOp29
 70
     1
102
RTVSPropertyOp30
 70
     1
102
RTVSPropertyOp31
 70
     1
102
RTVSPropertyOp32
 70
     1
  0
XRECORD
  5
6E39
102
{ACAD_REACTORS
330
6E38
102
}
330
6E38
100
AcDbXrecord
280
     1
102
RTVSPropertyOp0
 70
     1
102
RTVSPropertyOp1
 70
     1
102
RTVSPropertyOp2
 70
     1
102
RTVSPropertyOp3
 70
     1
102
RTVSPropertyOp4
 70
     1
102
RTVSPropertyOp5
 70
     1
102
RTVSPropertyOp6
 70
     1
102
RTVSPropertyOp7
 70
     1
102
RTVSPropertyOp8
 70
     1
102
RTVSPropertyOp9
 70
     1
102
RTVSPropertyOp10
 70
     1
102
RTVSPropertyOp11
 70
     1
102
RTVSPropertyOp12
 70
     1
102
RTVSPropertyOp13
 70
     1
102
RTVSPropertyOp14
 70
     1
102
RTVSPropertyOp15
 70
     1
102
RTVSPropertyOp16
 70
     1
102
RTVSPropertyOp17
 70
     1
102
RTVSPropertyOp18
 70
     1
102
RTVSPropertyOp19
 70
     1
102
RTVSPropertyOp20
 70
     1
102
RTVSPropertyOp21
 70
     1
102
RTVSPropertyOp22
 70
     1
102
RTVSPropertyOp23
 70
     1
102
RTVSPropertyOp24
 70
     1
102
RTVSPropertyOp25
 70
     1
102
RTVSPropertyOp26
 70
     1
102
RTVSPropertyOp27
 70
     1
102
RTVSPropertyOp28
 70
     1
102
RTVSPropertyOp29
 70
     1
102
RTVSPropertyOp30
 70
     1
102
RTVSPropertyOp31
 70
     1
102
RTVSPropertyOp32
 70
     1
  0
XRECORD
  5
6E37
102
{ACAD_REACTORS
330
6E36
102
}
330
6E36
100
AcDbXrecord
280
     1
102
RTVSPropertyOp0
 70
     1
102
RTVSPropertyOp1
 70
     1
102
RTVSPropertyOp2
 70
     1
102
RTVSPropertyOp3
 70
     1
102
RTVSPropertyOp4
 70
     1
102
RTVSPropertyOp5
 70
     1
102
RTVSPropertyOp6
 70
     1
102
RTVSPropertyOp7
 70
     1
102
RTVSPropertyOp8
 70
     1
102
RTVSPropertyOp9
 70
     1
102
RTVSPropertyOp10
 70
     1
102
RTVSPropertyOp11
 70
     1
102
RTVSPropertyOp12
 70
     1
102
RTVSPropertyOp13
 70
     1
102
RTVSPropertyOp14
 70
     1
102
RTVSPropertyOp15
 70
     1
102
RTVSPropertyOp16
 70
     1
102
RTVSPropertyOp17
 70
     1
102
RTVSPropertyOp18
 70
     1
102
RTVSPropertyOp19
 70
     1
102
RTVSPropertyOp20
 70
     1
102
RTVSPropertyOp21
 70
     1
102
RTVSPropertyOp22
 70
     1
102
RTVSPropertyOp23
 70
     1
102
RTVSPropertyOp24
 70
     1
102
RTVSPropertyOp25
 70
     1
102
RTVSPropertyOp26
 70
     1
102
RTVSPropertyOp27
 70
     1
102
RTVSPropertyOp28
 70
     1
102
RTVSPropertyOp29
 70
     1
102
RTVSPropertyOp30
 70
     1
102
RTVSPropertyOp31
 70
     1
102
RTVSPropertyOp32
 70
     1
  0
XRECORD
  5
6E31
102
{ACAD_REACTORS
330
6E30
102
}
330
6E30
100
AcDbXrecord
280
     1
102
RTVSPropertyOp0
 70
     1
102
RTVSPropertyOp1
 70
     1
102
RTVSPropertyOp2
 70
     1
102
RTVSPropertyOp3
 70
     1
102
RTVSPropertyOp4
 70
     1
102
RTVSPropertyOp5
 70
     1
102
RTVSPropertyOp6
 70
     1
102
RTVSPropertyOp7
 70
     1
102
RTVSPropertyOp8
 70
     1
102
RTVSPropertyOp9
 70
     1
102
RTVSPropertyOp10
 70
     1
102
RTVSPropertyOp11
 70
     1
102
RTVSPropertyOp12
 70
     1
102
RTVSPropertyOp13
 70
     1
102
RTVSPropertyOp14
 70
     1
102
RTVSPropertyOp15
 70
     1
102
RTVSPropertyOp16
 70
     1
102
RTVSPropertyOp17
 70
     1
102
RTVSPropertyOp18
 70
     1
102
RTVSPropertyOp19
 70
     1
102
RTVSPropertyOp20
 70
     1
102
RTVSPropertyOp21
 70
     1
102
RTVSPropertyOp22
 70
     1
102
RTVSPropertyOp23
 70
     1
102
RTVSPropertyOp24
 70
     1
102
RTVSPropertyOp25
 70
     1
102
RTVSPropertyOp26
 70
     1
102
RTVSPropertyOp27
 70
     1
102
RTVSPropertyOp28
 70
     1
102
RTVSPropertyOp29
 70
     1
102
RTVSPropertyOp30
 70
     1
102
RTVSPropertyOp31
 70
     1
102
RTVSPropertyOp32
 70
     1
  0
XRECORD
  5
6E33
102
{ACAD_REACTORS
330
6E32
102
}
330
6E32
100
AcDbXrecord
280
     1
102
RTVSPropertyOp0
 70
     1
102
RTVSPropertyOp1
 70
     1
102
RTVSPropertyOp2
 70
     1
102
RTVSPropertyOp3
 70
     1
102
RTVSPropertyOp4
 70
     1
102
RTVSPropertyOp5
 70
     1
102
RTVSPropertyOp6
 70
     1
102
RTVSPropertyOp7
 70
     1
102
RTVSPropertyOp8
 70
     1
102
RTVSPropertyOp9
 70
     1
102
RTVSPropertyOp10
 70
     1
102
RTVSPropertyOp11
 70
     1
102
RTVSPropertyOp12
 70
     1
102
RTVSPropertyOp13
 70
     1
102
RTVSPropertyOp14
 70
     1
102
RTVSPropertyOp15
 70
     1
102
RTVSPropertyOp16
 70
     1
102
RTVSPropertyOp17
 70
     1
102
RTVSPropertyOp18
 70
     1
102
RTVSPropertyOp19
 70
     1
102
RTVSPropertyOp20
 70
     1
102
RTVSPropertyOp21
 70
     1
102
RTVSPropertyOp22
 70
     1
102
RTVSPropertyOp23
 70
     1
102
RTVSPropertyOp24
 70
     1
102
RTVSPropertyOp25
 70
     1
102
RTVSPropertyOp26
 70
     1
102
RTVSPropertyOp27
 70
     1
102
RTVSPropertyOp28
 70
     1
102
RTVSPropertyOp29
 70
     1
102
RTVSPropertyOp30
 70
     1
102
RTVSPropertyOp31
 70
     1
102
RTVSPropertyOp32
 70
     1
  0
XRECORD
  5
6E24
102
{ACAD_REACTORS
330
6E23
102
}
330
6E23
100
AcDbXrecord
280
     1
102
RTVSPropertyOp0
 70
     1
102
RTVSPropertyOp1
 70
     1
102
RTVSPropertyOp2
 70
     1
102
RTVSPropertyOp3
 70
     1
102
RTVSPropertyOp4
 70
     1
102
RTVSPropertyOp5
 70
     1
102
RTVSPropertyOp6
 70
     1
102
RTVSPropertyOp7
 70
     1
102
RTVSPropertyOp8
 70
     1
102
RTVSPropertyOp9
 70
     1
102
RTVSPropertyOp10
 70
     1
102
RTVSPropertyOp11
 70
     1
102
RTVSPropertyOp12
 70
     1
102
RTVSPropertyOp13
 70
     1
102
RTVSPropertyOp14
 70
     1
102
RTVSPropertyOp15
 70
     1
102
RTVSPropertyOp16
 70
     1
102
RTVSPropertyOp17
 70
     1
102
RTVSPropertyOp18
 70
     1
102
RTVSPropertyOp19
 70
     1
102
RTVSPropertyOp20
 70
     1
102
RTVSPropertyOp21
 70
     1
102
RTVSPropertyOp22
 70
     1
102
RTVSPropertyOp23
 70
     1
102
RTVSPropertyOp24
 70
     1
102
RTVSPropertyOp25
 70
     1
102
RTVSPropertyOp26
 70
     1
102
RTVSPropertyOp27
 70
     1
102
RTVSPropertyOp28
 70
     1
102
RTVSPropertyOp29
 70
     1
102
RTVSPropertyOp30
 70
     1
102
RTVSPropertyOp31
 70
     1
102
RTVSPropertyOp32
 70
     1
  0
XRECORD
  5
6E2D
102
{ACAD_REACTORS
330
6E2C
102
}
330
6E2C
100
AcDbXrecord
280
     1
102
RTVSPropertyOp0
 70
     1
102
RTVSPropertyOp1
 70
     1
102
RTVSPropertyOp2
 70
     1
102
RTVSPropertyOp3
 70
     1
102
RTVSPropertyOp4
 70
     1
102
RTVSPropertyOp5
 70
     1
102
RTVSPropertyOp6
 70
     1
102
RTVSPropertyOp7
 70
     1
102
RTVSPropertyOp8
 70
     1
102
RTVSPropertyOp9
 70
     1
102
RTVSPropertyOp10
 70
     1
102
RTVSPropertyOp11
 70
     1
102
RTVSPropertyOp12
 70
     1
102
RTVSPropertyOp13
 70
     1
102
RTVSPropertyOp14
 70
     1
102
RTVSPropertyOp15
 70
     1
102
RTVSPropertyOp16
 70
     1
102
RTVSPropertyOp17
 70
     1
102
RTVSPropertyOp18
 70
     1
102
RTVSPropertyOp19
 70
     1
102
RTVSPropertyOp20
 70
     1
102
RTVSPropertyOp21
 70
     1
102
RTVSPropertyOp22
 70
     1
102
RTVSPropertyOp23
 70
     1
102
RTVSPropertyOp24
 70
     1
102
RTVSPropertyOp25
 70
     1
102
RTVSPropertyOp26
 70
     1
102
RTVSPropertyOp27
 70
     1
102
RTVSPropertyOp28
 70
     1
102
RTVSPropertyOp29
 70
     1
102
RTVSPropertyOp30
 70
     1
102
RTVSPropertyOp31
 70
     1
102
RTVSPropertyOp32
 70
     1
  0
XRECORD
  5
6E35
102
{ACAD_REACTORS
330
6E34
102
}
330
6E34
100
AcDbXrecord
280
     1
102
RTVSPropertyOp0
 70
     1
102
RTVSPropertyOp1
 70
     1
102
RTVSPropertyOp2
 70
     1
102
RTVSPropertyOp3
 70
     1
102
RTVSPropertyOp4
 70
     1
102
RTVSPropertyOp5
 70
     1
102
RTVSPropertyOp6
 70
     1
102
RTVSPropertyOp7
 70
     1
102
RTVSPropertyOp8
 70
     1
102
RTVSPropertyOp9
 70
     1
102
RTVSPropertyOp10
 70
     1
102
RTVSPropertyOp11
 70
     1
102
RTVSPropertyOp12
 70
     1
102
RTVSPropertyOp13
 70
     1
102
RTVSPropertyOp14
 70
     1
102
RTVSPropertyOp15
 70
     1
102
RTVSPropertyOp16
 70
     1
102
RTVSPropertyOp17
 70
     1
102
RTVSPropertyOp18
 70
     1
102
RTVSPropertyOp19
 70
     1
102
RTVSPropertyOp20
 70
     1
102
RTVSPropertyOp21
 70
     1
102
RTVSPropertyOp22
 70
     1
102
RTVSPropertyOp23
 70
     1
102
RTVSPropertyOp24
 70
     1
102
RTVSPropertyOp25
 70
     1
102
RTVSPropertyOp26
 70
     1
102
RTVSPropertyOp27
 70
     1
102
RTVSPropertyOp28
 70
     1
102
RTVSPropertyOp29
 70
     1
102
RTVSPropertyOp30
 70
     1
102
RTVSPropertyOp31
 70
     1
102
RTVSPropertyOp32
 70
     1
  0
DICTIONARY
  5
6E40
330
33AC
100
AcDbDictionary
280
     1
281
     1
  3
ACAD_XREC_ROUNDTRIP
360
6E41
  0
XRECORD
  5
6E41
102
{ACAD_REACTORS
330
6E40
102
}
330
6E40
100
AcDbXrecord
280
     1
102
SHADEPLOT
 70
     0
102
SHADEPLOTRESLEVEL
 70
     2
102
SHADEPLOTCUSTOMDPI
 70
   300
  0
ENDSEC
  0
EOF
