  0
SECTION
  2
HEADER
  9
$ACADVER
  1
AC1015
  9
$ACADMAINTVER
 70
    20
  9
$DWGCODEPAGE
  3
ANSI_932
  9
$INSBASE
 10
0.0
 20
0.0
 30
0.0
  9
$EXTMIN
 10
249.8789453750557
 20
201.4798945836886
 30
0.0
  9
$EXTMAX
 10
356.1763716100523
 20
284.0389247955021
 30
0.0
  9
$LIMMIN
 10
222.770076765816
 20
167.1114176541369
  9
$LIMMAX
 10
432.7915053372445
 20
315.611417654137
  9
$ORTHOMODE
 70
     0
  9
$REGENMODE
 70
     1
  9
$FILLMODE
 70
     1
  9
$QTEXTMODE
 70
     0
  9
$MIRRTEXT
 70
     1
  9
$LTSCALE
 40
0.5
  9
$ATTMODE
 70
     1
  9
$TEXTSIZE
 40
1.5
  9
$TRACEWID
 40
1.0
  9
$TEXTSTYLE
  7
STANDARD
  9
$CLAYER
  8
0
  9
$CELTYPE
  6
ByLayer
  9
$CECOLOR
 62
   256
  9
$CELTSCALE
 40
1.0
  9
$DISPSILH
 70
     0
  9
$DIMSCALE
 40
0.5
  9
$DIMASZ
 40
2.5
  9
$DIMEXO
 40
1.0
  9
$DIMDLI
 40
10.0
  9
$DIMRND
 40
0.0
  9
$DIMDLE
 40
0.0
  9
$DIMEXE
 40
1.0
  9
$DIMTP
 40
0.1
  9
$DIMTM
 40
0.1
  9
$DIMTXT
 40
3.5
  9
$DIMCEN
 40
0.0
  9
$DIMTSZ
 40
0.0
  9
$DIMTOL
 70
     0
  9
$DIMLIM
 70
     0
  9
$DIMTIH
 70
     0
  9
$DIMTOH
 70
     0
  9
$DIMSE1
 70
     0
  9
$DIMSE2
 70
     0
  9
$DIMTAD
 70
     3
  9
$DIMZIN
 70
     8
  9
$DIMBLK
  1
Open30
  9
$DIMASO
 70
     1
  9
$DIMSHO
 70
     1
  9
$DIMPOST
  1

  9
$DIMAPOST
  1
"
  9
$DIMALT
 70
     0
  9
$DIMALTD
 70
     2
  9
$DIMALTF
 40
0.0393701
  9
$DIMLFAC
 40
1.0
  9
$DIMTOFL
 70
     1
  9
$DIMTVP
 40
0.0
  9
$DIMTIX
 70
     0
  9
$DIMSOXD
 70
     0
  9
$DIMSAH
 70
     0
  9
$DIMBLK1
  1
Open30
  9
$DIMBLK2
  1
Open30
  9
$DIMSTYLE
  2
AM_JIS
  9
$DIMCLRD
 70
   256
  9
$DIMCLRE
 70
   256
  9
$DIMCLRT
 70
     2
  9
$DIMTFAC
 40
0.71
  9
$DIMGAP
 40
1.5
  9
$DIMJUST
 70
     0
  9
$DIMSD1
 70
     0
  9
$DIMSD2
 70
     0
  9
$DIMTOLJ
 70
     0
  9
$DIMTZIN
 70
     8
  9
$DIMALTZ
 70
     0
  9
$DIMALTTZ
 70
     0
  9
$DIMUPT
 70
     0
  9
$DIMDEC
 70
     2
  9
$DIMTDEC
 70
     3
  9
$DIMALTU
 70
     2
  9
$DIMALTTD
 70
     4
  9
$DIMTXSTY
  7
STANDARD
  9
$DIMAUNIT
 70
     0
  9
$DIMADEC
 70
     0
  9
$DIMALTRND
 40
0.0
  9
$DIMAZIN
 70
     2
  9
$DIMDSEP
 70
    46
  9
$DIMATFIT
 70
     3
  9
$DIMFRAC
 70
     0
  9
$DIMLDRBLK
  1
Open30
  9
$DIMLUNIT
 70
     2
  9
$DIMLWD
 70
    -1
  9
$DIMLWE
 70
    -1
  9
$DIMTMOVE
 70
     0
  9
$LUNITS
 70
     2
  9
$LUPREC
 70
     2
  9
$SKETCHINC
 40
1.0
  9
$FILLETRAD
 40
0.5
  9
$AUNITS
 70
     0
  9
$AUPREC
 70
     0
  9
$MENU
  1
.
  9
$ELEVATION
 40
0.0
  9
$PELEVATION
 40
0.0
  9
$THICKNESS
 40
0.0
  9
$LIMCHECK
 70
     0
  9
$CHAMFERA
 40
2.5
  9
$CHAMFERB
 40
2.5
  9
$CHAMFERC
 40
20.0
  9
$CHAMFERD
 40
0.0
  9
$SKPOLY
 70
     0
  9
$TDCREATE
 40
2454784.375539815
  9
$TDUCREATE
 40
2454784.000539814
  9
$TDUPDATE
 40
2456049.571041840
  9
$TDUUPDATE
 40
2456049.196041840
  9
$TDINDWG
 40
0.5014163079
  9
$TDUSRTIMER
 40
0.5014161343
  9
$USRTIMER
 70
     1
  9
$ANGBASE
 50
0.0
  9
$ANGDIR
 70
     0
  9
$PDMODE
 70
     0
  9
$PDSIZE
 40
0.0
  9
$PLINEWID
 40
0.0
  9
$SPLFRAME
 70
     0
  9
$SPLINETYPE
 70
     6
  9
$SPLINESEGS
 70
     8
  9
$HANDSEED
  5
6FBA
  9
$SURFTAB1
 70
     6
  9
$SURFTAB2
 70
     6
  9
$SURFTYPE
 70
     6
  9
$SURFU
 70
     6
  9
$SURFV
 70
     6
  9
$UCSBASE
  2

  9
$UCSNAME
  2

  9
$UCSORG
 10
0.0
 20
0.0
 30
0.0
  9
$UCSXDIR
 10
1.0
 20
0.0
 30
0.0
  9
$UCSYDIR
 10
0.0
 20
1.0
 30
0.0
  9
$UCSORTHOREF
  2

  9
$UCSORTHOVIEW
 70
     0
  9
$UCSORGTOP
 10
0.0
 20
0.0
 30
0.0
  9
$UCSORGBOTTOM
 10
0.0
 20
0.0
 30
0.0
  9
$UCSORGLEFT
 10
0.0
 20
0.0
 30
0.0
  9
$UCSORGRIGHT
 10
0.0
 20
0.0
 30
0.0
  9
$UCSORGFRONT
 10
0.0
 20
0.0
 30
0.0
  9
$UCSORGBACK
 10
0.0
 20
0.0
 30
0.0
  9
$PUCSBASE
  2

  9
$PUCSNAME
  2

  9
$PUCSORG
 10
0.0
 20
0.0
 30
0.0
  9
$PUCSXDIR
 10
1.0
 20
0.0
 30
0.0
  9
$PUCSYDIR
 10
0.0
 20
1.0
 30
0.0
  9
$PUCSORTHOREF
  2

  9
$PUCSORTHOVIEW
 70
     0
  9
$PUCSORGTOP
 10
0.0
 20
0.0
 30
0.0
  9
$PUCSORGBOTTOM
 10
0.0
 20
0.0
 30
0.0
  9
$PUCSORGLEFT
 10
0.0
 20
0.0
 30
0.0
  9
$PUCSORGRIGHT
 10
0.0
 20
0.0
 30
0.0
  9
$PUCSORGFRONT
 10
0.0
 20
0.0
 30
0.0
  9
$PUCSORGBACK
 10
0.0
 20
0.0
 30
0.0
  9
$USERI1
 70
     0
  9
$USERI2
 70
     0
  9
$USERI3
 70
     0
  9
$USERI4
 70
     0
  9
$USERI5
 70
     0
  9
$USERR1
 40
0.0
  9
$USERR2
 40
0.0
  9
$USERR3
 40
0.0
  9
$USERR4
 40
0.0
  9
$USERR5
 40
0.0
  9
$WORLDVIEW
 70
     1
  9
$SHADEDGE
 70
     3
  9
$SHADEDIF
 70
    70
  9
$TILEMODE
 70
     1
  9
$MAXACTVP
 70
    64
  9
$PINSBASE
 10
0.0
 20
0.0
 30
0.0
  9
$PLIMCHECK
 70
     0
  9
$PEXTMIN
 10
1.000000000000000E+20
 20
1.000000000000000E+20
 30
1.000000000000000E+20
  9
$PEXTMAX
 10
-1.000000000000000E+20
 20
-1.000000000000000E+20
 30
-1.000000000000000E+20
  9
$PLIMMIN
 10
0.0
 20
0.0
  9
$PLIMMAX
 10
420.0
 20
297.0
  9
$UNITMODE
 70
     0
  9
$VISRETAIN
 70
     1
  9
$PLINEGEN
 70
     0
  9
$PSLTSCALE
 70
     1
  9
$TREEDEPTH
 70
  3020
  9
$CMLSTYLE
  2
Standard
  9
$CMLJUST
 70
     0
  9
$CMLSCALE
 40
20.0
  9
$PROXYGRAPHICS
 70
     1
  9
$MEASUREMENT
 70
     1
  9
$CELWEIGHT
370
    -1
  9
$ENDCAPS
280
     0
  9
$JOINSTYLE
280
     0
  9
$LWDISPLAY
290
     0
  9
$INSUNITS
 70
     4
  9
$HYPERLINKBASE
  1

  9
$STYLESHEET
  1
IMAGIO.ctb
  9
$XEDIT
290
     1
  9
$CEPSNTYPE
380
     0
  9
$PSTYLEMODE
290
     1
  9
$FINGERPRINTGUID
  2
{195D72E8-7936-4A99-BEE5-8CE1A826B80A}
  9
$VERSIONGUID
  2
{00DE263E-53FE-425F-86CB-4BA3DE594F8E}
  9
$EXTNAMES
290
     1
  9
$PSVPSCALE
 40
0.0
  9
$OLESTARTUP
290
     0
  0
ENDSEC
  0
SECTION
  2
CLASSES
  0
CLASS
  1
ACDBDICTIONARYWDFLT
  2
AcDbDictionaryWithDefault
  3
ObjectDBX Classes
 90
        0
280
     0
281
     0
  0
CLASS
  1
ACDBPLACEHOLDER
  2
AcDbPlaceHolder
  3
ObjectDBX Classes
 90
        0
280
     0
281
     0
  0
CLASS
  1
LAYOUT
  2
AcDbLayout
  3
ObjectDBX Classes
 90
        0
280
     0
281
     0
  0
CLASS
  1
AMGSETTINGSOBJ
  2
AmgSettingsObj
  3
"AcadM|Product Description: AutoCAD Mechanical|Company: Autodesk, Inc."
 90
     1024
280
     0
281
     0
  0
CLASS
  1
ACME_DOCUMENT
  2
AcMeDbDoc
  3
AcMeServices
 90
     1024
280
     0
281
     0
  0
CLASS
  1
ACMESCOPE
  2
AcMeScope
  3
AcMeServices
 90
     1024
280
     0
281
     0
  0
CLASS
  1
ACMECOMMANDHISTORY
  2
AcMeCommandHistory
  3
AcMeServices
 90
     1024
280
     0
281
     0
  0
CLASS
  1
DICTIONARYVAR
  2
AcDbDictionaryVar
  3
ObjectDBX Classes
 90
        0
280
     0
281
     0
  0
CLASS
  1
ACIMSYSVARMAN
  2
AcImSysVarManager
  3
AcMeServices
 90
     1024
280
     0
281
     0
  0
CLASS
  1
ACIMREALSYSVAR
  2
AcImRealSysVar
  3
AcMeServices
 90
     1024
280
     0
281
     0
  0
CLASS
  1
ACIMINTSYSVAR
  2
AcImIntSysVar
  3
AcMeServices
 90
     1024
280
     0
281
     0
  0
CLASS
  1
ACMEDRAWINGMAN
  2
AcMeDrawingMan
  3
AcMeServices
 90
    33792
280
     0
281
     0
  0
CLASS
  1
ACMEVIEW
  2
AcMeView
  3
AcMeServices
 90
    33792
280
     0
281
     0
  0
CLASS
  1
ACDBENTITYCACHE
  2
AcMeEntityCache
  3
AcMeServices
 90
     1024
280
     0
281
     0
  0
CLASS
  1
GSMANAGER
  2
AcMeGSManager
  3
AcMeServices
 90
    32768
280
     0
281
     0
  0
CLASS
  1
AMDTINTERNALREACTOR
  2
AmdtInternalReactor
  3
AcMeServices
 90
     1024
280
     0
281
     0
  0
CLASS
  1
ACMESTATEMGR
  2
AcMeStateMgr
  3
AcMeServices
 90
     1024
280
     0
281
     0
  0
CLASS
  1
ACME_DATABASE
  2
AcMeDbDatabase
  3
AcMeServices
 90
     1024
280
     0
281
     0
  0
CLASS
  1
ACRFINSADJUSTERMGR
  2
AcRfInsAdjusterMgr
  3
AcMeServices
 90
     1024
280
     0
281
     0
  0
CLASS
  1
ACMDATADICTIONARY
  2
AcmDataDictionary
  3
"AcmSymBB|Product Description: AutoCAD Mechanical|Company: Autodesk, Inc."
 90
     1024
280
     0
281
     0
  0
CLASS
  1
ACMDATAENTRYBLOCK
  2
AcmDataEntryBlock
  3
AcmSymBB|Product Description: AutoCAD Mechanical|Company: Autodesk, Inc.
 90
     1024
280
     0
281
     0
  0
CLASS
  1
AMGOBJPROPCFG
  2
AmgObjPropCfg
  3
"AmgLay|Product Description: AutoCAD Mechanical|Company: Autodesk, Inc."
 90
     1025
280
     0
281
     0
  0
CLASS
  1
ACAMGFILTERDAT
  2
AcAmgFilterDat
  3
"AcadM|Product Description: AutoCAD Mechanical|Company: Autodesk, Inc."
 90
     1024
280
     0
281
     0
  0
CLASS
  1
LAYER_INDEX
  2
AcDbLayerIndex
  3
ObjectDBX Classes
 90
    32768
280
     0
281
     0
  0
CLASS
  1
IDBUFFER
  2
AcDbIdBuffer
  3
ObjectDBX Classes
 90
    32768
280
     0
281
     0
  0
CLASS
  1
ACIMSTRSYSVAR
  2
AcImStrSysVar
  3
AcMeServices
 90
     1024
280
     0
281
     0
  0
CLASS
  1
ACMSTANDARDJIS
  2
AcmStandardJIS
  3
"Amdt_StdImp|Product Description: AutoCAD Mechanical|Company: Autodesk, Inc."
 90
     1024
280
     0
281
     0
  0
CLASS
  1
ACMSURFSTANDARDJIS
  2
AcmSurfTextStdJIS
  3
"Amdt_StdImp|Product Description: AutoCAD Mechanical|Company: Autodesk, Inc."
 90
     1024
280
     0
281
     0
  0
CLASS
  1
ACMFCFSTANDARDJIS
  2
AcmFCFStdJIS
  3
"Amdt_StdImp|Product Description: AutoCAD Mechanical|Company: Autodesk, Inc."
 90
     1024
280
     0
281
     0
  0
CLASS
  1
ACMWELDSTANDARDJIS
  2
AcmWeldingStdJIS
  3
"Amdt_StdImp|Product Description: AutoCAD Mechanical|Company: Autodesk, Inc."
 90
     1024
280
     0
281
     0
  0
CLASS
  1
ACMIDSTANDARDJIS
  2
AcmIdStdJIS
  3
"Amdt_StdImp|Product Description: AutoCAD Mechanical|Company: Autodesk, Inc."
 90
     1024
280
     0
281
     0
  0
CLASS
  1
ACMDATUMSTANDARDJIS
  2
AcmDatumStdJIS
  3
"Amdt_StdImp|Product Description: AutoCAD Mechanical|Company: Autodesk, Inc."
 90
     1024
280
     0
281
     0
  0
CLASS
  1
ACMBOMSTANDARDJIS
  2
AcmBOMStdJIS
  3
"Amdt_StdImp|Product Description: AutoCAD Mechanical|Company: Autodesk, Inc."
 90
     1024
280
     0
281
     0
  0
CLASS
  1
MATERIAL
  2
AcDbMaterial
  3
ObjectDBX Classes
 90
     1153
280
     0
281
     0
  0
CLASS
  1
VISUALSTYLE
  2
AcDbVisualStyle
  3
ObjectDBX Classes
 90
     4095
280
     0
281
     0
  0
CLASS
  1
TABLESTYLE
  2
AcDbTableStyle
  3
ObjectDBX Classes
 90
     4095
280
     0
281
     0
  0
CLASS
  1
ACGREFMASTER
  2
AcGrefMaster
  3
AcAttribServices
 90
     1024
280
     0
281
     0
  0
CLASS
  1
AM_DRAWING_MGR
  2
AcDmDwgMgr
  3
AcMechDwgViewMgmt
 90
     1024
280
     0
281
     0
  0
CLASS
  1
AM_DWG_DOCUMENT
  2
AcDmDwgDocument
  3
AcMechDwgViewMgmt
 90
     1024
280
     0
281
     0
  0
CLASS
  1
AM_DWG_SHEET
  2
AcDmSheet
  3
AcMechDwgViewMgmt
 90
     1024
280
     0
281
     0
  0
CLASS
  1
AM_VIEWDIMPARMAP
  2
AcDmViewDimParMap
  3
AcMechDwgViewMgmt
 90
     1024
280
     0
281
     0
  0
CLASS
  1
AM_DWGMGR_NAME
  2
AcDmDwgMgrName
  3
AcMechDwgViewMgmt
 90
     1024
280
     0
281
     0
  0
CLASS
  1
ACGREFACADMASTER
  2
AcGrefacadMaster
  3
AcGrefServices
 90
     1024
280
     0
281
     0
  0
CLASS
  1
AMDTMENUSTATEMGR
  2
AmdtMenuStateMgr
  3
McadcomServices
 90
     1024
280
     0
281
     0
  0
CLASS
  1
AMDTMCOMMENUSTATE
  2
AmdtMcomMenuState
  3
McadcomServices
 90
     1024
280
     0
281
     0
  0
CLASS
  1
AMIMASTER
  2
AmiMaster
  3
AmiServices
 90
     1024
280
     0
281
     0
  0
CLASS
  1
MAPIAMMOUDLE
  2
MApiAmModule
  3
MApiAmServices
 90
     1024
280
     0
281
     0
  0
CLASS
  1
AMDTADMENUSTATE
  2
AmdtAdMenuState
  3
DesignerServices
 90
    32768
280
     0
281
     0
  0
CLASS
  1
ADAPPL
  2
AcAdAppl
  3
DesignerAssemblies
 90
    33792
280
     0
281
     0
  0
CLASS
  1
DEPMGR
  2
AcAdDepMgr
  3
DesignerAssemblies
 90
    33792
280
     0
281
     0
  0
CLASS
  1
PARAMMGR
  2
AcAdParamMgr
  3
DesignerAssemblies
 90
    33792
280
     0
281
     0
  0
CLASS
  1
PARAMSCOPE
  2
AcAdParamScope
  3
DesignerAssemblies
 90
    33792
280
     0
281
     0
  0
CLASS
  1
NAMEDAPPL
  2
AcAdNamedAppl
  3
DesignerAssemblies
 90
    33792
280
     0
281
     0
  0
CLASS
  1
AMDTDMMENUSTATE
  2
AmdtDmMenuState
  3
AcMechDwgViewMgmt
 90
     1024
280
     0
281
     0
  0
CLASS
  1
AMDTAMMENUSTATE
  2
AmdtAmMenuState
  3
DesignerAssemblies
 90
     1024
280
     0
281
     0
  0
CLASS
  1
ACAMPROJECT
  2
AcAmProject
  3
DesignerAssemblies
 90
     1024
280
     0
281
     0
  0
CLASS
  1
ACAMGRCOMPDEF
  2
AcAmGrCompDef
  3
DesignerAssemblies
 90
     1024
280
     0
281
     0
  0
CLASS
  1
ACCMCONTEXT
  2
AcCmContext
  3
DesignerAssemblies
 90
     1024
280
     0
281
     0
  0
CLASS
  1
ACAMCOMPDEF
  2
AcAmCompDef
  3
DesignerAssemblies
 90
     1024
280
     0
281
     0
  0
CLASS
  1
ACAMCOMPDEFMGR
  2
AcAmCompDefMgr
  3
DesignerAssemblies
 90
     1024
280
     0
281
     0
  0
CLASS
  1
AMCONTEXTMGR
  2
AcAmContextMgr
  3
DesignerAssemblies
 90
     1024
280
     0
281
     0
  0
CLASS
  1
ACAMCONTEXTMODELER
  2
AcAmContextModeler
  3
DesignerAssemblies
 90
     1024
280
     0
281
     0
  0
CLASS
  1
ACRFATTGENMGR
  2
AcRfAttGeneralMgr
  3
AcAttribServices
 90
     1024
280
     0
281
     0
  0
CLASS
  1
ACRFOBJATTMGR
  2
AcRfObjAttGroupMgr
  3
AcAttribServices
 90
     1024
280
     0
281
     0
  0
CLASS
  1
ACRFMCADAPIATTHOLDER
  2
AcRfMCADAPIAttHolder
  3
AcAttribServices
 90
     1024
280
     0
281
     0
  0
CLASS
  1
AMDTSYSATTR
  2
AmdtSystemAttribute
  3
AcAttribServices
 90
     1024
280
     0
281
     0
  0
CLASS
  1
ACAMGTITLESTD
  2
AcAmgTitleStd
  3
"AmgTitle|Product Description: AutoCAD Mechanical|Company: Autodesk, Inc."
 90
     4095
280
     0
281
     0
  0
CLASS
  1
ACMDETAILSTANDARDJIS
  2
AmdtDetailSymStdJIS
  3
"Amdt_StdImp|Product Description: AutoCAD Mechanical|Company: Autodesk, Inc."
 90
     1024
280
     0
281
     0
  0
CLASS
  1
ACMSECTIONSTANDARDJIS
  2
AmdtSectionSymStdJIS
  3
"Amdt_StdImp|Product Description: AutoCAD Mechanical|Company: Autodesk, Inc."
 90
     1024
280
     0
281
     0
  0
CLASS
  1
ACMCENTERLINESTANDARDJIS
  2
AmdtCenterLineStdJIS
  3
"Amdt_StdImp|Product Description: AutoCAD Mechanical|Company: Autodesk, Inc."
 90
     1024
280
     0
281
     0
  0
CLASS
  1
ACMTHREADLINESTANDARDJIS
  2
AmdtThreadLineStdJIS
  3
"Amdt_StdImp|Product Description: AutoCAD Mechanical|Company: Autodesk, Inc."
 90
     1024
280
     0
281
     0
  0
CLASS
  1
ACMNOTESTANDARDJIS
  2
AmdtNoteStdJIS
  3
"Amdt_StdImp|Product Description: AutoCAD Mechanical|Company: Autodesk, Inc."
 90
     1024
280
     0
281
     0
  0
CLASS
  1
AMDTNOTETEMPLATEDB
  2
AmdtNoteTemplateDB
  3
AcmSymBB|Product Description: AutoCAD Mechanical|Company: Autodesk, Inc.
 90
     1024
280
     0
281
     0
  0
CLASS
  1
ACMTAPERSTANDARDJIS
  2
AcmTaperStdJIS
  3
"Amdt_StdImp|Product Description: AutoCAD Mechanical|Company: Autodesk, Inc."
 90
     1024
280
     0
281
     0
  0
CLASS
  1
ACAMGLAYSTD
  2
AcAmgLayStd
  3
"AmgLay|Product Description: AutoCAD Mechanical|Company: Autodesk, Inc."
 90
     1024
280
     0
281
     0
  0
CLASS
  1
ACAMGDIMSTD
  2
AcAmgDimStd
  3
"AmgDim|Product Description: AutoCAD Mechanical|Company: Autodesk, Inc."
 90
     1024
280
     0
281
     0
  0
CLASS
  1
ACAMGHOLECHARTSTDJIS
  2
AcAmgHoleChartStdJIS
  3
AmgDim|Product Description: AutoCAD Mechanical|Company: Autodesk, Inc.
 90
     1024
280
     0
281
     0
  0
CLASS
  1
CATALOGSTATE
  2
AcAmCatalogState
  3
DesignerAssemblies
 90
    33792
280
     0
281
     0
  0
CLASS
  1
ACAMGRCOMPDEFSET
  2
AcAmGrCompDefSet
  3
DesignerAssemblies
 90
     1024
280
     0
281
     0
  0
CLASS
  1
AMDTBROWSERDBTAB
  2
AmdtBrowserDbTab
  3
McadcomServices
 90
     1024
280
     0
281
     0
  0
CLASS
  1
CBROWSERAPPOBJECT
  2
CBrowserAppObject
  3
McadcomServices
 90
     1024
280
     0
281
     0
  0
CLASS
  1
DM_PLACEHOLDER
  2
AcDmSelsetPlaceholder
  3
AcMechDwgViewMgmt
 90
     1024
280
     0
281
     0
  0
CLASS
  1
CAMSSTRUCTBTNSTATE
  2
StructBtnState
  3
DesignerAssemblies
 90
    33792
280
     0
281
     0
  0
CLASS
  1
EXACXREFPANELOBJECT
  2
ExAcXREFPanelObject
  3
EXAC_ESW
 90
    33793
280
     0
281
     0
  0
CLASS
  1
NPOCOLLECTION
  2
AcDbImpNonPersistentObjectsCollection
  3
ObjectDBX Classes
 90
    33921
280
     0
281
     0
  0
CLASS
  1
DIMASSOC
  2
AcDbDimAssoc
  3
"AcDbDimAssoc|Product Desc:     AcDim ARX App For Dimension|Company:          Autodesk, Inc.|WEB Address:      www.autodesk.com"
 90
    32768
280
     0
281
     0
  0
CLASS
  1
ACMPARTREF
  2
AcmPartRef
  3
"AcmSymBB|Product Description: AutoCAD Mechanical|Company: Autodesk, Inc."
 90
     4095
280
     0
281
     1
  0
CLASS
  1
ACDBLINERES
  2
AcDbLineRes
  3
AcGrefServices
 90
     1024
280
     0
281
     0
  0
CLASS
  1
NEWSTDPARTPARLIST
  2
AmgNewParListFiler
  3
"AmgParList|Product Description: AutoCAD Mechanical|Company: Autodesk, Inc."
 90
     4095
280
     0
281
     0
  0
CLASS
  1
SORTENTSTABLE
  2
AcDbSortentsTable
  3
ObjectDBX Classes
 90
        0
280
     0
281
     0
  0
CLASS
  1
ACMDATAENTRYPART
  2
AcmDataEntryPart
  3
AcmSymBB|Product Description: AutoCAD Mechanical|Company: Autodesk, Inc.
 90
     1024
280
     0
281
     0
  0
CLASS
  1
AMDTNOTE
  2
AmdtNote
  3
"AcmSymBB|Product Description: AutoCAD Mechanical|Company: Autodesk, Inc."
 90
     4095
280
     0
281
     1
  0
CLASS
  1
AMDTFORMULAUPDATEDISPATCHER
  2
AmdtFormulaUpdateDispatcher
  3
AcMeServices
 90
     1024
280
     0
281
     0
  0
CLASS
  1
ACMSTANDARDISO
  2
AcmStandardISO
  3
"Amdt_StdImp|Product Description: AutoCAD Mechanical|Company: Autodesk, Inc."
 90
     1024
280
     0
281
     0
  0
CLASS
  1
AMDTEDGESTANDARDISO13715
  2
AmdtEdgeStdISO13715
  3
"Amdt_StdImp|Product Description: AutoCAD Mechanical|Company: Autodesk, Inc."
 90
     1024
280
     0
281
     0
  0
CLASS
  1
ACMSURFSTANDARDISO
  2
AcmSurfTextStdISO
  3
"Amdt_StdImp|Product Description: AutoCAD Mechanical|Company: Autodesk, Inc."
 90
     1024
280
     0
281
     0
  0
CLASS
  1
ACMFCFSTANDARDISO
  2
AcmFCFStdISO
  3
"Amdt_StdImp|Product Description: AutoCAD Mechanical|Company: Autodesk, Inc."
 90
     1024
280
     0
281
     0
  0
CLASS
  1
ACMWELDSTANDARDISO
  2
AcmWeldingStdISO
  3
"Amdt_StdImp|Product Description: AutoCAD Mechanical|Company: Autodesk, Inc."
 90
     1024
280
     0
281
     0
  0
CLASS
  1
ACMIDSTANDARDISO
  2
AcmIdStdISO
  3
"Amdt_StdImp|Product Description: AutoCAD Mechanical|Company: Autodesk, Inc."
 90
     1024
280
     0
281
     0
  0
CLASS
  1
ACMDATUMSTANDARDISO
  2
AcmDatumStdISO
  3
"Amdt_StdImp|Product Description: AutoCAD Mechanical|Company: Autodesk, Inc."
 90
     1024
280
     0
281
     0
  0
CLASS
  1
ACMBOMSTANDARDISO
  2
AcmBOMStdISO
  3
"Amdt_StdImp|Product Description: AutoCAD Mechanical|Company: Autodesk, Inc."
 90
     1024
280
     0
281
     0
  0
CLASS
  1
ACMDETAILSTANDARDISO
  2
AmdtDetailSymStdISO
  3
"Amdt_StdImp|Product Description: AutoCAD Mechanical|Company: Autodesk, Inc."
 90
     1024
280
     0
281
     0
  0
CLASS
  1
ACMSECTIONSTANDARDISO
  2
AmdtSectionSymStdISO
  3
"Amdt_StdImp|Product Description: AutoCAD Mechanical|Company: Autodesk, Inc."
 90
     1024
280
     0
281
     0
  0
CLASS
  1
ACMCENTERLINESTANDARDISO
  2
AmdtCenterLineStdISO
  3
"Amdt_StdImp|Product Description: AutoCAD Mechanical|Company: Autodesk, Inc."
 90
     1024
280
     0
281
     0
  0
CLASS
  1
ACMTHREADLINESTANDARDISO
  2
AmdtThreadLineStdISO
  3
"Amdt_StdImp|Product Description: AutoCAD Mechanical|Company: Autodesk, Inc."
 90
     1024
280
     0
281
     0
  0
CLASS
  1
ACMNOTESTANDARDISO
  2
AmdtNoteStdISO
  3
"Amdt_StdImp|Product Description: AutoCAD Mechanical|Company: Autodesk, Inc."
 90
     1024
280
     0
281
     0
  0
CLASS
  1
ACMTAPERSTANDARDISO
  2
AcmTaperStdISO
  3
"Amdt_StdImp|Product Description: AutoCAD Mechanical|Company: Autodesk, Inc."
 90
     1024
280
     0
281
     0
  0
CLASS
  1
ACAMGHOLECHARTSTDISO
  2
AcAmgHoleChartStdISO
  3
AmgDim|Product Description: AutoCAD Mechanical|Company: Autodesk, Inc.
 90
     1024
280
     0
281
     0
  0
CLASS
  1
ACMDATAENTRY
  2
AcmDataEntry
  3
AcmSymBB|Product Description: AutoCAD Mechanical|Company: Autodesk, Inc.
 90
     1024
280
     0
281
     0
  0
CLASS
  1
ACMBOM
  2
AcmBom
  3
"AcmSymBB|Product Description: AutoCAD Mechanical|Company: Autodesk, Inc."
 90
     1024
280
     0
281
     0
  0
CLASS
  1
ACMBOMROW
  2
AcmBomRow
  3
"AcmSymBB|Product Description: AutoCAD Mechanical|Company: Autodesk, Inc."
 90
     1024
280
     0
281
     0
  0
CLASS
  1
ACMPARTLIST
  2
AcmPartList
  3
"AcmSymBB|Product Description: AutoCAD Mechanical|Company: Autodesk, Inc."
 90
     4095
280
     0
281
     1
  0
CLASS
  1
ACDBOPPOLYLINERES
  2
AcDbOpPolylineRes
  3
AcGrefServices
 90
     1024
280
     0
281
     0
  0
CLASS
  1
ACRFINSADJ
  2
AcRfInsAdjuster
  3
AcMeServices
 90
     1024
280
     0
281
     0
  0
CLASS
  1
ACMPICKOBJ
  2
AcmPickEnt
  3
"AcmSymBB|Product Description: AutoCAD Mechanical|Company: Autodesk, Inc."
 90
    33792
280
     0
281
     1
  0
CLASS
  1
ACMBALLOON
  2
AcmBalloon
  3
"AcmSymBB|Product Description: AutoCAD Mechanical|Company: Autodesk, Inc."
 90
     4095
280
     0
281
     1
  0
CLASS
  1
ACDBDIMENSIONRES
  2
AcDbDimensionRes
  3
AcmSymBB|Product Description: AutoCAD Mechanical|Company: Autodesk, Inc.
 90
     1024
280
     0
281
     0
  0
CLASS
  1
ACDBCIRCARCRES
  2
AcDbCircArcRes
  3
AcGrefServices
 90
     1024
280
     0
281
     0
  0
CLASS
  1
SCALE
  2
AcDbScale
  3
ObjectDBX Classes
 90
     1153
280
     0
281
     0
  0
CLASS
  1
MLEADERSTYLE
  2
AcDbMLeaderStyle
  3
ACDB_MLEADERSTYLE_CLASS
 90
     4095
280
     0
281
     0
  0
CLASS
  1
ACMANOOTATIONVIEWSTANDARDJIS
  2
AmdtAnViewStdJIS
  3
"Amdt_StdImp|Product Description: AutoCAD Mechanical|Company: Autodesk, Inc."
 90
     1024
280
     0
281
     0
  0
CLASS
  1
AMDTEDGESTANDARDJIS
  2
AmdtEdgeStdJIS
  3
"Amdt_StdImp|Product Description: AutoCAD Mechanical|Company: Autodesk, Inc."
 90
     1024
280
     0
281
     0
  0
CLASS
  1
ACMANOOTATIONVIEWSTANDARDISO
  2
AmdtAnViewStdISO
  3
"Amdt_StdImp|Product Description: AutoCAD Mechanical|Company: Autodesk, Inc."
 90
     1024
280
     0
281
     0
  0
CLASS
  1
CELLSTYLEMAP
  2
AcDbCellStyleMap
  3
ObjectDBX Classes
 90
     1152
280
     0
281
     0
  0
CLASS
  1
AMDTACMWBLOCKBOMENTITY
  2
AmdtAcmWblockBomEntity
  3
"AcmSymBB|Product Description: AutoCAD Mechanical|Company: Autodesk, Inc."
 90
    36863
280
     0
281
     1
  0
CLASS
  1
PLOTSETTINGS
  2
AcDbPlotSettings
  3
ObjectDBX Classes
 90
        0
280
     0
281
     0
  0
CLASS
  1
ACAD_EVALUATION_GRAPH
  2
AcDbEvalGraph
  3
ObjectDBX Classes
 90
    33921
280
     0
281
     0
  0
CLASS
  1
ACAECUSTOBJ
  2
AcAeEditorObj
  3
AcAeEditorObj
 90
    33792
280
     0
281
     0
  0
CLASS
  1
ACDB_DYNAMICBLOCKPURGEPREVENTER_VERSION
  2
AcDbDynamicBlockPurgePreventer
  3
ObjectDBX Classes
 90
    33921
280
     0
281
     0
  0
ENDSEC
  0
SECTION
  2
TABLES
  0
TABLE
  2
VPORT
  5
8
102
{ACAD_XDICTIONARY
360
CA7
102
}
330
0
100
AcDbSymbolTable
 70
     1
  0
VPORT
  5
230
330
8
100
AcDbSymbolTableRecord
100
AcDbViewportTableRecord
  2
*Active
 70
     0
 10
0.0
 20
0.0
 11
1.0
 21
1.0
 12
297.0377904607749
 22
241.1654034210486
 13
0.0
 23
0.0
 14
1.25
 24
1.25
 15
5.0
 25
5.0
 16
0.0
 26
0.0
 36
1.0
 17
0.0
 27
0.0
 37
0.0
 40
132.9781604588052
 41
1.825136612021857
 42
50.0
 43
0.0
 44
0.0
 50
0.0
 51
0.0
 71
     0
 72
   100
 73
     1
 74
     3
 75
     0
 76
     0
 77
     0
 78
     0
281
     0
 65
     1
110
0.0
120
0.0
130
0.0
111
1.0
121
0.0
131
0.0
112
0.0
122
1.0
132
0.0
 79
     0
146
0.0
  0
ENDTAB
  0
TABLE
  2
LTYPE
  5
5
330
0
100
AcDbSymbolTable
 70
    17
  0
LTYPE
  5
14
330
5
100
AcDbSymbolTableRecord
100
AcDbLinetypeTableRecord
  2
ByBlock
 70
     0
  3

 72
    65
 73
     0
 40
0.0
  0
LTYPE
  5
15
330
5
100
AcDbSymbolTableRecord
100
AcDbLinetypeTableRecord
  2
ByLayer
 70
     0
  3

 72
    65
 73
     0
 40
0.0
  0
LTYPE
  5
16
330
5
100
AcDbSymbolTableRecord
100
AcDbLinetypeTableRecord
  2
Continuous
 70
     0
  3
Solid line
 72
    65
 73
     0
 40
0.0
  0
LTYPE
  5
4B
330
5
100
AcDbSymbolTableRecord
100
AcDbLinetypeTableRecord
  2
AM_ISO02W050
 70
     0
  3
__ __ __ __ __ __ __ __ __ __ __ __ __ __ __
 72
    65
 73
     2
 40
7.5
 49
6.0
 74
     0
 49
-1.5
 74
     0
  0
LTYPE
  5
4C
330
5
100
AcDbSymbolTableRecord
100
AcDbLinetypeTableRecord
  2
AM_ISO08W050
 70
     0
  3
____ . ____ . ____ . ____ . ____ . ____ . ____
 72
    65
 73
     4
 40
18.0
 49
12.0
 74
     0
 49
-1.5
 74
     0
 49
3.0
 74
     0
 49
-1.5
 74
     0
  0
LTYPE
  5
4D
330
5
100
AcDbSymbolTableRecord
100
AcDbLinetypeTableRecord
  2
AM_ISO09W050
 70
     0
  3
_____ . . _____ . . _____ . . ____ .. ____
 72
    65
 73
     6
 40
22.5
 49
12.0
 74
     0
 49
-1.5
 74
     0
 49
3.0
 74
     0
 49
-1.5
 74
     0
 49
3.0
 74
     0
 49
-1.5
 74
     0
  0
LTYPE
  5
4E
330
5
100
AcDbSymbolTableRecord
100
AcDbLinetypeTableRecord
  2
Amconstr
 70
     0
  3
_______________________
 72
    65
 73
     2
 40
9999.0
 49
9999.0
 74
     0
 49
0.0
 74
     0
  0
LTYPE
  5
4F
330
5
100
AcDbSymbolTableRecord
100
AcDbLinetypeTableRecord
  2
AM_ISO02W050x2
 70
     0
  3
 _ _ _ _ _ _ _ _ _ _ _ _
 72
    65
 73
     2
 40
3.75
 49
3.0
 74
     0
 49
-0.75
 74
     0
  0
LTYPE
  5
50
330
5
100
AcDbSymbolTableRecord
100
AcDbLinetypeTableRecord
  2
AM_ISO08W050x2
 70
     0
  3
__ . __ . __ . __ . __ . __
 72
    65
 73
     4
 40
9.0
 49
6.0
 74
     0
 49
-0.75
 74
     0
 49
1.5
 74
     0
 49
-0.75
 74
     0
  0
LTYPE
  5
53
330
5
100
AcDbSymbolTableRecord
100
AcDbLinetypeTableRecord
  2
Amzigzag
 70
     0
  3
/\/-/\/-/\/-/\/-/\/-/\/
 72
    65
 73
     2
 40
11.0001
 49
0.0001
 74
     4
 75
   135
340
52
 46
0.04
 50
0.0
 44
0.0
 45
0.0
 49
-11.0
 74
     0
  0
LTYPE
  5
169
330
5
100
AcDbSymbolTableRecord
100
AcDbLinetypeTableRecord
  2
ACJISTGB
 70
     0
  3
__ . . __ . .
 72
    65
 73
     6
 40
9.0
 49
4.0
 74
     0
 49
-1.0
 74
     0
 49
1.0
 74
     0
 49
-1.0
 74
     0
 49
1.0
 74
     0
 49
-1.0
 74
     0
  0
LTYPE
  5
16A
330
5
100
AcDbSymbolTableRecord
100
AcDbLinetypeTableRecord
  2
ACJISTGL
 70
     0
  3
_ _ _ _ _
 72
    65
 73
     2
 40
3.0
 49
2.0
 74
     0
 49
-1.0
 74
     0
  0
LTYPE
  5
27A
330
5
100
AcDbSymbolTableRecord
100
AcDbLinetypeTableRecord
  2
HIDDEN
 70
     0
  3
Hidden __ __ __ __ __ __ __ __ __ __ __ __ __ _
 72
    65
 73
     2
 40
9.524999999999998
 49
6.349999999999999
 74
     0
 49
-3.174999999999999
 74
     0
  0
LTYPE
  5
27B
330
5
100
AcDbSymbolTableRecord
100
AcDbLinetypeTableRecord
  2
PHANTOM2
 70
     0
  3
Phantom (.5x) ___ _ _ ___ _ _ ___ _ _ ___ _ _
 72
    65
 73
     6
 40
31.75
 49
15.875
 74
     0
 49
-3.174999999999999
 74
     0
 49
3.174999999999999
 74
     0
 49
-3.174999999999999
 74
     0
 49
3.174999999999999
 74
     0
 49
-3.174999999999999
 74
     0
  0
LTYPE
  5
27C
330
5
100
AcDbSymbolTableRecord
100
AcDbLinetypeTableRecord
  2
CENTER
 70
     0
  3
Center ____ _ ____ _ ____ _ ____ _ ____ _ ____
 72
    65
 73
     4
 40
50.8
 49
31.75
 74
     0
 49
-6.349999999999999
 74
     0
 49
6.349999999999999
 74
     0
 49
-6.349999999999999
 74
     0
  0
LTYPE
  5
BB2
330
5
100
AcDbSymbolTableRecord
100
AcDbLinetypeTableRecord
  2
ACISOWELD
 70
     0
  3
_ _ _ _ _
 72
    65
 73
     2
 40
2.0
 49
2.0
 74
     0
 49
-1.0
 74
     0
  0
LTYPE
  5
BB3
330
5
100
AcDbSymbolTableRecord
100
AcDbLinetypeTableRecord
  2
ACISOTGB
 70
     0
  3
__ . . __ . .
 72
    65
 73
     6
 40
9.0
 49
4.0
 74
     0
 49
-1.0
 74
     0
 49
1.0
 74
     0
 49
-1.0
 74
     0
 49
1.0
 74
     0
 49
-1.0
 74
     0
  0
LTYPE
  5
BB4
330
5
100
AcDbSymbolTableRecord
100
AcDbLinetypeTableRecord
  2
ACISOTGL
 70
     0
  3
_ _ _ _ _
 72
    65
 73
     2
 40
3.0
 49
2.0
 74
     0
 49
-1.0
 74
     0
  0
ENDTAB
  0
TABLE
  2
LAYER
  5
2
102
{ACAD_XDICTIONARY
360
971
102
}
330
0
100
AcDbSymbolTable
 70
    14
  0
LAYER
  5
10
102
{ACAD_XDICTIONARY
360
227D
102
}
330
2
100
AcDbSymbolTableRecord
100
AcDbLayerTableRecord
  2
0
 70
     0
 62
     7
  6
Continuous
370
    -3
390
F
  0
LAYER
  5
59
102
{ACAD_XDICTIONARY
360
227F
102
}
330
2
100
AcDbSymbolTableRecord
100
AcDbLayerTableRecord
  2
AM_0
 70
     0
 62
     7
  6
Continuous
370
    50
390
F
  0
LAYER
  5
5A
102
{ACAD_XDICTIONARY
360
2281
102
}
330
2
100
AcDbSymbolTableRecord
100
AcDbLayerTableRecord
  2
AM_BOR
 70
     0
 62
     7
  6
Continuous
370
    50
390
F
  0
LAYER
  5
31B
102
{ACAD_XDICTIONARY
360
2283
102
}
330
2
100
AcDbSymbolTableRecord
100
AcDbLayerTableRecord
  2
AM_5
 70
     0
 62
     3
  6
Continuous
370
    25
390
F
1001
AcAecLayerStandard
1000

1000

  0
LAYER
  5
414
330
2
100
AcDbSymbolTableRecord
100
AcDbLayerTableRecord
  2
Defpoints
 70
     0
 62
     7
  6
Continuous
290
     0
370
    -3
390
F
  0
LAYER
  5
7C0
102
{ACAD_XDICTIONARY
360
2285
102
}
330
2
100
AcDbSymbolTableRecord
100
AcDbLayerTableRecord
  2
AM_7
 70
     0
 62
     4
  6
AM_ISO08W050
370
    25
390
F
  0
LAYER
  5
7C1
102
{ACAD_XDICTIONARY
360
2287
102
}
330
2
100
AcDbSymbolTableRecord
100
AcDbLayerTableRecord
  2
AM_8
 70
     0
 62
     1
  6
Continuous
370
    25
390
F
  0
LAYER
  5
7C2
102
{ACAD_XDICTIONARY
360
2289
102
}
330
2
100
AcDbSymbolTableRecord
100
AcDbLayerTableRecord
  2
AM_4
 70
     0
 62
     3
  6
Continuous
370
    25
390
F
  0
LAYER
  5
7C3
102
{ACAD_XDICTIONARY
360
228B
102
}
330
2
100
AcDbSymbolTableRecord
100
AcDbLayerTableRecord
  2
AM_11
 70
     0
 62
     3
  6
AM_ISO09W050
370
    25
390
F
  0
LAYER
  5
7C4
102
{ACAD_XDICTIONARY
360
228D
102
}
330
2
100
AcDbSymbolTableRecord
100
AcDbLayerTableRecord
  2
AM_12
 70
     0
 62
     7
  6
Continuous
290
     0
370
    50
390
F
  0
LAYER
  5
7C5
102
{ACAD_XDICTIONARY
360
228F
102
}
330
2
100
AcDbSymbolTableRecord
100
AcDbLayerTableRecord
  2
AM_PAREF
 70
     0
 62
     4
  6
Continuous
290
     0
370
    25
390
F
  0
LAYER
  5
1264
102
{ACAD_XDICTIONARY
360
2291
102
}
330
2
100
AcDbSymbolTableRecord
100
AcDbLayerTableRecord
  2
AM_12N
 70
     0
 62
     7
  6
Continuous
290
     0
370
    50
390
F
  0
LAYER
  5
2276
102
{ACAD_XDICTIONARY
360
2293
102
}
330
2
100
AcDbSymbolTableRecord
100
AcDbLayerTableRecord
  2
AM_CL
 70
     0
 62
     1
  6
Amconstr
370
    25
390
F
1001
AcAecLayerStandard
1000

1000

  0
LAYER
  5
386E
330
2
100
AcDbSymbolTableRecord
100
AcDbLayerTableRecord
  2
AM_3
 70
     0
 62
     6
  6
AM_ISO02W050
370
    25
390
F
  0
ENDTAB
  0
TABLE
  2
STYLE
  5
3
330
0
100
AcDbSymbolTable
 70
    10
  0
STYLE
  5
11
330
3
100
AcDbSymbolTableRecord
100
AcDbTextStyleTableRecord
  2
STANDARD
 70
     0
 40
0.0
 41
1.0
 50
0.0
 71
     0
 42
1.5
  3
ISOCP.SHX
  4
EXTFONT.SHX
  0
STYLE
  5
52
330
3
100
AcDbSymbolTableRecord
100
AcDbTextStyleTableRecord
  2

 70
     1
 40
0.0
 41
1.0
 50
0.0
 71
     0
 42
2.5
  3
ltypeshp.shx
  4

  0
STYLE
  5
161
330
3
100
AcDbSymbolTableRecord
100
AcDbTextStyleTableRecord
  2
ACJISTS
 70
     0
 40
1.0
 41
1.0
 50
0.0
 71
     0
 42
2.5
  3
isocp.shx
  4
bigfont.shx
  0
STYLE
  5
168
330
3
100
AcDbSymbolTableRecord
100
AcDbTextStyleTableRecord
  2
ACJISGDT
 70
     0
 40
0.0
 41
1.0
 50
0.0
 71
     0
 42
2.5
  3
amgdt.shx
  4

  0
STYLE
  5
7C6
330
3
100
AcDbSymbolTableRecord
100
AcDbTextStyleTableRecord
  2
ｽﾀｲﾙ1
 70
     0
 40
0.0
 41
1.0
 50
0.0
 71
     0
 42
44.62462130138407
  3

  4

1001
ACAD
1000
HGPSoeiKakugothicUB
1071
    32818
  0
STYLE
  5
BB6
330
3
100
AcDbSymbolTableRecord
100
AcDbTextStyleTableRecord
  2
ACISOTS
 70
     0
 40
1.0
 41
1.0
 50
0.0
 71
     0
 42
5.0
  3
isocp.shx
  4
extfont.shx
  0
STYLE
  5
BB7
330
3
100
AcDbSymbolTableRecord
100
AcDbTextStyleTableRecord
  2
ACISOGDT
 70
     0
 40
0.0
 41
1.0
 50
0.0
 71
     0
 42
5.0
  3
amgdt.shx
  4

  0
STYLE
  5
17C7
330
3
100
AcDbSymbolTableRecord
100
AcDbTextStyleTableRecord
  2
USER1
 70
     0
 40
0.0
 41
1.0
 50
0.0
 71
     0
 42
2.5
  3
TXT.SHX
  4

  0
STYLE
  5
17C8
330
3
100
AcDbSymbolTableRecord
100
AcDbTextStyleTableRecord
  2
USER2
 70
     0
 40
0.0
 41
1.0
 50
0.0
 71
     0
 42
2.5
  3
SIMPLEX.SHX
  4

  0
STYLE
  5
17C9
330
3
100
AcDbSymbolTableRecord
100
AcDbTextStyleTableRecord
  2
USER3
 70
     0
 40
0.0
 41
1.0
 50
0.0
 71
     0
 42
2.5
  3
ITALIC.SHX
  4

  0
ENDTAB
  0
TABLE
  2
VIEW
  5
6
330
0
100
AcDbSymbolTable
 70
     6
  0
VIEW
  5
7C
330
6
100
AcDbSymbolTableRecord
100
AcDbViewTableRecord
  2
AM_VIEW1
 70
     0
 40
74.25
 10
299.6082196229588
 20
278.486417654137
 41
153.6762857142857
 11
0.0
 21
0.0
 31
1.0
 12
0.0
 22
0.0
 32
0.0
 42
50.0
 43
0.0
 44
0.0
 50
0.0
 71
    16
281
     0
 72
     0
  0
VIEW
  5
7D
330
6
100
AcDbSymbolTableRecord
100
AcDbViewTableRecord
  2
AM_VIEW2
 70
     0
 40
74.25
 10
355.9533624801016
 20
278.486417654137
 41
153.6762857142857
 11
0.0
 21
0.0
 31
1.0
 12
0.0
 22
0.0
 32
0.0
 42
50.0
 43
0.0
 44
0.0
 50
0.0
 71
    16
281
     0
 72
     0
  0
VIEW
  5
7E
330
6
100
AcDbSymbolTableRecord
100
AcDbViewTableRecord
  2
AM_VIEW3
 70
     0
 40
74.25
 10
299.6082196229588
 20
204.236417654137
 41
153.6762857142857
 11
0.0
 21
0.0
 31
1.0
 12
0.0
 22
0.0
 32
0.0
 42
50.0
 43
0.0
 44
0.0
 50
0.0
 71
    16
281
     0
 72
     0
  0
VIEW
  5
7F
330
6
100
AcDbSymbolTableRecord
100
AcDbViewTableRecord
  2
AM_VIEW4
 70
     0
 40
74.25
 10
355.9533624801016
 20
204.236417654137
 41
153.6762857142857
 11
0.0
 21
0.0
 31
1.0
 12
0.0
 22
0.0
 32
0.0
 42
50.0
 43
0.0
 44
0.0
 50
0.0
 71
    16
281
     0
 72
     0
  0
VIEW
  5
80
330
6
100
AcDbSymbolTableRecord
100
AcDbViewTableRecord
  2
AM_VIEW5
 70
     0
 40
74.25
 10
327.7807910515302
 20
241.361417654137
 41
153.6762857142857
 11
0.0
 21
0.0
 31
1.0
 12
0.0
 22
0.0
 32
0.0
 42
50.0
 43
0.0
 44
0.0
 50
0.0
 71
    16
281
     0
 72
     0
  0
VIEW
  5
81
330
6
100
AcDbSymbolTableRecord
100
AcDbViewTableRecord
  2
AM_VIEW6
 70
     0
 40
148.498515
 10
327.7807910515302
 20
241.361417654137
 41
307.3494979028571
 11
0.0
 21
0.0
 31
1.0
 12
0.0
 22
0.0
 32
0.0
 42
50.0
 43
0.0
 44
0.0
 50
0.0
 71
    16
281
     0
 72
     0
  0
ENDTAB
  0
TABLE
  2
UCS
  5
7
330
0
100
AcDbSymbolTable
 70
     0
  0
ENDTAB
  0
TABLE
  2
APPID
  5
9
330
0
100
AcDbSymbolTable
 70
    46
  0
APPID
  5
12
330
9
100
AcDbSymbolTableRecord
100
AcDbRegAppTableRecord
  2
ACAD
 70
     0
  0
APPID
  5
30
330
9
100
AcDbSymbolTableRecord
100
AcDbRegAppTableRecord
  2
MCAD_NO_VIS
 70
     0
  0
APPID
  5
31
330
9
100
AcDbSymbolTableRecord
100
AcDbRegAppTableRecord
  2
ACAD_TEMP_GRAPHIC
 70
     0
  0
APPID
  5
5B
330
9
100
AcDbSymbolTableRecord
100
AcDbRegAppTableRecord
  2
GENIUS_GENREC_14
 70
     0
  0
APPID
  5
5C
330
9
100
AcDbSymbolTableRecord
100
AcDbRegAppTableRecord
  2
GENIUS_GENODEF_13
 70
     0
  0
APPID
  5
5D
330
9
100
AcDbSymbolTableRecord
100
AcDbRegAppTableRecord
  2
GENIUS_GENOBJ-N-REC_13
 70
     0
  0
APPID
  5
96
330
9
100
AcDbSymbolTableRecord
100
AcDbRegAppTableRecord
  2
GENIUS_GENOBJ-N-CEN_13
 70
     0
  0
APPID
  5
C1
330
9
100
AcDbSymbolTableRecord
100
AcDbRegAppTableRecord
  2
GENIUS_GENOBJ-N-TIT_13
 70
     0
  0
APPID
  5
C2
330
9
100
AcDbSymbolTableRecord
100
AcDbRegAppTableRecord
  2
GENIUS_GENTITLE_13
 70
     0
  0
APPID
  5
C3
330
9
100
AcDbSymbolTableRecord
100
AcDbRegAppTableRecord
  2
GENIUS_GENOENT_13
 70
     0
  0
APPID
  5
C4
330
9
100
AcDbSymbolTableRecord
100
AcDbRegAppTableRecord
  2
GENIUS_GENOREF_13
 70
     0
  0
APPID
  5
C5
330
9
100
AcDbSymbolTableRecord
100
AcDbRegAppTableRecord
  2
GENIUS_GENOLIS_13
 70
     0
  0
APPID
  5
C6
330
9
100
AcDbSymbolTableRecord
100
AcDbRegAppTableRecord
  2
GENIUS_GENZVEED_13
 70
     0
  0
APPID
  5
C7
330
9
100
AcDbSymbolTableRecord
100
AcDbRegAppTableRecord
  2
GENIUS_GENSCREG_15
 70
     0
  0
APPID
  5
C8
330
9
100
AcDbSymbolTableRecord
100
AcDbRegAppTableRecord
  2
GENIUS_GENOBJ-N-SDF_13
 70
     0
  0
APPID
  5
27E
330
9
100
AcDbSymbolTableRecord
100
AcDbRegAppTableRecord
  2
AD_DRAW
 70
     0
  0
APPID
  5
281
330
9
100
AcDbSymbolTableRecord
100
AcDbRegAppTableRecord
  2
ACATTRIBSERVICES
 70
     0
  0
APPID
  5
2A0
330
9
100
AcDbSymbolTableRecord
100
AcDbRegAppTableRecord
  2
DESIGNERASSEMBLIES
 70
     0
  0
APPID
  5
2B9
330
9
100
AcDbSymbolTableRecord
100
AcDbRegAppTableRecord
  2
ACADM_DIM_EDIT
 70
     0
  0
APPID
  5
2BA
330
9
100
AcDbSymbolTableRecord
100
AcDbRegAppTableRecord
  2
AMDT_DM_ADJ
 70
     0
  0
APPID
  5
31C
330
9
100
AcDbSymbolTableRecord
100
AcDbRegAppTableRecord
  2
AcAecLayerStandard
 70
     0
  0
APPID
  5
37C
330
9
100
AcDbSymbolTableRecord
100
AcDbRegAppTableRecord
  2
ACAD_PSEXT
 70
     0
  0
APPID
  5
729
330
9
100
AcDbSymbolTableRecord
100
AcDbRegAppTableRecord
  2
GENIUS_GENDIMSH_14
 70
     0
  0
APPID
  5
72B
330
9
100
AcDbSymbolTableRecord
100
AcDbRegAppTableRecord
  2
ACAD_EXEMPT_FROM_CAD_STANDARDS
 70
     0
  0
APPID
  5
7C8
330
9
100
AcDbSymbolTableRecord
100
AcDbRegAppTableRecord
  2
GENIUS_GENOBJ-N-FIL_13
 70
     0
  0
APPID
  5
7C9
330
9
100
AcDbSymbolTableRecord
100
AcDbRegAppTableRecord
  2
GENIUS_GEFSH_13
 70
     0
  0
APPID
  5
7CA
330
9
100
AcDbSymbolTableRecord
100
AcDbRegAppTableRecord
  2
GENIUS_GENOBJ-F-SHS_13
 70
     0
  0
APPID
  5
7CB
330
9
100
AcDbSymbolTableRecord
100
AcDbRegAppTableRecord
  2
GENIUS_GENFIL_13
 70
     0
  0
APPID
  5
7CC
330
9
100
AcDbSymbolTableRecord
100
AcDbRegAppTableRecord
  2
GENIUS_GENOBJ-N-CHA_13
 70
     0
  0
APPID
  5
7CD
330
9
100
AcDbSymbolTableRecord
100
AcDbRegAppTableRecord
  2
GENIUS_GENOBJ-N-HTC_13
 70
     0
  0
APPID
  5
7CE
330
9
100
AcDbSymbolTableRecord
100
AcDbRegAppTableRecord
  2
GENIUS_GENHATCH_13
 70
     0
  0
APPID
  5
978
330
9
100
AcDbSymbolTableRecord
100
AcDbRegAppTableRecord
  2
GENIUS_GENCEN_19
 70
     0
  0
APPID
  5
CBC
330
9
100
AcDbSymbolTableRecord
100
AcDbRegAppTableRecord
  2
ACAD_DSTYLE_DIMARC_LENGTH_SYMBOL
 70
     0
  0
APPID
  5
170C
330
9
100
AcDbSymbolTableRecord
100
AcDbRegAppTableRecord
  2
GENIUS_GENOBJ-N-CRS_13
 70
     0
  0
APPID
  5
2248
330
9
100
AcDbSymbolTableRecord
100
AcDbRegAppTableRecord
  2
GENIUS_GENDTOL_13
 70
     0
  0
APPID
  5
2249
330
9
100
AcDbSymbolTableRecord
100
AcDbRegAppTableRecord
  2
ACAD_DSTYLE_DIMINSPECT
 70
     0
  0
APPID
  5
22EC
330
9
100
AcDbSymbolTableRecord
100
AcDbRegAppTableRecord
  2
ACAD_MLEADERVER
 70
     0
  0
APPID
  5
31F5
330
9
100
AcDbSymbolTableRecord
100
AcDbRegAppTableRecord
  2
ACAD_DSTYLE_DIMJAG
 70
     0
  0
APPID
  5
31F6
330
9
100
AcDbSymbolTableRecord
100
AcDbRegAppTableRecord
  2
ACAD_DSTYLE_DIMBREAK
 70
     0
  0
APPID
  5
327F
330
9
100
AcDbSymbolTableRecord
100
AcDbRegAppTableRecord
  2
ACAD_DSTYLE_DIM_LINETYPE
 70
     0
  0
APPID
  5
3280
330
9
100
AcDbSymbolTableRecord
100
AcDbRegAppTableRecord
  2
ACAD_DSTYLE_DIM_EXT1_LINETYPE
 70
     0
  0
APPID
  5
3281
330
9
100
AcDbSymbolTableRecord
100
AcDbRegAppTableRecord
  2
ACAD_DSTYLE_DIM_EXT2_LINETYPE
 70
     0
  0
APPID
  5
42D0
330
9
100
AcDbSymbolTableRecord
100
AcDbRegAppTableRecord
  2
ACAD_DSTYLE_DIMANGULAR_EXTENSION
 70
     0
  0
APPID
  5
525F
330
9
100
AcDbSymbolTableRecord
100
AcDbRegAppTableRecord
  2
ACAUTHENVIRON
 70
     0
  0
APPID
  5
5262
330
9
100
AcDbSymbolTableRecord
100
AcDbRegAppTableRecord
  2
AcDbDynamicBlockTrueName
 70
     0
  0
APPID
  5
5263
330
9
100
AcDbSymbolTableRecord
100
AcDbRegAppTableRecord
  2
AcDbDynamicBlockGUID
 70
     0
  0
ENDTAB
  0
TABLE
  2
DIMSTYLE
  5
A
330
0
100
AcDbSymbolTable
 70
    18
100
AcDbDimStyleTable
 71
     1
340
8F
  0
DIMSTYLE
105
2C1
330
A
100
AcDbSymbolTableRecord
100
AcDbDimStyleTableRecord
  2
Standard
 70
     0
340
11
  0
DIMSTYLE
105
8F
330
A
100
AcDbSymbolTableRecord
100
AcDbDimStyleTableRecord
  2
AM_JIS
 70
     0
  4
"
 40
0.5
 41
2.5
 42
1.0
 43
10.0
 44
1.0
 47
0.1
 48
0.1
 73
     0
 74
     0
 77
     3
 78
     8
 79
     2
140
3.5
141
0.0
143
0.0393701
146
0.71
147
1.5
172
     1
176
   256
177
   256
178
     2
271
     2
272
     3
274
     4
283
     0
284
     8
340
11
341
84
342
84
343
84
344
84
371
    -1
372
    -1
1001
ACAD_DSTYLE_DIMJAG
1070
   388
1040
1.5
1001
ACAD_DSTYLE_DIMBREAK
1070
   391
1040
3.75
1001
ACAD_DSTYLE_DIMARC_LENGTH_SYMBOL
1070
   379
1070
     1
1001
ACAD_DSTYLE_DIM_LINETYPE
1070
   380
1005
14
1001
ACAD_DSTYLE_DIM_EXT1_LINETYPE
1070
   381
1005
14
1001
ACAD_DSTYLE_DIM_EXT2_LINETYPE
1070
   382
1005
14
  0
DIMSTYLE
105
90
330
A
100
AcDbSymbolTableRecord
100
AcDbDimStyleTableRecord
  2
AM_JIS$3
 70
     0
  4
"
 40
0.5
 41
2.5
 42
1.0
 43
10.0
 44
1.0
 47
0.1
 48
0.1
 73
     0
 77
     3
 78
     8
 79
     2
140
3.5
141
0.0
143
0.0393701
146
0.71
147
1.5
176
   256
177
   256
178
     2
271
     2
272
     3
274
     4
283
     0
284
     8
288
     1
289
     0
340
11
341
84
342
84
343
84
344
84
371
    -1
372
    -1
1001
ACAD_DSTYLE_DIMBREAK
1070
   391
1040
3.75
1001
ACAD_DSTYLE_DIMJAG
1070
   388
1040
1.5
1001
ACAD_DSTYLE_DIMARC_LENGTH_SYMBOL
1070
   379
1070
     1
1001
ACAD_DSTYLE_DIM_LINETYPE
1070
   380
1005
14
1001
ACAD_DSTYLE_DIM_EXT1_LINETYPE
1070
   381
1005
14
1001
ACAD_DSTYLE_DIM_EXT2_LINETYPE
1070
   382
1005
14
  0
DIMSTYLE
105
91
330
A
100
AcDbSymbolTableRecord
100
AcDbDimStyleTableRecord
  2
AM_JIS$4
 70
     0
  4
"
 40
0.5
 41
2.5
 42
1.0
 43
10.0
 44
1.0
 47
0.1
 48
0.1
 73
     0
 74
     0
 77
     3
 78
     8
 79
     2
140
3.5
141
0.0
143
0.0393701
146
0.71
147
1.5
172
     1
176
   256
177
   256
178
     2
271
     2
272
     3
274
     4
283
     0
284
     8
340
11
341
84
342
84
343
84
344
84
371
    -1
372
    -1
1001
ACAD_DSTYLE_DIMBREAK
1070
   391
1040
3.75
1001
ACAD_DSTYLE_DIMJAG
1070
   388
1040
1.5
1001
ACAD_DSTYLE_DIMARC_LENGTH_SYMBOL
1070
   379
1070
     1
1001
ACAD_DSTYLE_DIM_LINETYPE
1070
   380
1005
14
1001
ACAD_DSTYLE_DIM_EXT1_LINETYPE
1070
   381
1005
14
1001
ACAD_DSTYLE_DIM_EXT2_LINETYPE
1070
   382
1005
14
  0
DIMSTYLE
105
92
330
A
100
AcDbSymbolTableRecord
100
AcDbDimStyleTableRecord
  2
AM_JIS$6
 70
     0
  4
"
 40
0.5
 41
2.5
 42
1.0
 43
10.0
 44
1.0
 47
0.1
 48
0.1
 73
     0
 74
     0
 78
     8
 79
     2
140
3.5
141
0.0
143
0.0393701
146
0.71
147
1.5
172
     1
176
   256
177
   256
178
     2
271
     2
272
     3
274
     4
283
     0
284
     8
340
11
341
84
342
84
343
84
344
84
371
    -1
372
    -1
1001
ACAD_DSTYLE_DIMBREAK
1070
   391
1040
3.75
1001
ACAD_DSTYLE_DIMJAG
1070
   388
1040
1.5
1001
ACAD_DSTYLE_DIMARC_LENGTH_SYMBOL
1070
   379
1070
     1
1001
ACAD_DSTYLE_DIM_LINETYPE
1070
   380
1005
14
1001
ACAD_DSTYLE_DIM_EXT1_LINETYPE
1070
   381
1005
14
1001
ACAD_DSTYLE_DIM_EXT2_LINETYPE
1070
   382
1005
14
  0
DIMSTYLE
105
93
330
A
100
AcDbSymbolTableRecord
100
AcDbDimStyleTableRecord
  2
AM_JIS$7
 70
     0
  4
"
 40
0.5
 41
2.5
 42
1.0
 43
10.0
 44
1.0
 47
0.1
 48
0.1
 73
     0
 74
     0
 77
     3
 78
     8
 79
     2
140
3.5
141
0.0
143
0.0393701
146
0.71
147
1.5
172
     1
176
   256
177
   256
178
     2
271
     2
272
     3
274
     4
283
     0
284
     8
340
11
341
84
342
84
343
84
344
84
371
    -1
372
    -1
1001
ACAD_DSTYLE_DIMBREAK
1070
   391
1040
3.75
1001
ACAD_DSTYLE_DIMJAG
1070
   388
1040
1.5
1001
ACAD_DSTYLE_DIMARC_LENGTH_SYMBOL
1070
   379
1070
     1
1001
ACAD_DSTYLE_DIM_LINETYPE
1070
   380
1005
14
1001
ACAD_DSTYLE_DIM_EXT1_LINETYPE
1070
   381
1005
14
1001
ACAD_DSTYLE_DIM_EXT2_LINETYPE
1070
   382
1005
14
  0
DIMSTYLE
105
94
330
A
100
AcDbSymbolTableRecord
100
AcDbDimStyleTableRecord
  2
AM_JIS$SF
 70
     0
  4
"
 40
0.5
 41
2.5
 42
1.0
 43
10.0
 44
1.0
 47
0.1
 48
0.1
 73
     0
 74
     0
 75
     1
 76
     1
 77
     3
 78
     8
 79
     2
140
3.5
141
0.0
143
0.0393701
146
0.71
147
1.5
172
     1
176
   256
177
   256
178
     2
271
     2
272
     3
274
     4
283
     0
284
     8
340
11
341
84
342
84
343
84
344
84
371
    -1
372
    -1
1001
ACAD_DSTYLE_DIMBREAK
1070
   391
1040
3.75
1001
ACAD_DSTYLE_DIMJAG
1070
   388
1040
1.5
1001
ACAD_DSTYLE_DIMARC_LENGTH_SYMBOL
1070
   379
1070
     1
1001
ACAD_DSTYLE_DIM_LINETYPE
1070
   380
1005
14
1001
ACAD_DSTYLE_DIM_EXT1_LINETYPE
1070
   381
1005
14
1001
ACAD_DSTYLE_DIM_EXT2_LINETYPE
1070
   382
1005
14
  0
DIMSTYLE
105
95
330
A
100
AcDbSymbolTableRecord
100
AcDbDimStyleTableRecord
  2
AM_JIS$SH
 70
     0
  4
"
 40
0.5
 41
2.5
 42
1.0
 43
10.0
 44
1.0
 47
0.1
 48
0.1
 73
     0
 74
     0
 75
     1
 76
     1
 77
     3
 78
     8
 79
     2
140
3.5
141
0.0
143
0.0393701
144
2.0
146
0.71
147
1.5
172
     1
173
     1
176
   256
177
   256
178
     2
271
     2
272
     3
274
     4
283
     0
284
     8
340
11
341
84
342
84
343
8A
344
84
371
    -1
372
    -1
1001
ACAD_DSTYLE_DIMBREAK
1070
   391
1040
3.75
1001
ACAD_DSTYLE_DIMJAG
1070
   388
1040
1.5
1001
ACAD_DSTYLE_DIMARC_LENGTH_SYMBOL
1070
   379
1070
     1
1001
ACAD_DSTYLE_DIM_LINETYPE
1070
   380
1005
14
1001
ACAD_DSTYLE_DIM_EXT1_LINETYPE
1070
   381
1005
14
1001
ACAD_DSTYLE_DIM_EXT2_LINETYPE
1070
   382
1005
14
  0
DIMSTYLE
105
7C7
330
A
100
AcDbSymbolTableRecord
100
AcDbDimStyleTableRecord
  2
AM_JIS$0
 70
     0
  4
"
 40
0.5
 41
2.5
 42
1.0
 43
10.0
 44
1.0
 47
0.1
 48
0.1
 73
     0
 74
     0
 77
     3
 78
     8
 79
     2
140
3.5
141
0.0
143
0.0393701
146
0.71
147
1.5
172
     1
176
   256
177
   256
178
     2
271
     2
272
     3
274
     4
283
     0
284
     8
340
11
341
84
342
84
343
84
344
84
371
    -1
372
    -1
1001
ACAD_DSTYLE_DIMBREAK
1070
   391
1040
3.75
1001
ACAD_DSTYLE_DIMJAG
1070
   388
1040
1.5
1001
ACAD_DSTYLE_DIMARC_LENGTH_SYMBOL
1070
   379
1070
     1
1001
ACAD_DSTYLE_DIM_LINETYPE
1070
   380
1005
14
1001
ACAD_DSTYLE_DIM_EXT1_LINETYPE
1070
   381
1005
14
1001
ACAD_DSTYLE_DIM_EXT2_LINETYPE
1070
   382
1005
14
  0
DIMSTYLE
105
BB8
330
A
100
AcDbSymbolTableRecord
100
AcDbDimStyleTableRecord
  2
AM_ISO
 70
     0
  4
"
 41
2.5
 42
1.0
 43
10.0
 44
1.0
 47
0.1
 48
0.1
 73
     0
 74
     0
 77
     1
 78
     8
 79
     2
140
3.5
141
0.0
143
0.0393701
146
0.71
147
1.5
172
     1
176
   256
177
   256
178
     2
271
     2
272
     3
274
     4
283
     0
284
     8
340
11
371
    -1
372
    -1
1001
ACAD_DSTYLE_DIMARC_LENGTH_SYMBOL
1070
   379
1070
     1
  0
DIMSTYLE
105
BB9
330
A
100
AcDbSymbolTableRecord
100
AcDbDimStyleTableRecord
  2
AM_ISO$3
 70
     0
  4
"
 41
2.5
 42
1.0
 43
10.0
 44
1.0
 47
0.1
 48
0.1
 73
     0
 77
     1
 78
     8
 79
     2
140
3.5
141
0.0
143
0.0393701
146
0.71
147
1.5
176
   256
177
   256
178
     2
271
     2
272
     3
274
     4
283
     0
284
     8
288
     1
289
     0
340
11
371
    -1
372
    -1
1001
ACAD_DSTYLE_DIMARC_LENGTH_SYMBOL
1070
   379
1070
     1
  0
DIMSTYLE
105
BBA
330
A
100
AcDbSymbolTableRecord
100
AcDbDimStyleTableRecord
  2
AM_ISO$4
 70
     0
  4
"
 41
2.5
 42
1.0
 43
10.0
 44
1.0
 47
0.1
 48
0.1
 73
     0
 77
     1
 78
     8
 79
     2
140
3.5
141
0.0
143
0.0393701
146
0.71
147
1.5
176
   256
177
   256
178
     2
271
     2
272
     3
274
     4
283
     0
284
     8
288
     1
289
     0
340
11
371
    -1
372
    -1
1001
ACAD_DSTYLE_DIMARC_LENGTH_SYMBOL
1070
   379
1070
     1
  0
DIMSTYLE
105
BBB
330
A
100
AcDbSymbolTableRecord
100
AcDbDimStyleTableRecord
  2
AM_ISO$6
 70
     0
  4
"
 41
2.5
 42
1.0
 43
10.0
 44
1.0
 47
0.1
 48
0.1
 73
     0
 74
     0
 78
     8
 79
     2
140
3.5
141
0.0
143
0.0393701
146
0.71
147
1.5
172
     1
176
   256
177
   256
178
     2
271
     2
272
     3
274
     4
283
     0
284
     8
340
11
371
    -1
372
    -1
1001
ACAD_DSTYLE_DIMARC_LENGTH_SYMBOL
1070
   379
1070
     1
  0
DIMSTYLE
105
BBC
330
A
100
AcDbSymbolTableRecord
100
AcDbDimStyleTableRecord
  2
AM_ISO$7
 70
     0
  4
"
 41
2.5
 42
1.0
 43
10.0
 44
1.0
 47
0.1
 48
0.1
 73
     0
 74
     0
 77
     1
 78
     8
 79
     2
140
5.0
141
0.0
143
0.0393701
146
0.71
147
1.5
172
     1
176
   256
177
   256
178
     2
271
     2
272
     3
274
     4
283
     0
284
     8
340
11
371
    -1
372
    -1
1001
ACAD_DSTYLE_DIMARC_LENGTH_SYMBOL
1070
   379
1070
     1
  0
DIMSTYLE
105
BBD
330
A
100
AcDbSymbolTableRecord
100
AcDbDimStyleTableRecord
  2
AM_ISO$SF
 70
     0
  4
"
 41
2.5
 42
1.0
 43
10.0
 44
1.0
 47
0.1
 48
0.1
 73
     0
 74
     0
 75
     1
 76
     1
 77
     1
 78
     8
 79
     2
140
3.5
141
0.0
143
0.0393701
146
0.71
147
1.5
172
     1
176
   256
177
   256
178
     2
271
     2
272
     3
274
     4
283
     0
284
     8
340
11
371
    -1
372
    -1
1001
ACAD_DSTYLE_DIMARC_LENGTH_SYMBOL
1070
   379
1070
     1
  0
DIMSTYLE
105
BBE
330
A
100
AcDbSymbolTableRecord
100
AcDbDimStyleTableRecord
  2
AM_ISO$SH
 70
     0
  4
"
 41
2.5
 42
1.0
 43
10.0
 44
1.0
 47
0.1
 48
0.1
 73
     0
 74
     0
 75
     1
 76
     1
 77
     1
 78
     8
 79
     2
140
3.5
141
0.0
143
0.0393701
144
2.0
146
0.71
147
1.5
172
     1
173
     1
176
   256
177
   256
178
     2
271
     2
272
     3
274
     4
283
     0
284
     8
340
11
343
8A
371
    -1
372
    -1
1001
ACAD_DSTYLE_DIMARC_LENGTH_SYMBOL
1070
   379
1070
     1
  0
DIMSTYLE
105
17CA
330
A
100
AcDbSymbolTableRecord
100
AcDbDimStyleTableRecord
  2
ISO-25
 70
     0
 41
2.5
 42
0.625
 43
3.75
 44
1.25
 73
     0
 74
     0
 77
     1
 78
     8
140
2.5
141
2.5
143
0.03937007874016
147
0.625
171
     3
172
     1
271
     2
272
     2
274
     3
283
     0
284
     8
340
11
  0
DIMSTYLE
105
358B
330
A
100
AcDbSymbolTableRecord
100
AcDbDimStyleTableRecord
  2
AM_JIS$2
 70
     0
  4
"
 40
0.5
 41
2.5
 42
1.0
 43
10.0
 44
1.0
 47
0.1
 48
0.1
 73
     0
 74
     0
 77
     3
 78
     8
 79
     2
140
3.5
141
0.0
143
0.0393701
146
0.71
147
1.5
172
     1
176
   256
177
   256
178
     2
271
     2
272
     3
274
     4
283
     0
284
     8
340
11
341
84
342
84
343
84
344
84
371
    -1
372
    -1
1001
ACAD_DSTYLE_DIMBREAK
1070
   391
1040
3.75
1001
ACAD_DSTYLE_DIMJAG
1070
   388
1040
1.5
1001
ACAD_DSTYLE_DIMARC_LENGTH_SYMBOL
1070
   379
1070
     1
1001
ACAD_DSTYLE_DIM_LINETYPE
1070
   380
1005
14
1001
ACAD_DSTYLE_DIM_EXT1_LINETYPE
1070
   381
1005
14
1001
ACAD_DSTYLE_DIM_EXT2_LINETYPE
1070
   382
1005
14
  0
ENDTAB
  0
TABLE
  2
BLOCK_RECORD
  5
1
330
0
100
AcDbSymbolTable
 70
    30
  0
BLOCK_RECORD
  5
1F
102
{ACAD_XDICTIONARY
360
C9
102
}
330
1
100
AcDbSymbolTableRecord
100
AcDbBlockTableRecord
  2
*Model_Space
340
22
  0
BLOCK_RECORD
  5
1B
330
1
100
AcDbSymbolTableRecord
100
AcDbBlockTableRecord
  2
*Paper_Space
340
1E
  0
BLOCK_RECORD
  5
23
330
1
100
AcDbSymbolTableRecord
100
AcDbBlockTableRecord
  2
*Paper_Space0
340
26
  0
BLOCK_RECORD
  5
84
330
1
100
AcDbSymbolTableRecord
100
AcDbBlockTableRecord
  2
_Open30
340
0
102
{BLKREFS
331
5CF4
331
5D02
331
5E06
331
5E07
331
60AA
331
60AB
331
68A4
331
68A5
331
6A1A
331
6A1B
331
6B57
331
6B58
331
6B7B
331
6B7C
331
6B84
331
6B85
331
6C3D
331
6C60
331
6C7D
102
}
  0
BLOCK_RECORD
  5
8A
330
1
100
AcDbSymbolTableRecord
100
AcDbBlockTableRecord
  2
GENAXEH
340
0
  0
BLOCK_RECORD
  5
BBF
102
{ACAD_XDICTIONARY
360
BCD
102
}
330
1
100
AcDbSymbolTableRecord
100
AcDbBlockTableRecord
  2
AA-3-BW
340
0
  0
BLOCK_RECORD
  5
176D
102
{ACAD_XDICTIONARY
360
179B
102
}
330
1
100
AcDbSymbolTableRecord
100
AcDbBlockTableRecord
  2
ASO1
340
0
  0
BLOCK_RECORD
  5
17A8
330
1
100
AcDbSymbolTableRecord
100
AcDbBlockTableRecord
  2
A$C2D292097
340
0
  0
BLOCK_RECORD
  5
17BD
102
{ACAD_XDICTIONARY
360
17BE
102
}
330
1
100
AcDbSymbolTableRecord
100
AcDbBlockTableRecord
  2
A$C676C2959
340
0
1001
ACAD
1000
DesignCenter Data
1002
{
1070
     1
1070
     4
1002
}
  0
BLOCK_RECORD
  5
17C2
102
{ACAD_XDICTIONARY
360
17C3
102
}
330
1
100
AcDbSymbolTableRecord
100
AcDbBlockTableRecord
  2
A$C1FED437B
340
0
1001
ACAD
1000
DesignCenter Data
1002
{
1070
     1
1070
     4
1002
}
  0
BLOCK_RECORD
  5
17CB
102
{ACAD_XDICTIONARY
360
525E
102
}
330
1
100
AcDbSymbolTableRecord
100
AcDbBlockTableRecord
  2
ASO-A
340
0
1001
AcDbDynamicBlockGUID
1000
{05057F60-BEC2-4C2A-8186-B529947D5F17}
  0
BLOCK_RECORD
  5
40CF
330
1
100
AcDbSymbolTableRecord
100
AcDbBlockTableRecord
  2
_None
340
0
  0
BLOCK_RECORD
  5
44AD
102
{ACAD_XDICTIONARY
360
44AF
102
}
330
1
100
AcDbSymbolTableRecord
100
AcDbBlockTableRecord
  2
A$C7E273EC7
340
0
1001
ACAD
1000
DesignCenter Data
1002
{
1070
     1
1070
     4
1002
}
  0
BLOCK_RECORD
  5
4ED4
102
{ACAD_XDICTIONARY
360
4EE8
102
}
330
1
100
AcDbSymbolTableRecord
100
AcDbBlockTableRecord
  2
A$C0FBD0FB6
340
0
1001
ACAD
1000
DesignCenter Data
1002
{
1070
     1
1070
     4
1002
}
  0
BLOCK_RECORD
  5
55DB
330
1
100
AcDbSymbolTableRecord
100
AcDbBlockTableRecord
  2
*D13
340
0
  0
BLOCK_RECORD
  5
57C7
330
1
100
AcDbSymbolTableRecord
100
AcDbBlockTableRecord
  2
*D15
340
0
  0
BLOCK_RECORD
  5
5B0A
330
1
100
AcDbSymbolTableRecord
100
AcDbBlockTableRecord
  2
*D17
340
0
  0
BLOCK_RECORD
  5
5B20
330
1
100
AcDbSymbolTableRecord
100
AcDbBlockTableRecord
  2
*D18
340
0
  0
BLOCK_RECORD
  5
5DEE
330
1
100
AcDbSymbolTableRecord
100
AcDbBlockTableRecord
  2
*D19
340
0
  0
BLOCK_RECORD
  5
5F92
330
1
100
AcDbSymbolTableRecord
100
AcDbBlockTableRecord
  2
*S20
340
0
  0
BLOCK_RECORD
  5
5F9D
330
1
100
AcDbSymbolTableRecord
100
AcDbBlockTableRecord
  2
*S21
340
0
  0
BLOCK_RECORD
  5
661B
102
{ACAD_XDICTIONARY
360
6639
102
}
330
1
100
AcDbSymbolTableRecord
100
AcDbBlockTableRecord
  2
A$C20C144CA
340
0
1001
ACAD
1000
DesignCenter Data
1002
{
1070
     1
1070
     4
1002
}
  0
BLOCK_RECORD
  5
6871
330
1
100
AcDbSymbolTableRecord
100
AcDbBlockTableRecord
  2
*D23
340
0
  0
BLOCK_RECORD
  5
6A0B
330
1
100
AcDbSymbolTableRecord
100
AcDbBlockTableRecord
  2
*D24
340
0
  0
BLOCK_RECORD
  5
6C54
330
1
100
AcDbSymbolTableRecord
100
AcDbBlockTableRecord
  2
*D26
340
0
  0
BLOCK_RECORD
  5
6C6A
330
1
100
AcDbSymbolTableRecord
100
AcDbBlockTableRecord
  2
*D27
340
0
  0
ENDTAB
  0
ENDSEC
  0
SECTION
  2
BLOCKS
  0
BLOCK
  5
20
330
1F
100
AcDbEntity
  8
0
100
AcDbBlockBegin
  2
*Model_Space
 70
     0
 10
0.0
 20
0.0
 30
0.0
  3
*Model_Space
  1

  0
ENDBLK
  5
21
330
1F
100
AcDbEntity
  8
0
100
AcDbBlockEnd
  0
BLOCK
  5
1C
330
1B
100
AcDbEntity
 67
     1
  8
0
100
AcDbBlockBegin
  2
*Paper_Space
 70
     0
 10
0.0
 20
0.0
 30
0.0
  3
*Paper_Space
  1

  0
ENDBLK
  5
1D
330
1B
100
AcDbEntity
 67
     1
  8
0
100
AcDbBlockEnd
  0
BLOCK
  5
24
330
23
100
AcDbEntity
 67
     1
  8
0
100
AcDbBlockBegin
  2
*Paper_Space0
 70
     0
 10
0.0
 20
0.0
 30
0.0
  3
*Paper_Space0
  1

  0
ENDBLK
  5
25
330
23
100
AcDbEntity
 67
     1
  8
0
100
AcDbBlockEnd
  0
BLOCK
  5
88
330
84
100
AcDbEntity
  8
0
100
AcDbBlockBegin
  2
_Open30
 70
     0
 10
0.0
 20
0.0
 30
0.0
  3
_Open30
  1

  0
LINE
  5
85
330
84
100
AcDbEntity
  8
0
 62
     0
370
    -2
100
AcDbLine
 10
-1.0
 20
0.26794919
 30
0.0
 11
0.0
 21
0.0
 31
0.0
  0
LINE
  5
86
330
84
100
AcDbEntity
  8
0
 62
     0
370
    -2
100
AcDbLine
 10
0.0
 20
0.0
 30
0.0
 11
-1.0
 21
-0.26794919
 31
0.0
  0
LINE
  5
87
330
84
100
AcDbEntity
  8
0
 62
     0
370
    -2
100
AcDbLine
 10
0.0
 20
0.0
 30
0.0
 11
-1.0
 21
0.0
 31
0.0
  0
ENDBLK
  5
89
330
84
100
AcDbEntity
  8
0
100
AcDbBlockEnd
  0
BLOCK
  5
8C
330
8A
100
AcDbEntity
  8
0
100
AcDbBlockBegin
  2
GENAXEH
 70
     0
 10
0.0
 20
0.0
 30
0.0
  3
GENAXEH
  1

  0
LINE
  5
8B
330
8A
100
AcDbEntity
  8
0
100
AcDbLine
 10
-1.0
 20
0.0
 30
0.0
 11
1.0
 21
0.0
 31
0.0
  0
ENDBLK
  5
8D
330
8A
100
AcDbEntity
  8
0
100
AcDbBlockEnd
  0
BLOCK
  5
BCE
330
BBF
100
AcDbEntity
  8
0
100
AcDbBlockBegin
  2
AA-3-BW
 70
     0
 10
0.0
 20
0.0
 30
0.0
  3
AA-3-BW
  1

  0
LWPOLYLINE
  5
BC0
330
BBF
100
AcDbEntity
  8
AM_BOR
 62
   231
100
AcDbPolyline
 90
        4
 70
     1
 43
0.0
 10
11.31798825946299
 20
285.680442839147
 10
11.31798825946292
 20
11.31955716085312
 10
408.7322739737486
 20
11.31955716085296
 10
408.7322739737486
 20
285.680442839147
1001
GENIUS_GENREC_14
1002
{
1000
PYDIR
1011
408.7322739737486
1021
285.680442839147
1031
0.0
1002
}
1002
{
1000
PXDIR
1011
11.31798825946292
1021
11.31955716085312
1031
0.0
1002
}
1002
{
1000
PORI
1011
11.31798825946299
1021
285.680442839147
1031
0.0
1002
}
1002
{
1000
PINS
1011
11.31798825946299
1021
285.680442839147
1031
0.0
1002
}
1002
{
1000
HVAL
1000
281
1002
}
1002
{
1000
H
1070
     2
1002
}
1002
{
1000
WVAL
1000
183
1002
}
1002
{
1000
W
1070
     2
1002
}
1002
{
1000
C
1070
     1
1002
}
1001
GENIUS_GENODEF_13
1002
{
1000
HIER
1070
     0
1002
}
1002
{
1000
MANEDIT
1070
     0
1002
}
1002
{
1000
NOSEL
1070
     0
1002
}
1002
{
1000
BEHIND
1070
     0
1002
}
1002
{
1000
REACTOR
1002
}
1001
GENIUS_GENOBJ-N-REC_13
1002
{
1000
OWNER
1000
GEN
1002
}
  0
TEXT
  5
BC1
330
BBF
100
AcDbEntity
  8
AM_BOR
 60
     1
100
AcDbText
 10
420.0428571428571
 20
296.9999999999998
 30
0.0
 40
5.0
  1
!GENTITLE-MAX
100
AcDbText
  0
LINE
  5
BC2
330
BBF
100
AcDbEntity
  8
AM_BOR
100
AcDbLine
 10
0.0000000000000799
 20
297.0
 30
0.0
 11
0.0000000000000799
 21
275.7857142857142
 31
0.0
1001
GENIUS_GENREC_14
1002
{
1000
PYDIR
1011
420.0428571428571
1021
296.9999999999998
1031
0.0
1002
}
1002
{
1000
PXDIR
1011
0.0
1021
0.0
1031
0.0
1002
}
1002
{
1000
PORI
1011
0.0000000000000799
1021
297.0
1031
0.0
1002
}
1002
{
1000
PINS
1011
0.0000000000000799
1021
297.0
1031
0.0
1002
}
1002
{
1000
HVAL
1000
297
1002
}
1002
{
1000
H
1070
     2
1002
}
1002
{
1000
WVAL
1000
210
1002
}
1002
{
1000
W
1070
     2
1002
}
1002
{
1000
C
1070
     1
1002
}
1001
GENIUS_GENODEF_13
1002
{
1000
HIER
1070
     0
1002
}
1002
{
1000
MANEDIT
1070
     0
1002
}
1002
{
1000
NOSEL
1070
     0
1002
}
1002
{
1000
BEHIND
1070
     0
1002
}
1002
{
1000
REACTOR
1002
}
1001
GENIUS_GENOBJ-N-REC_13
1002
{
1000
OWNER
1000
GEN
1002
}
  0
LINE
  5
BC3
330
BBF
100
AcDbEntity
  8
AM_BOR
100
AcDbLine
 10
0.0
 20
0.0
 30
0.0
 11
21.21428571428571
 21
0.0
 31
0.0
1001
GENIUS_GENREC_14
1002
{
1000
PYDIR
1011
420.0428571428571
1021
296.9999999999998
1031
0.0
1002
}
1002
{
1000
PXDIR
1011
0.0
1021
0.0
1031
0.0
1002
}
1002
{
1000
PORI
1011
0.0000000000000799
1021
297.0
1031
0.0
1002
}
1002
{
1000
PINS
1011
0.0000000000000799
1021
297.0
1031
0.0
1002
}
1002
{
1000
HVAL
1000
297
1002
}
1002
{
1000
H
1070
     2
1002
}
1002
{
1000
WVAL
1000
210
1002
}
1002
{
1000
W
1070
     2
1002
}
1002
{
1000
C
1070
     1
1002
}
1001
GENIUS_GENODEF_13
1002
{
1000
HIER
1070
     0
1002
}
1002
{
1000
MANEDIT
1070
     0
1002
}
1002
{
1000
NOSEL
1070
     0
1002
}
1002
{
1000
BEHIND
1070
     0
1002
}
1002
{
1000
REACTOR
1002
}
1001
GENIUS_GENOBJ-N-REC_13
1002
{
1000
OWNER
1000
GEN
1002
}
  0
LINE
  5
BC4
330
BBF
100
AcDbEntity
  8
AM_BOR
100
AcDbLine
 10
420.0428571428571
 20
-0.0000000000000799
 30
0.0
 11
420.0428571428571
 21
21.21428571428563
 31
0.0
1001
GENIUS_GENREC_14
1002
{
1000
PYDIR
1011
420.0428571428571
1021
296.9999999999998
1031
0.0
1002
}
1002
{
1000
PXDIR
1011
0.0
1021
0.0
1031
0.0
1002
}
1002
{
1000
PORI
1011
0.0000000000000799
1021
297.0
1031
0.0
1002
}
1002
{
1000
PINS
1011
0.0000000000000799
1021
297.0
1031
0.0
1002
}
1002
{
1000
HVAL
1000
297
1002
}
1002
{
1000
H
1070
     2
1002
}
1002
{
1000
WVAL
1000
210
1002
}
1002
{
1000
W
1070
     2
1002
}
1002
{
1000
C
1070
     1
1002
}
1001
GENIUS_GENODEF_13
1002
{
1000
HIER
1070
     0
1002
}
1002
{
1000
MANEDIT
1070
     0
1002
}
1002
{
1000
NOSEL
1070
     0
1002
}
1002
{
1000
BEHIND
1070
     0
1002
}
1002
{
1000
REACTOR
1002
}
1001
GENIUS_GENOBJ-N-REC_13
1002
{
1000
OWNER
1000
GEN
1002
}
  0
LINE
  5
BC5
330
BBF
100
AcDbEntity
  8
AM_BOR
100
AcDbLine
 10
420.0428571428571
 20
296.9999999999998
 30
0.0
 11
398.8285714285715
 21
296.9999999999998
 31
0.0
1001
GENIUS_GENREC_14
1002
{
1000
PYDIR
1011
420.0428571428571
1021
296.9999999999998
1031
0.0
1002
}
1002
{
1000
PXDIR
1011
0.0
1021
0.0
1031
0.0
1002
}
1002
{
1000
PORI
1011
0.0000000000000799
1021
297.0
1031
0.0
1002
}
1002
{
1000
PINS
1011
0.0000000000000799
1021
297.0
1031
0.0
1002
}
1002
{
1000
HVAL
1000
297
1002
}
1002
{
1000
H
1070
     2
1002
}
1002
{
1000
WVAL
1000
210
1002
}
1002
{
1000
W
1070
     2
1002
}
1002
{
1000
C
1070
     1
1002
}
1001
GENIUS_GENODEF_13
1002
{
1000
HIER
1070
     0
1002
}
1002
{
1000
MANEDIT
1070
     0
1002
}
1002
{
1000
NOSEL
1070
     0
1002
}
1002
{
1000
BEHIND
1070
     0
1002
}
1002
{
1000
REACTOR
1002
}
1001
GENIUS_GENOBJ-N-REC_13
1002
{
1000
OWNER
1000
GEN
1002
}
  0
LINE
  5
BC6
330
BBF
100
AcDbEntity
  8
AM_BOR
100
AcDbLine
 10
21.2142857142858
 20
297.0
 30
0.0
 11
0.0000000000000799
 21
297.0
 31
0.0
1001
GENIUS_GENREC_14
1002
{
1000
PYDIR
1011
420.0428571428571
1021
296.9999999999998
1031
0.0
1002
}
1002
{
1000
PXDIR
1011
0.0
1021
0.0
1031
0.0
1002
}
1002
{
1000
PORI
1011
0.0000000000000799
1021
297.0
1031
0.0
1002
}
1002
{
1000
PINS
1011
0.0000000000000799
1021
297.0
1031
0.0
1002
}
1002
{
1000
HVAL
1000
297
1002
}
1002
{
1000
H
1070
     2
1002
}
1002
{
1000
WVAL
1000
210
1002
}
1002
{
1000
W
1070
     2
1002
}
1002
{
1000
C
1070
     1
1002
}
1001
GENIUS_GENODEF_13
1002
{
1000
HIER
1070
     0
1002
}
1002
{
1000
MANEDIT
1070
     0
1002
}
1002
{
1000
NOSEL
1070
     0
1002
}
1002
{
1000
BEHIND
1070
     0
1002
}
1002
{
1000
REACTOR
1002
}
1001
GENIUS_GENOBJ-N-REC_13
1002
{
1000
OWNER
1000
GEN
1002
}
  0
LINE
  5
BC7
330
BBF
100
AcDbEntity
  8
AM_BOR
100
AcDbLine
 10
420.0428571428571
 20
275.7857142857141
 30
0.0
 11
420.0428571428571
 21
296.9999999999998
 31
0.0
1001
GENIUS_GENREC_14
1002
{
1000
PYDIR
1011
420.0428571428571
1021
296.9999999999998
1031
0.0
1002
}
1002
{
1000
PXDIR
1011
0.0
1021
0.0
1031
0.0
1002
}
1002
{
1000
PORI
1011
0.0000000000000799
1021
297.0
1031
0.0
1002
}
1002
{
1000
PINS
1011
0.0000000000000799
1021
297.0
1031
0.0
1002
}
1002
{
1000
HVAL
1000
297
1002
}
1002
{
1000
H
1070
     2
1002
}
1002
{
1000
WVAL
1000
210
1002
}
1002
{
1000
W
1070
     2
1002
}
1002
{
1000
C
1070
     1
1002
}
1001
GENIUS_GENODEF_13
1002
{
1000
HIER
1070
     0
1002
}
1002
{
1000
MANEDIT
1070
     0
1002
}
1002
{
1000
NOSEL
1070
     0
1002
}
1002
{
1000
BEHIND
1070
     0
1002
}
1002
{
1000
REACTOR
1002
}
1001
GENIUS_GENOBJ-N-REC_13
1002
{
1000
OWNER
1000
GEN
1002
}
  0
LINE
  5
BC8
330
BBF
100
AcDbEntity
  8
AM_BOR
100
AcDbLine
 10
398.8285714285715
 20
-0.0000000000000799
 30
0.0
 11
420.0428571428571
 21
-0.0000000000000799
 31
0.0
1001
GENIUS_GENREC_14
1002
{
1000
PYDIR
1011
420.0428571428571
1021
296.9999999999998
1031
0.0
1002
}
1002
{
1000
PXDIR
1011
0.0
1021
0.0
1031
0.0
1002
}
1002
{
1000
PORI
1011
0.0000000000000799
1021
297.0
1031
0.0
1002
}
1002
{
1000
PINS
1011
0.0000000000000799
1021
297.0
1031
0.0
1002
}
1002
{
1000
HVAL
1000
297
1002
}
1002
{
1000
H
1070
     2
1002
}
1002
{
1000
WVAL
1000
210
1002
}
1002
{
1000
W
1070
     2
1002
}
1002
{
1000
C
1070
     1
1002
}
1001
GENIUS_GENODEF_13
1002
{
1000
HIER
1070
     0
1002
}
1002
{
1000
MANEDIT
1070
     0
1002
}
1002
{
1000
NOSEL
1070
     0
1002
}
1002
{
1000
BEHIND
1070
     0
1002
}
1002
{
1000
REACTOR
1002
}
1001
GENIUS_GENOBJ-N-REC_13
1002
{
1000
OWNER
1000
GEN
1002
}
  0
LINE
  5
BC9
330
BBF
100
AcDbEntity
  8
AM_BOR
100
AcDbLine
 10
0.0
 20
21.21428571428571
 30
0.0
 11
0.0
 21
0.0
 31
0.0
1001
GENIUS_GENREC_14
1002
{
1000
PYDIR
1011
420.0428571428571
1021
296.9999999999998
1031
0.0
1002
}
1002
{
1000
PXDIR
1011
0.0
1021
0.0
1031
0.0
1002
}
1002
{
1000
PORI
1011
0.0000000000000799
1021
297.0
1031
0.0
1002
}
1002
{
1000
PINS
1011
0.0000000000000799
1021
297.0
1031
0.0
1002
}
1002
{
1000
HVAL
1000
297
1002
}
1002
{
1000
H
1070
     2
1002
}
1002
{
1000
WVAL
1000
210
1002
}
1002
{
1000
W
1070
     2
1002
}
1002
{
1000
C
1070
     1
1002
}
1001
GENIUS_GENODEF_13
1002
{
1000
HIER
1070
     0
1002
}
1002
{
1000
MANEDIT
1070
     0
1002
}
1002
{
1000
NOSEL
1070
     0
1002
}
1002
{
1000
BEHIND
1070
     0
1002
}
1002
{
1000
REACTOR
1002
}
1001
GENIUS_GENOBJ-N-REC_13
1002
{
1000
OWNER
1000
GEN
1002
}
  0
TEXT
  5
BCA
330
BBF
100
AcDbEntity
  8
AM_0
 60
     1
100
AcDbText
 10
408.7322739737486
 20
285.680442839147
 30
0.0
 40
5.0
  1
!GENTITLE-RU
100
AcDbText
  0
TEXT
  5
BCB
330
BBF
100
AcDbEntity
  8
AM_0
 60
     1
100
AcDbText
 10
16.00523592247285
 20
16.0074545709034
 30
0.0
 40
5.0
  1
!GENTITLE-LL
100
AcDbText
  0
TEXT
  5
BCC
330
BBF
100
AcDbEntity
  8
AM_0
 60
     1
100
AcDbText
 10
408.7322739737486
 20
11.31955716085296
 30
0.0
 40
5.0
  1
!GENTITLE-INSERT
100
AcDbText
  0
ENDBLK
  5
BCF
330
BBF
100
AcDbEntity
  8
0
100
AcDbBlockEnd
  0
BLOCK
  5
179C
330
176D
100
AcDbEntity
  8
0
100
AcDbBlockBegin
  2
ASO1
 70
     2
 10
0.0
 20
0.0
 30
0.0
  3
ASO1
  1

  0
LINE
  5
176E
330
176D
100
AcDbEntity
  8
AM_BOR
 62
   211
100
AcDbLine
 10
-110.0
 20
0.0
 30
0.0
 11
0.0
 21
0.0
 31
0.0
1001
GENIUS_GENREC_14
1002
{
1000
PYDIR
1011
-110.0
1021
40.0
1031
0.0
1002
}
1002
{
1000
PXDIR
1011
0.0
1021
0.0
1031
0.0
1002
}
1002
{
1000
PORI
1011
-110.0
1021
0.0
1031
0.0
1002
}
1002
{
1000
PINS
1011
-110.0
1021
0.0
1031
0.0
1002
}
1002
{
1000
HVAL
1000
40
1002
}
1002
{
1000
H
1070
     2
1002
}
1002
{
1000
WVAL
1000
110
1002
}
1002
{
1000
W
1070
     2
1002
}
1002
{
1000
C
1070
     1
1002
}
1001
GENIUS_GENODEF_13
1002
{
1000
HIER
1070
     0
1002
}
1002
{
1000
MANEDIT
1070
     0
1002
}
1002
{
1000
NOSEL
1070
     0
1002
}
1002
{
1000
BEHIND
1070
     0
1002
}
1002
{
1000
REACTOR
1002
}
1001
GENIUS_GENOBJ-N-REC_13
1002
{
1000
OWNER
1000
GEN
1002
}
  0
LINE
  5
176F
330
176D
100
AcDbEntity
  8
AM_BOR
 62
   211
100
AcDbLine
 10
0.0
 20
0.0
 30
0.0
 11
0.0
 21
40.0
 31
0.0
1001
GENIUS_GENREC_14
1002
{
1000
PYDIR
1011
-110.0
1021
40.0
1031
0.0
1002
}
1002
{
1000
PXDIR
1011
0.0
1021
0.0
1031
0.0
1002
}
1002
{
1000
PORI
1011
-110.0
1021
0.0
1031
0.0
1002
}
1002
{
1000
PINS
1011
-110.0
1021
0.0
1031
0.0
1002
}
1002
{
1000
HVAL
1000
40
1002
}
1002
{
1000
H
1070
     2
1002
}
1002
{
1000
WVAL
1000
110
1002
}
1002
{
1000
W
1070
     2
1002
}
1002
{
1000
C
1070
     1
1002
}
1001
GENIUS_GENODEF_13
1002
{
1000
HIER
1070
     0
1002
}
1002
{
1000
MANEDIT
1070
     0
1002
}
1002
{
1000
NOSEL
1070
     0
1002
}
1002
{
1000
BEHIND
1070
     0
1002
}
1002
{
1000
REACTOR
1002
}
1001
GENIUS_GENOBJ-N-REC_13
1002
{
1000
OWNER
1000
GEN
1002
}
  0
LINE
  5
1770
330
176D
100
AcDbEntity
  8
AM_BOR
 62
   211
100
AcDbLine
 10
0.0
 20
40.0
 30
0.0
 11
-110.0
 21
40.00000000000001
 31
0.0
1001
GENIUS_GENREC_14
1002
{
1000
PYDIR
1011
-110.0
1021
40.0
1031
0.0
1002
}
1002
{
1000
PXDIR
1011
0.0
1021
0.0
1031
0.0
1002
}
1002
{
1000
PORI
1011
-110.0
1021
0.0
1031
0.0
1002
}
1002
{
1000
PINS
1011
-110.0
1021
0.0
1031
0.0
1002
}
1002
{
1000
HVAL
1000
40
1002
}
1002
{
1000
H
1070
     2
1002
}
1002
{
1000
WVAL
1000
110
1002
}
1002
{
1000
W
1070
     2
1002
}
1002
{
1000
C
1070
     1
1002
}
1001
GENIUS_GENODEF_13
1002
{
1000
HIER
1070
     0
1002
}
1002
{
1000
MANEDIT
1070
     0
1002
}
1002
{
1000
NOSEL
1070
     0
1002
}
1002
{
1000
BEHIND
1070
     0
1002
}
1002
{
1000
REACTOR
1002
}
1001
GENIUS_GENOBJ-N-REC_13
1002
{
1000
OWNER
1000
GEN
1002
}
  0
LINE
  5
1771
330
176D
100
AcDbEntity
  8
AM_BOR
 62
   211
100
AcDbLine
 10
-110.0
 20
40.00000000000001
 30
0.0
 11
-110.0
 21
0.0
 31
0.0
1001
GENIUS_GENREC_14
1002
{
1000
PYDIR
1011
-110.0
1021
40.0
1031
0.0
1002
}
1002
{
1000
PXDIR
1011
0.0
1021
0.0
1031
0.0
1002
}
1002
{
1000
PORI
1011
-110.0
1021
0.0
1031
0.0
1002
}
1002
{
1000
PINS
1011
-110.0
1021
0.0
1031
0.0
1002
}
1002
{
1000
HVAL
1000
40
1002
}
1002
{
1000
H
1070
     2
1002
}
1002
{
1000
WVAL
1000
110
1002
}
1002
{
1000
W
1070
     2
1002
}
1002
{
1000
C
1070
     1
1002
}
1001
GENIUS_GENODEF_13
1002
{
1000
HIER
1070
     0
1002
}
1002
{
1000
MANEDIT
1070
     0
1002
}
1002
{
1000
NOSEL
1070
     0
1002
}
1002
{
1000
BEHIND
1070
     0
1002
}
1002
{
1000
REACTOR
1002
}
1001
GENIUS_GENOBJ-N-REC_13
1002
{
1000
OWNER
1000
GEN
1002
}
  0
LINE
  5
1772
330
176D
100
AcDbEntity
  8
AM_BOR
 62
     5
100
AcDbLine
 10
-60.0
 20
9.999999999999992
 30
0.0
 11
0.0
 21
10.0
 31
0.0
1001
GENIUS_GENREC_14
1002
{
1000
PYDIR
1011
-110.0
1021
40.0
1031
0.0
1002
}
1002
{
1000
PXDIR
1011
0.0
1021
0.0
1031
0.0
1002
}
1002
{
1000
PORI
1011
-110.0
1021
0.0
1031
0.0
1002
}
1002
{
1000
PINS
1011
-110.0
1021
0.0
1031
0.0
1002
}
1002
{
1000
HVAL
1000
40
1002
}
1002
{
1000
H
1070
     2
1002
}
1002
{
1000
WVAL
1000
110
1002
}
1002
{
1000
W
1070
     2
1002
}
1002
{
1000
C
1070
     1
1002
}
  0
LINE
  5
1773
330
176D
100
AcDbEntity
  8
AM_BOR
 62
     5
100
AcDbLine
 10
-110.0
 20
19.0
 30
0.0
 11
0.0
 21
19.0
 31
0.0
1001
GENIUS_GENREC_14
1002
{
1000
PYDIR
1011
-110.0
1021
40.0
1031
0.0
1002
}
1002
{
1000
PXDIR
1011
0.0
1021
0.0
1031
0.0
1002
}
1002
{
1000
PORI
1011
-110.0
1021
0.0
1031
0.0
1002
}
1002
{
1000
PINS
1011
-110.0
1021
0.0
1031
0.0
1002
}
1002
{
1000
HVAL
1000
40
1002
}
1002
{
1000
H
1070
     2
1002
}
1002
{
1000
WVAL
1000
110
1002
}
1002
{
1000
W
1070
     2
1002
}
1002
{
1000
C
1070
     1
1002
}
1001
GENIUS_GENODEF_13
1002
{
1000
HIER
1070
     0
1002
}
1002
{
1000
MANEDIT
1070
     0
1002
}
1002
{
1000
NOSEL
1070
     0
1002
}
1002
{
1000
BEHIND
1070
     0
1002
}
1002
{
1000
REACTOR
1002
}
1001
GENIUS_GENOBJ-N-REC_13
1002
{
1000
OWNER
1000
GEN
1002
}
  0
LINE
  5
1774
330
176D
100
AcDbEntity
  8
AM_BOR
 62
     5
100
AcDbLine
 10
-110.0
 20
26.0
 30
0.0
 11
0.0
 21
26.0
 31
0.0
1001
GENIUS_GENREC_14
1002
{
1000
PYDIR
1011
-110.0
1021
40.0
1031
0.0
1002
}
1002
{
1000
PXDIR
1011
0.0
1021
0.0
1031
0.0
1002
}
1002
{
1000
PORI
1011
-110.0
1021
0.0
1031
0.0
1002
}
1002
{
1000
PINS
1011
-110.0
1021
0.0
1031
0.0
1002
}
1002
{
1000
HVAL
1000
40
1002
}
1002
{
1000
H
1070
     2
1002
}
1002
{
1000
WVAL
1000
110
1002
}
1002
{
1000
W
1070
     2
1002
}
1002
{
1000
C
1070
     1
1002
}
1001
GENIUS_GENODEF_13
1002
{
1000
HIER
1070
     0
1002
}
1002
{
1000
MANEDIT
1070
     0
1002
}
1002
{
1000
NOSEL
1070
     0
1002
}
1002
{
1000
BEHIND
1070
     0
1002
}
1002
{
1000
REACTOR
1002
}
1001
GENIUS_GENOBJ-N-REC_13
1002
{
1000
OWNER
1000
GEN
1002
}
  0
LINE
  5
1775
330
176D
100
AcDbEntity
  8
AM_BOR
 62
     5
100
AcDbLine
 10
-110.0
 20
33.0
 30
0.0
 11
0.0
 21
33.0
 31
0.0
1001
GENIUS_GENREC_14
1002
{
1000
PYDIR
1011
-110.0
1021
40.0
1031
0.0
1002
}
1002
{
1000
PXDIR
1011
0.0
1021
0.0
1031
0.0
1002
}
1002
{
1000
PORI
1011
-110.0
1021
0.0
1031
0.0
1002
}
1002
{
1000
PINS
1011
-110.0
1021
0.0
1031
0.0
1002
}
1002
{
1000
HVAL
1000
40
1002
}
1002
{
1000
H
1070
     2
1002
}
1002
{
1000
WVAL
1000
110
1002
}
1002
{
1000
W
1070
     2
1002
}
1002
{
1000
C
1070
     1
1002
}
1001
GENIUS_GENODEF_13
1002
{
1000
HIER
1070
     0
1002
}
1002
{
1000
MANEDIT
1070
     0
1002
}
1002
{
1000
NOSEL
1070
     0
1002
}
1002
{
1000
BEHIND
1070
     0
1002
}
1002
{
1000
REACTOR
1002
}
1001
GENIUS_GENOBJ-N-REC_13
1002
{
1000
OWNER
1000
GEN
1002
}
  0
LINE
  5
1776
330
176D
100
AcDbEntity
  8
AM_BOR
 62
     5
100
AcDbLine
 10
-85.0
 20
33.0
 30
0.0
 11
-85.0
 21
18.99999999999998
 31
0.0
1001
GENIUS_GENREC_14
1002
{
1000
PYDIR
1011
-110.0
1021
40.0
1031
0.0
1002
}
1002
{
1000
PXDIR
1011
0.0
1021
0.0
1031
0.0
1002
}
1002
{
1000
PORI
1011
-110.0
1021
0.0
1031
0.0
1002
}
1002
{
1000
PINS
1011
-110.0
1021
0.0
1031
0.0
1002
}
1002
{
1000
HVAL
1000
40
1002
}
1002
{
1000
H
1070
     2
1002
}
1002
{
1000
WVAL
1000
110
1002
}
1002
{
1000
W
1070
     2
1002
}
1002
{
1000
C
1070
     1
1002
}
1001
GENIUS_GENODEF_13
1002
{
1000
HIER
1070
     0
1002
}
1002
{
1000
MANEDIT
1070
     0
1002
}
1002
{
1000
NOSEL
1070
     0
1002
}
1002
{
1000
BEHIND
1070
     0
1002
}
1002
{
1000
REACTOR
1002
}
1001
GENIUS_GENOBJ-N-REC_13
1002
{
1000
OWNER
1000
GEN
1002
}
  0
LINE
  5
1777
330
176D
100
AcDbEntity
  8
AM_BOR
 62
     5
100
AcDbLine
 10
-60.0
 20
40.00000000000001
 30
0.0
 11
-60.0
 21
0.0
 31
0.0
1001
GENIUS_GENREC_14
1002
{
1000
PYDIR
1011
-110.0
1021
40.0
1031
0.0
1002
}
1002
{
1000
PXDIR
1011
0.0
1021
0.0
1031
0.0
1002
}
1002
{
1000
PORI
1011
-110.0
1021
0.0
1031
0.0
1002
}
1002
{
1000
PINS
1011
-110.0
1021
0.0
1031
0.0
1002
}
1002
{
1000
HVAL
1000
40
1002
}
1002
{
1000
H
1070
     2
1002
}
1002
{
1000
WVAL
1000
110
1002
}
1002
{
1000
W
1070
     2
1002
}
1002
{
1000
C
1070
     1
1002
}
1001
GENIUS_GENODEF_13
1002
{
1000
HIER
1070
     0
1002
}
1002
{
1000
MANEDIT
1070
     0
1002
}
1002
{
1000
NOSEL
1070
     0
1002
}
1002
{
1000
BEHIND
1070
     0
1002
}
1002
{
1000
REACTOR
1002
}
1001
GENIUS_GENOBJ-N-REC_13
1002
{
1000
OWNER
1000
GEN
1002
}
  0
LINE
  5
1778
330
176D
100
AcDbEntity
  8
AM_BOR
 62
     5
100
AcDbLine
 10
-20.0
 20
33.0
 30
0.0
 11
-20.0
 21
40.0
 31
0.0
1001
GENIUS_GENREC_14
1002
{
1000
PYDIR
1011
-110.0
1021
40.0
1031
0.0
1002
}
1002
{
1000
PXDIR
1011
0.0
1021
0.0
1031
0.0
1002
}
1002
{
1000
PORI
1011
-110.0
1021
0.0
1031
0.0
1002
}
1002
{
1000
PINS
1011
-110.0
1021
0.0
1031
0.0
1002
}
1002
{
1000
HVAL
1000
40
1002
}
1002
{
1000
H
1070
     2
1002
}
1002
{
1000
WVAL
1000
110
1002
}
1002
{
1000
W
1070
     2
1002
}
1002
{
1000
C
1070
     1
1002
}
1001
GENIUS_GENODEF_13
1002
{
1000
HIER
1070
     0
1002
}
1002
{
1000
MANEDIT
1070
     0
1002
}
1002
{
1000
NOSEL
1070
     0
1002
}
1002
{
1000
BEHIND
1070
     0
1002
}
1002
{
1000
REACTOR
1002
}
1001
GENIUS_GENOBJ-N-REC_13
1002
{
1000
OWNER
1000
GEN
1002
}
  0
LINE
  5
1779
330
176D
100
AcDbEntity
  8
AM_BOR
 62
     5
100
AcDbLine
 10
-40.0
 20
33.0
 30
0.0
 11
-40.0
 21
40.0
 31
0.0
1001
GENIUS_GENREC_14
1002
{
1000
PYDIR
1011
-110.0
1021
40.0
1031
0.0
1002
}
1002
{
1000
PXDIR
1011
0.0
1021
0.0
1031
0.0
1002
}
1002
{
1000
PORI
1011
-110.0
1021
0.0
1031
0.0
1002
}
1002
{
1000
PINS
1011
-110.0
1021
0.0
1031
0.0
1002
}
1002
{
1000
HVAL
1000
40
1002
}
1002
{
1000
H
1070
     2
1002
}
1002
{
1000
WVAL
1000
110
1002
}
1002
{
1000
W
1070
     2
1002
}
1002
{
1000
C
1070
     1
1002
}
1001
GENIUS_GENODEF_13
1002
{
1000
HIER
1070
     0
1002
}
1002
{
1000
MANEDIT
1070
     0
1002
}
1002
{
1000
NOSEL
1070
     0
1002
}
1002
{
1000
BEHIND
1070
     0
1002
}
1002
{
1000
REACTOR
1002
}
1001
GENIUS_GENOBJ-N-REC_13
1002
{
1000
OWNER
1000
GEN
1002
}
  0
LINE
  5
177A
330
176D
100
AcDbEntity
  8
AM_BOR
 62
     5
100
AcDbLine
 10
-80.0
 20
33.0
 30
0.0
 11
-80.0
 21
40.0
 31
0.0
1001
GENIUS_GENREC_14
1002
{
1000
PYDIR
1011
-110.0
1021
40.0
1031
0.0
1002
}
1002
{
1000
PXDIR
1011
0.0
1021
0.0
1031
0.0
1002
}
1002
{
1000
PORI
1011
-110.0
1021
0.0
1031
0.0
1002
}
1002
{
1000
PINS
1011
-110.0
1021
0.0
1031
0.0
1002
}
1002
{
1000
HVAL
1000
40
1002
}
1002
{
1000
H
1070
     2
1002
}
1002
{
1000
WVAL
1000
110
1002
}
1002
{
1000
W
1070
     2
1002
}
1002
{
1000
C
1070
     1
1002
}
1001
GENIUS_GENODEF_13
1002
{
1000
HIER
1070
     0
1002
}
1002
{
1000
MANEDIT
1070
     0
1002
}
1002
{
1000
NOSEL
1070
     0
1002
}
1002
{
1000
BEHIND
1070
     0
1002
}
1002
{
1000
REACTOR
1002
}
1001
GENIUS_GENOBJ-N-REC_13
1002
{
1000
OWNER
1000
GEN
1002
}
  0
TEXT
  5
177B
330
176D
100
AcDbEntity
  8
AM_BOR
 62
     2
100
AcDbText
 10
-57.4
 20
35.0
 30
0.0
 40
3.0
  1
単位 ｍｍ
 72
     4
 11
-50.0
 21
36.5
 31
0.0
100
AcDbText
  0
TEXT
  5
177C
330
176D
100
AcDbEntity
  8
AM_BOR
 62
     2
100
AcDbText
 10
-39.0
 20
35.0
 30
0.0
 40
3.0
  1
尺度
 41
0.9
 11
-39.0
 21
36.5
 31
0.0
100
AcDbText
 73
     2
  0
TEXT
  5
177D
330
176D
100
AcDbEntity
  8
AM_BOR
 62
     2
100
AcDbText
 10
-19.0
 20
35.0
 30
0.0
 40
3.0
  1
日付
 41
0.9
 11
-19.0
 21
36.5
 31
0.0
100
AcDbText
 73
     2
  0
TEXT
  5
177E
330
176D
100
AcDbEntity
  8
AM_BOR
 62
     2
100
AcDbText
 10
-75.75
 20
34.99999999999999
 30
0.0
 40
3.0
  1
第1角法
 72
     4
 11
-70.0
 21
36.49999999999999
 31
0.0
100
AcDbText
  0
TEXT
  5
177F
330
176D
100
AcDbEntity
  8
AM_BOR
 62
     2
100
AcDbText
 10
-59.0
 20
29.5
 30
0.0
 40
3.0
  1
材 質
 11
-59.0
 21
31.0
 31
0.0
100
AcDbText
 73
     2
  0
TEXT
  5
1780
330
176D
100
AcDbEntity
  8
AM_BOR
 62
     2
100
AcDbText
 10
-59.0
 20
22.5
 30
0.0
 40
3.0
  1
備 考
 11
-59.0
 21
24.0
 31
0.0
100
AcDbText
 73
     2
  0
TEXT
  5
1781
330
176D
100
AcDbEntity
  8
AM_BOR
 62
     2
100
AcDbText
 10
-59.0
 20
15.5
 30
0.0
 40
3.0
  1
品 名
 11
-59.0
 21
17.0
 31
0.0
100
AcDbText
 73
     2
  0
TEXT
  5
1782
330
176D
100
AcDbEntity
  8
AM_BOR
 62
     2
100
AcDbText
 10
-59.0
 20
6.499999999999992
 30
0.0
 40
3.0
  1
図 番
 11
-59.0
 21
7.999999999999992
 31
0.0
100
AcDbText
 73
     2
  0
TEXT
  5
1783
330
176D
100
AcDbEntity
  8
AM_BOR
 62
     2
100
AcDbText
 10
-109.0
 20
29.5
 30
0.0
 40
3.0
  1
承認
 11
-109.0
 21
31.0
 31
0.0
100
AcDbText
 73
     2
  0
TEXT
  5
1784
330
176D
100
AcDbEntity
  8
AM_BOR
 62
     2
100
AcDbText
 10
-109.0
 20
22.5
 30
0.0
 40
3.0
  1
設計
 11
-109.0
 21
24.0
 31
0.0
100
AcDbText
 73
     2
  0
TEXT
  5
1785
330
176D
100
AcDbEntity
  8
AM_BOR
 62
     2
100
AcDbText
 10
-84.0
 20
22.5
 30
0.0
 40
3.0
  1
製図
 11
-84.0
 21
24.0
 31
0.0
100
AcDbText
 73
     2
  0
TEXT
  5
1786
330
176D
100
AcDbEntity
  8
AM_BOR
 62
     2
100
AcDbText
 10
-84.0
 20
29.5
 30
0.0
 40
3.0
  1
検図
 11
-84.0
 21
31.0
 31
0.0
100
AcDbText
 73
     2
  0
ATTDEF
  5
1787
330
176D
100
AcDbEntity
  8
AM_BOR
100
AcDbText
 10
-49.48020001333898
 20
12.75
 30
0.0
 40
3.5
  1

 11
-49.48020001333898
 21
14.5
 31
0.0
100
AcDbAttributeDefinition
  3
品名
  2
HINMEI{14}
 70
     0
 74
     2
  0
ATTDEF
  5
1788
330
176D
100
AcDbEntity
  8
AM_BOR
100
AcDbText
 10
-49.48020001333898
 20
3.249999999999992
 30
0.0
 40
3.5
  1

 11
-49.48020001333898
 21
4.999999999999992
 31
0.0
100
AcDbAttributeDefinition
  3
図番
  2
ZUBAN{14}
 70
     0
 74
     2
  0
ATTDEF
  5
1789
330
176D
100
AcDbEntity
  8
AM_BOR
 62
     2
100
AcDbText
 10
-11.91705654530994
 20
35.0
 30
0.0
 40
3.0
  1

 41
0.8
 11
-11.91705654530994
 21
36.5
 31
0.0
100
AcDbAttributeDefinition
  3
日付
  2
GEN-TITLE-DAT{3.5}
 70
     0
 74
     2
  0
ATTDEF
  5
178A
330
176D
100
AcDbEntity
  8
AM_BOR
 62
     2
100
AcDbText
 10
-71.63012018472975
 20
20.00000000000001
 30
0.0
 40
3.0
  1
水 田
 72
     4
 11
-67.63012018472974
 21
21.50000000000002
 31
0.0
100
AcDbAttributeDefinition
  3
製図
  2
SEIZU
 70
     0
  0
ATTDEF
  5
178B
330
176D
100
AcDbEntity
  8
AM_BOR
 62
     2
100
AcDbText
 10
-31.91705654530995
 20
35.0
 30
0.0
 40
3.0
  1

 11
-31.91705654530995
 21
36.5
 31
0.0
100
AcDbAttributeDefinition
  3
尺度
  2
GEN-TITLE-SCA
 70
     0
 74
     2
  0
LINE
  5
178C
330
176D
100
AcDbEntity
  8
0
100
AcDbLine
 10
-106.9502221859465
 20
14.71456568209314
 30
0.0
 11
-107.7139711131768
 21
11.16237652835879
 31
0.0
  0
LINE
  5
178D
330
176D
100
AcDbEntity
  8
0
100
AcDbLine
 10
-107.7139711131768
 20
11.16237652835879
 30
0.0
 11
-107.6697551010107
 21
11.22470827233807
 31
0.0
  0
ELLIPSE
  5
178E
330
176D
100
AcDbEntity
  8
0
100
AcDbEllipse
 10
-106.5198686826232
 20
9.133166589319488
 30
0.0
 11
0.0200858413762701
 21
2.795177724472429
 31
0.0
210
0.0
220
0.0
230
0.9999999999999998
 40
0.6250197778053533
 41
-1.051714224928873
 42
0.7298517778971401
1001
GENIUS_GENODEF_13
1002
{
1000
HIER
1070
     0
1002
}
1002
{
1000
MANEDIT
1070
     0
1002
}
1002
{
1000
NOSEL
1070
     0
1002
}
1002
{
1000
BEHIND
1070
     0
1002
}
1002
{
1000
REACTOR
1002
}
1001
GENIUS_GENOBJ-N-FIL_13
1002
{
1000
OWNER
1000
GEN
1002
}
  0
ELLIPSE
  5
178F
330
176D
100
AcDbEntity
  8
0
100
AcDbEllipse
 10
-105.2984958385996
 20
13.8219417489321
 30
0.0
 11
0.0200858413762916
 21
2.795177724472415
 31
0.0
210
0.0
220
0.0
230
1.0
 40
0.6250197778053527
 41
-1.051714224928867
 42
1.250253596044828
1001
GENIUS_GENODEF_13
1002
{
1000
HIER
1070
     0
1002
}
1002
{
1000
MANEDIT
1070
     0
1002
}
1002
{
1000
NOSEL
1070
     0
1002
}
1002
{
1000
BEHIND
1070
     0
1002
}
1002
{
1000
REACTOR
1002
}
1001
GENIUS_GENOBJ-N-FIL_13
1002
{
1000
OWNER
1000
GEN
1002
}
  0
LINE
  5
1790
330
176D
100
AcDbEntity
  8
0
100
AcDbLine
 10
-98.48721298302093
 20
8.077457208786752
 30
0.0
 11
-99.45177360188811
 21
4.065819878065248
 31
0.0
  0
ELLIPSE
  5
1791
330
176D
100
AcDbEntity
  8
0
100
AcDbEllipse
 10
-101.0818809708247
 20
5.053412867376919
 30
0.0
 11
0.0200858413762853
 21
2.795177724472413
 31
0.0
210
0.0
220
0.0
230
1.0
 40
0.6250197778053547
 41
2.089878428660925
 42
4.355766148231805
1001
GENIUS_GENODEF_13
1002
{
1000
HIER
1070
     0
1002
}
1002
{
1000
MANEDIT
1070
     0
1002
}
1002
{
1000
NOSEL
1070
     0
1002
}
1002
{
1000
BEHIND
1070
     0
1002
}
1002
{
1000
REACTOR
1002
}
1001
GENIUS_GENOBJ-N-FIL_13
1002
{
1000
OWNER
1000
GEN
1002
}
  0
LINE
  5
1792
330
176D
100
AcDbEntity
  8
0
100
AcDbLine
 10
-98.48721298302093
 20
8.077457208786752
 30
0.0
 11
-98.66382720839389
 21
7.801834007856294
 31
0.0
  0
ELLIPSE
  5
1793
330
176D
100
AcDbEntity
  8
0
100
AcDbEllipse
 10
-99.87931293102301
 20
9.796066964505511
 30
0.0
 11
0.0200858413762724
 21
2.795177724472415
 31
0.0
210
0.0
220
0.0
230
0.9999999999999998
 40
0.6250197778053552
 41
2.08987842866092
 42
3.922474143254961
1001
GENIUS_GENODEF_13
1002
{
1000
HIER
1070
     0
1002
}
1002
{
1000
MANEDIT
1070
     0
1002
}
1002
{
1000
NOSEL
1070
     0
1002
}
1002
{
1000
BEHIND
1070
     0
1002
}
1002
{
1000
REACTOR
1002
}
1001
GENIUS_GENOBJ-N-FIL_13
1002
{
1000
OWNER
1000
GEN
1002
}
  0
HATCH
  5
1794
330
176D
100
AcDbEntity
  8
AM_8
100
AcDbHatch
 10
0.0
 20
0.0
 30
0.0
210
0.0
220
0.0
230
1.0
  2
SOLID
 70
     1
 71
     0
 91
        1
 92
        1
 93
        2
 72
     3
 10
-106.7638987916396
 20
4.957358478318376
 11
0.0000000000000547
 21
2.56276973145977
 40
0.8333333333333941
 50
-77.14069946214277
 51
264.4007371808275
 73
     1
 72
     3
 10
-106.7638987916396
 20
4.957358478318376
 11
-0.0000000000003928
 21
2.562769731461267
 40
0.8333333333328997
 50
264.4007371808174
 51
282.8593005378472
 73
     1
 97
        0
 75
     0
 76
     1
 98
        1
 10
65.20293740923941
 20
-32.16820874956388
1001
GENIUS_GENODEF_13
1002
{
1000
HIER
1070
     0
1002
}
1002
{
1000
MANEDIT
1070
     0
1002
}
1002
{
1000
NOSEL
1070
     0
1002
}
1002
{
1000
BEHIND
1070
     0
1002
}
1002
{
1000
REACTOR
1002
}
1001
GENIUS_GENOBJ-N-HTC_13
1002
{
1000
OWNER
1000
GEN
1002
}
1001
GENIUS_GENHATCH_13
1002
{
1000
DATA
1040
0.0
1042
0.0015799698758396
1000
SOLID
1070
     0
1011
70.0136537122014
1021
-14.7540192633455
1031
0.0
1002
}
1002
{
1000
UCS
1010
0.0
1020
0.0
1030
0.0
1010
1.0
1020
0.0
1030
0.0
1010
0.0
1020
1.0
1030
0.0
1002
}
  0
ELLIPSE
  5
1795
330
176D
100
AcDbEntity
  8
0
100
AcDbEllipse
 10
-106.7638987916396
 20
4.957358478318417
 30
0.0
 11
0.0000000000000006
 21
2.562769731459943
 31
0.0
210
0.0
220
0.0
230
1.0
 40
0.8333333333333353
 41
-1.570796326794896
 42
4.712388980384689
  0
HATCH
  5
1796
330
176D
100
AcDbEntity
  8
AM_8
100
AcDbHatch
 10
0.0
 20
0.0
 30
0.0
210
0.0
220
0.0
230
1.0
  2
SOLID
 70
     1
 71
     0
 91
        1
 92
        1
 93
       10
 72
     1
 10
-106.9502221859465
 20
14.71456568209311
 11
-107.7139711131768
 21
11.16237652835879
 72
     1
 10
-107.7139711131768
 20
11.16237652835879
 11
-107.6697551010108
 21
11.22470827233809
 72
     3
 10
-106.5198686826232
 20
9.133166589319488
 11
0.0200858413762859
 21
2.795177724472421
 40
0.6250197778053525
 50
-29.21280058452436
 51
47.56891328106517
 73
     0
 72
     1
 10
-104.9929922696577
 20
10.5089073790986
 11
-102.6087573837903
 21
3.677672077597827
 72
     3
 10
-101.0818809708247
 20
5.053412867376919
 11
0.0200858413762844
 21
2.79517772447242
 40
0.625019777805353
 50
132.4310867189347
 51
239.202331800838
 73
     1
 72
     1
 10
-99.45177360188809
 20
4.065819878065248
 11
-98.48721298302093
 21
8.077457208786761
 72
     1
 10
-98.48721298302095
 20
8.077457208786752
 11
-98.66382720839393
 21
7.801834007856288
 72
     3
 10
-99.87931293102301
 20
9.796066964505511
 11
0.0200858413762811
 21
2.795177724472416
 40
0.6250197778053536
 50
148.2259629226598
 51
227.5689132810653
 73
     0
 72
     1
 10
-101.4061893439886
 20
8.420326174726406
 11
-103.771619425634
 21
15.19768253871121
 72
     3
 10
-105.2984958385996
 20
13.8219417489321
 11
0.02008584137625
 21
2.795177724472417
 40
0.6250197778053583
 50
-47.56891328106589
 51
62.02409398278944
 73
     1
 97
        0
 75
     0
 76
     1
 98
        1
 10
65.20293740923941
 20
-32.16820874956388
1001
GENIUS_GENODEF_13
1002
{
1000
HIER
1070
     0
1002
}
1002
{
1000
MANEDIT
1070
     0
1002
}
1002
{
1000
NOSEL
1070
     0
1002
}
1002
{
1000
BEHIND
1070
     0
1002
}
1002
{
1000
REACTOR
1002
}
1001
GENIUS_GENOBJ-N-HTC_13
1002
{
1000
OWNER
1000
GEN
1002
}
1001
GENIUS_GENHATCH_13
1002
{
1000
DATA
1040
0.0
1042
0.0015799698758396
1000
SOLID
1070
     0
1011
74.07735655451816
1021
-11.90112763631223
1031
0.0
1002
}
1002
{
1000
UCS
1010
0.0
1020
0.0
1030
0.0
1010
1.0
1020
0.0
1030
0.0
1010
0.0
1020
1.0
1030
0.0
1002
}
  0
LINE
  5
1797
330
176D
100
AcDbEntity
  8
0
100
AcDbLine
 10
-104.9929922696577
 20
10.5089073790986
 30
0.0
 11
-102.6087573837903
 21
3.677672077597847
 31
0.0
  0
LINE
  5
1798
330
176D
100
AcDbEntity
  8
0
100
AcDbLine
 10
-101.4061893439886
 20
8.420326174726406
 30
0.0
 11
-103.771619425634
 21
15.1976825387112
 31
0.0
  0
TEXT
  5
1799
330
176D
100
AcDbEntity
  8
0
100
AcDbText
 10
-92.04358977334541
 20
2.736280326823534
 30
0.0
 40
1.397647058823528
  1
ASOH   CO.LTD
 41
2.222222222222219
  7
ｽﾀｲﾙ1
100
AcDbText
  0
TEXT
  5
179A
330
176D
100
AcDbEntity
  8
0
100
AcDbText
 10
-96.37601713265375
 20
7.065690057310197
 30
0.0
 40
9.355420606948992
  1
アソー株式会社
 41
0.4444444444444381
  7
ｽﾀｲﾙ1
100
AcDbText
  0
ENDBLK
  5
179D
330
176D
100
AcDbEntity
  8
0
100
AcDbBlockEnd
  0
BLOCK
  5
17A9
330
17A8
100
AcDbEntity
  8
0
100
AcDbBlockBegin
  2
A$C2D292097
 70
     0
 10
0.0
 20
0.0
 30
0.0
  3
A$C2D292097
  1

  0
TEXT
  5
17AA
330
17A8
100
AcDbEntity
  8
0
100
AcDbText
 10
197.1044423511698
 20
31.0035981017752
 30
0.0
 40
10.0
  1
ASOH   CO.LTD
 41
5.0
  7
ｽﾀｲﾙ1
100
AcDbText
  0
TEXT
  5
17AB
330
17A8
100
AcDbEntity
  8
0
100
AcDbText
 10
127.3589261501835
 20
61.98001452360745
 30
0.0
 40
66.93693195207612
  1
アソー株式会社
  7
ｽﾀｲﾙ1
100
AcDbText
  0
HATCH
  5
17AC
330
17A8
100
AcDbEntity
  8
AM_8
100
AcDbHatch
 10
0.0
 20
0.0
 30
0.0
210
0.0
220
0.0
230
1.0
  2
SOLID
 70
     1
 71
     0
 91
        1
 92
        1
 93
       10
 72
     1
 10
26.27998696211468
 20
119.622038302041
 11
19.72254667781421
 21
94.20654351522143
 72
     1
 10
19.72254667781422
 20
94.20654351522143
 11
20.10217910550261
 21
94.65251979790156
 72
     3
 10
29.97494128357687
 20
79.68778553387966
 11
0.2402016329913235
 21
19.99855752736978
 40
0.7499999999999996
 50
-34.10238568201522
 51
52.41091053102508
 73
     0
 72
     1
 10
43.0844862433824
 20
89.53104876041368
 11
63.55518980891033
 21
40.6543652059048
 72
     3
 10
76.66473476871587
 20
50.49762843243886
 11
0.2402016329913164
 21
19.99855752736977
 40
0.7499999999999999
 50
127.589089468975
 51
243.9002512902304
 73
     1
 72
     1
 10
90.66060611817196
 20
43.43151697692579
 11
98.94218718925374
 21
72.13430932636422
 72
     1
 10
98.94218718925376
 20
72.13430932636422
 11
97.4258024259505
 21
70.16225780455534
 72
     3
 10
86.98981389832653
 20
84.43075959876276
 11
-0.2402016329912594
 21
-19.99855752736953
 40
0.7499999999999996
 50
-36.86989764584386
 51
52.41091053102518
 73
     0
 72
     1
 10
73.88026893852099
 20
74.58749637222874
 11
53.57102076277776
 21
123.0786824781806
 72
     3
 10
40.46147580297221
 20
113.2354192516466
 11
-0.240201632991283
 21
-19.99855752736977
 40
0.7500000000000002
 50
127.5890894689749
 51
246.4437724078177
 73
     1
 97
        0
 75
     0
 76
     1
 98
        1
 10
-11.02788873631791
 20
-99.90118815091953
1001
GENIUS_GENODEF_13
1002
{
1000
HIER
1070
     0
1002
}
1002
{
1000
MANEDIT
1070
     0
1002
}
1002
{
1000
NOSEL
1070
     0
1002
}
1002
{
1000
BEHIND
1070
     0
1002
}
1002
{
1000
REACTOR
1002
}
1001
GENIUS_GENOBJ-N-HTC_13
1002
{
1000
OWNER
1000
GEN
1002
}
1001
GENIUS_GENHATCH_13
1002
{
1000
DATA
1040
0.0
1042
0.9999999999999998
1000
SOLID
1070
     0
1011
65.16661907668134
1021
74.10910423558471
1031
0.0
1002
}
1002
{
1000
UCS
1010
0.0
1020
0.0
1030
0.0
1010
1.0
1020
0.0
1030
0.0
1010
0.0
1020
1.0
1030
0.0
1002
}
  0
HATCH
  5
17AD
330
17A8
100
AcDbEntity
  8
AM_8
100
AcDbHatch
 10
0.0
 20
0.0
 30
0.0
210
0.0
220
0.0
230
1.0
  2
SOLID
 70
     1
 71
     0
 91
        1
 92
        1
 93
        2
 72
     2
 10
27.87973327687144
 20
49.81037059826576
 40
18.33631541869489
 50
10.7710123686058
 51
355.3294096482469
 73
     1
 72
     2
 10
27.87973327687144
 20
49.81037059826576
 40
18.33631541869488
 50
355.3294096482469
 51
370.7710123686058
 73
     1
 97
        0
 75
     0
 76
     1
 98
        1
 10
-11.02788873631791
 20
-99.90118815091953
1001
GENIUS_GENODEF_13
1002
{
1000
HIER
1070
     0
1002
}
1002
{
1000
MANEDIT
1070
     0
1002
}
1002
{
1000
NOSEL
1070
     0
1002
}
1002
{
1000
BEHIND
1070
     0
1002
}
1002
{
1000
REACTOR
1002
}
1001
GENIUS_GENOBJ-N-HTC_13
1002
{
1000
OWNER
1000
GEN
1002
}
1001
GENIUS_GENHATCH_13
1002
{
1000
DATA
1040
0.0
1042
0.9999999999999998
1000
SOLID
1070
     0
1011
30.27624113759819
1021
49.61458016509695
1031
0.0
1002
}
1002
{
1000
UCS
1010
0.0
1020
0.0
1030
0.0
1010
1.0
1020
0.0
1030
0.0
1010
0.0
1020
1.0
1030
0.0
1002
}
  0
CIRCLE
  5
17AE
330
17A8
100
AcDbEntity
  8
0
100
AcDbCircle
 10
27.87973327687145
 20
49.81037059826573
 30
0.0
 40
18.33631541869488
  0
LINE
  5
17AF
330
17A8
100
AcDbEntity
  8
0
100
AcDbLine
 10
98.94218718925376
 20
72.13430932636422
 30
0.0
 11
90.66060611817196
 21
43.43151697692576
 31
0.0
  0
LINE
  5
17B0
330
17A8
100
AcDbEntity
  8
0
100
AcDbLine
 10
43.0844862433824
 20
89.5310487604137
 30
0.0
 11
63.55518980891034
 21
40.6543652059048
 31
0.0
  0
ELLIPSE
  5
17B1
330
17A8
100
AcDbEntity
  8
0
100
AcDbEllipse
 10
76.66473476871587
 20
50.49762843243886
 30
0.0
 11
0.2402016329913116
 21
19.99855752736953
 31
0.0
210
0.0
220
0.0
230
0.9999999999999998
 40
0.7499999999999999
 41
2.094395102393195
 42
4.360282821964076
1001
GENIUS_GENODEF_13
1002
{
1000
HIER
1070
     0
1002
}
1002
{
1000
MANEDIT
1070
     0
1002
}
1002
{
1000
NOSEL
1070
     0
1002
}
1002
{
1000
BEHIND
1070
     0
1002
}
1002
{
1000
REACTOR
1002
}
1001
GENIUS_GENOBJ-N-FIL_13
1002
{
1000
OWNER
1000
GEN
1002
}
  0
ELLIPSE
  5
17B2
330
17A8
100
AcDbEntity
  8
0
100
AcDbEllipse
 10
86.98981389832653
 20
84.43075959876276
 30
0.0
 11
0.2402016329912594
 21
19.99855752736953
 31
0.0
210
0.0
220
0.0
230
1.0
 40
0.7499999999999996
 41
2.094395102393192
 42
3.926990816987234
1001
GENIUS_GENODEF_13
1002
{
1000
HIER
1070
     0
1002
}
1002
{
1000
MANEDIT
1070
     0
1002
}
1002
{
1000
NOSEL
1070
     0
1002
}
1002
{
1000
BEHIND
1070
     0
1002
}
1002
{
1000
REACTOR
1002
}
1001
GENIUS_GENOBJ-N-FIL_13
1002
{
1000
OWNER
1000
GEN
1002
}
  0
ELLIPSE
  5
17B3
330
17A8
100
AcDbEntity
  8
0
100
AcDbEllipse
 10
29.97494128357687
 20
79.68778553387966
 30
0.0
 11
0.2402016329913188
 21
19.99855752736953
 31
0.0
210
0.0
220
0.0
230
0.9999999999999998
 40
0.7499999999999996
 41
-1.047197551196598
 42
0.7343684516294112
1001
GENIUS_GENODEF_13
1002
{
1000
HIER
1070
     0
1002
}
1002
{
1000
MANEDIT
1070
     0
1002
}
1002
{
1000
NOSEL
1070
     0
1002
}
1002
{
1000
BEHIND
1070
     0
1002
}
1002
{
1000
REACTOR
1002
}
1001
GENIUS_GENOBJ-N-FIL_13
1002
{
1000
OWNER
1000
GEN
1002
}
  0
ELLIPSE
  5
17B4
330
17A8
100
AcDbEntity
  8
0
100
AcDbEllipse
 10
40.46147580297221
 20
113.2354192516466
 30
0.0
 11
0.2402016329912781
 21
19.99855752736952
 31
0.0
210
0.0
220
0.0
230
0.9999999999999996
 40
0.75
 41
-1.047197551196599
 42
1.254770269777095
1001
GENIUS_GENODEF_13
1002
{
1000
HIER
1070
     0
1002
}
1002
{
1000
MANEDIT
1070
     0
1002
}
1002
{
1000
NOSEL
1070
     0
1002
}
1002
{
1000
BEHIND
1070
     0
1002
}
1002
{
1000
REACTOR
1002
}
1001
GENIUS_GENOBJ-N-FIL_13
1002
{
1000
OWNER
1000
GEN
1002
}
  0
LINE
  5
17B5
330
17A8
100
AcDbEntity
  8
0
100
AcDbLine
 10
73.88026893852099
 20
74.58749637222874
 30
0.0
 11
53.57102076277774
 21
123.0786824781806
 31
0.0
  0
LINE
  5
17B6
330
17A8
100
AcDbEntity
  8
0
100
AcDbLine
 10
26.27998696211472
 20
119.6220383020412
 30
0.0
 11
19.72254667781422
 21
94.20654351522143
 31
0.0
  0
LINE
  5
17B7
330
17A8
100
AcDbEntity
  8
0
100
AcDbLine
 10
19.72254667781422
 20
94.20654351522143
 30
0.0
 11
20.1021791055026
 21
94.65251979790158
 31
0.0
  0
LINE
  5
17B8
330
17A8
100
AcDbEntity
  8
0
100
AcDbLine
 10
98.94218718925372
 20
72.13430932636422
 30
0.0
 11
97.42580242595048
 21
70.16225780455531
 31
0.0
  0
ENDBLK
  5
17B9
330
17A8
100
AcDbEntity
  8
0
100
AcDbBlockEnd
  0
BLOCK
  5
17BF
330
17BD
100
AcDbEntity
  8
0
100
AcDbBlockBegin
  2
A$C676C2959
 70
     2
 10
0.0
 20
0.0
 30
0.0
  3
A$C676C2959
  1

  0
ATTDEF
  5
17C0
330
17BD
100
AcDbEntity
  8
AM_BOR
 62
     2
100
AcDbText
 10
12.15813029624129
 20
1.055831712516678
 30
0.0
 40
3.0
  1
水 田
 72
     4
 11
16.15813029624129
 21
2.555831712516678
 31
0.0
100
AcDbAttributeDefinition
  3
検図
  2
KENZU
 70
     0
  0
ENDBLK
  5
17C1
330
17BD
100
AcDbEntity
  8
0
100
AcDbBlockEnd
  0
BLOCK
  5
17C4
330
17C2
100
AcDbEntity
  8
0
100
AcDbBlockBegin
  2
A$C1FED437B
 70
     2
 10
0.0
 20
0.0
 30
0.0
  3
A$C1FED437B
  1

  0
ATTDEF
  5
17C5
330
17C2
100
AcDbEntity
  8
AM_BOR
 62
     2
100
AcDbText
 10
18.03041271546894
 20
2.555831712516678
 30
0.0
 40
3.0
  1

 72
     4
 11
18.03041271546894
 21
2.555831712516678
 31
0.0
100
AcDbAttributeDefinition
  3
材質
  2
ZAISITU
 70
     0
  0
ENDBLK
  5
17C6
330
17C2
100
AcDbEntity
  8
0
100
AcDbBlockEnd
  0
BLOCK
  5
17FF
330
17CB
100
AcDbEntity
  8
0
100
AcDbBlockBegin
  2
ASO-A
 70
     2
 10
0.0
 20
0.0
 30
0.0
  3
ASO-A
  1

  0
LINE
  5
522C
330
17CB
100
AcDbEntity
  8
AM_BOR
 62
   211
100
AcDbLine
 10
-110.0
 20
0.0
 30
0.0
 11
0.0
 21
0.0
 31
0.0
1001
GENIUS_GENREC_14
1002
{
1000
PYDIR
1011
-110.0
1021
40.0
1031
0.0
1002
}
1002
{
1000
PXDIR
1011
0.0
1021
0.0
1031
0.0
1002
}
1002
{
1000
PORI
1011
-110.0
1021
0.0
1031
0.0
1002
}
1002
{
1000
PINS
1011
-110.0
1021
0.0
1031
0.0
1002
}
1002
{
1000
HVAL
1000
40
1002
}
1002
{
1000
H
1070
     2
1002
}
1002
{
1000
WVAL
1000
110
1002
}
1002
{
1000
W
1070
     2
1002
}
1002
{
1000
C
1070
     1
1002
}
1001
GENIUS_GENODEF_13
1002
{
1000
HIER
1070
     0
1002
}
1002
{
1000
MANEDIT
1070
     0
1002
}
1002
{
1000
NOSEL
1070
     0
1002
}
1002
{
1000
BEHIND
1070
     0
1002
}
1002
{
1000
REACTOR
1002
}
1001
GENIUS_GENOBJ-N-REC_13
1002
{
1000
OWNER
1000
GEN
1002
}
  0
LINE
  5
522D
330
17CB
100
AcDbEntity
  8
AM_BOR
 62
   211
100
AcDbLine
 10
0.0
 20
0.0
 30
0.0
 11
0.0
 21
40.0
 31
0.0
1001
GENIUS_GENREC_14
1002
{
1000
PYDIR
1011
-110.0
1021
40.0
1031
0.0
1002
}
1002
{
1000
PXDIR
1011
0.0
1021
0.0
1031
0.0
1002
}
1002
{
1000
PORI
1011
-110.0
1021
0.0
1031
0.0
1002
}
1002
{
1000
PINS
1011
-110.0
1021
0.0
1031
0.0
1002
}
1002
{
1000
HVAL
1000
40
1002
}
1002
{
1000
H
1070
     2
1002
}
1002
{
1000
WVAL
1000
110
1002
}
1002
{
1000
W
1070
     2
1002
}
1002
{
1000
C
1070
     1
1002
}
1001
GENIUS_GENODEF_13
1002
{
1000
HIER
1070
     0
1002
}
1002
{
1000
MANEDIT
1070
     0
1002
}
1002
{
1000
NOSEL
1070
     0
1002
}
1002
{
1000
BEHIND
1070
     0
1002
}
1002
{
1000
REACTOR
1002
}
1001
GENIUS_GENOBJ-N-REC_13
1002
{
1000
OWNER
1000
GEN
1002
}
  0
LINE
  5
522E
330
17CB
100
AcDbEntity
  8
AM_BOR
 62
   211
100
AcDbLine
 10
0.0
 20
40.0
 30
0.0
 11
-110.0
 21
40.00000000000001
 31
0.0
1001
GENIUS_GENREC_14
1002
{
1000
PYDIR
1011
-110.0
1021
40.0
1031
0.0
1002
}
1002
{
1000
PXDIR
1011
0.0
1021
0.0
1031
0.0
1002
}
1002
{
1000
PORI
1011
-110.0
1021
0.0
1031
0.0
1002
}
1002
{
1000
PINS
1011
-110.0
1021
0.0
1031
0.0
1002
}
1002
{
1000
HVAL
1000
40
1002
}
1002
{
1000
H
1070
     2
1002
}
1002
{
1000
WVAL
1000
110
1002
}
1002
{
1000
W
1070
     2
1002
}
1002
{
1000
C
1070
     1
1002
}
1001
GENIUS_GENODEF_13
1002
{
1000
HIER
1070
     0
1002
}
1002
{
1000
MANEDIT
1070
     0
1002
}
1002
{
1000
NOSEL
1070
     0
1002
}
1002
{
1000
BEHIND
1070
     0
1002
}
1002
{
1000
REACTOR
1002
}
1001
GENIUS_GENOBJ-N-REC_13
1002
{
1000
OWNER
1000
GEN
1002
}
  0
LINE
  5
522F
330
17CB
100
AcDbEntity
  8
AM_BOR
 62
   211
100
AcDbLine
 10
-110.0
 20
40.00000000000001
 30
0.0
 11
-110.0
 21
0.0
 31
0.0
1001
GENIUS_GENREC_14
1002
{
1000
PYDIR
1011
-110.0
1021
40.0
1031
0.0
1002
}
1002
{
1000
PXDIR
1011
0.0
1021
0.0
1031
0.0
1002
}
1002
{
1000
PORI
1011
-110.0
1021
0.0
1031
0.0
1002
}
1002
{
1000
PINS
1011
-110.0
1021
0.0
1031
0.0
1002
}
1002
{
1000
HVAL
1000
40
1002
}
1002
{
1000
H
1070
     2
1002
}
1002
{
1000
WVAL
1000
110
1002
}
1002
{
1000
W
1070
     2
1002
}
1002
{
1000
C
1070
     1
1002
}
1001
GENIUS_GENODEF_13
1002
{
1000
HIER
1070
     0
1002
}
1002
{
1000
MANEDIT
1070
     0
1002
}
1002
{
1000
NOSEL
1070
     0
1002
}
1002
{
1000
BEHIND
1070
     0
1002
}
1002
{
1000
REACTOR
1002
}
1001
GENIUS_GENOBJ-N-REC_13
1002
{
1000
OWNER
1000
GEN
1002
}
  0
LINE
  5
5230
330
17CB
100
AcDbEntity
  8
AM_BOR
 62
     5
100
AcDbLine
 10
-60.0
 20
9.999999999999992
 30
0.0
 11
0.0
 21
10.0
 31
0.0
1001
GENIUS_GENREC_14
1002
{
1000
PYDIR
1011
-110.0
1021
40.0
1031
0.0
1002
}
1002
{
1000
PXDIR
1011
0.0
1021
0.0
1031
0.0
1002
}
1002
{
1000
PORI
1011
-110.0
1021
0.0
1031
0.0
1002
}
1002
{
1000
PINS
1011
-110.0
1021
0.0
1031
0.0
1002
}
1002
{
1000
HVAL
1000
40
1002
}
1002
{
1000
H
1070
     2
1002
}
1002
{
1000
WVAL
1000
110
1002
}
1002
{
1000
W
1070
     2
1002
}
1002
{
1000
C
1070
     1
1002
}
  0
LINE
  5
5231
330
17CB
100
AcDbEntity
  8
AM_BOR
 62
     5
100
AcDbLine
 10
-110.0
 20
19.0
 30
0.0
 11
0.0
 21
19.0
 31
0.0
1001
GENIUS_GENREC_14
1002
{
1000
PYDIR
1011
-110.0
1021
40.0
1031
0.0
1002
}
1002
{
1000
PXDIR
1011
0.0
1021
0.0
1031
0.0
1002
}
1002
{
1000
PORI
1011
-110.0
1021
0.0
1031
0.0
1002
}
1002
{
1000
PINS
1011
-110.0
1021
0.0
1031
0.0
1002
}
1002
{
1000
HVAL
1000
40
1002
}
1002
{
1000
H
1070
     2
1002
}
1002
{
1000
WVAL
1000
110
1002
}
1002
{
1000
W
1070
     2
1002
}
1002
{
1000
C
1070
     1
1002
}
1001
GENIUS_GENODEF_13
1002
{
1000
HIER
1070
     0
1002
}
1002
{
1000
MANEDIT
1070
     0
1002
}
1002
{
1000
NOSEL
1070
     0
1002
}
1002
{
1000
BEHIND
1070
     0
1002
}
1002
{
1000
REACTOR
1002
}
1001
GENIUS_GENOBJ-N-REC_13
1002
{
1000
OWNER
1000
GEN
1002
}
  0
LINE
  5
5232
330
17CB
100
AcDbEntity
  8
AM_BOR
 62
     5
100
AcDbLine
 10
-110.0
 20
26.0
 30
0.0
 11
0.0
 21
26.0
 31
0.0
1001
GENIUS_GENREC_14
1002
{
1000
PYDIR
1011
-110.0
1021
40.0
1031
0.0
1002
}
1002
{
1000
PXDIR
1011
0.0
1021
0.0
1031
0.0
1002
}
1002
{
1000
PORI
1011
-110.0
1021
0.0
1031
0.0
1002
}
1002
{
1000
PINS
1011
-110.0
1021
0.0
1031
0.0
1002
}
1002
{
1000
HVAL
1000
40
1002
}
1002
{
1000
H
1070
     2
1002
}
1002
{
1000
WVAL
1000
110
1002
}
1002
{
1000
W
1070
     2
1002
}
1002
{
1000
C
1070
     1
1002
}
1001
GENIUS_GENODEF_13
1002
{
1000
HIER
1070
     0
1002
}
1002
{
1000
MANEDIT
1070
     0
1002
}
1002
{
1000
NOSEL
1070
     0
1002
}
1002
{
1000
BEHIND
1070
     0
1002
}
1002
{
1000
REACTOR
1002
}
1001
GENIUS_GENOBJ-N-REC_13
1002
{
1000
OWNER
1000
GEN
1002
}
  0
LINE
  5
5233
330
17CB
100
AcDbEntity
  8
AM_BOR
 62
     5
100
AcDbLine
 10
-110.0
 20
33.0
 30
0.0
 11
0.0
 21
33.0
 31
0.0
1001
GENIUS_GENREC_14
1002
{
1000
PYDIR
1011
-110.0
1021
40.0
1031
0.0
1002
}
1002
{
1000
PXDIR
1011
0.0
1021
0.0
1031
0.0
1002
}
1002
{
1000
PORI
1011
-110.0
1021
0.0
1031
0.0
1002
}
1002
{
1000
PINS
1011
-110.0
1021
0.0
1031
0.0
1002
}
1002
{
1000
HVAL
1000
40
1002
}
1002
{
1000
H
1070
     2
1002
}
1002
{
1000
WVAL
1000
110
1002
}
1002
{
1000
W
1070
     2
1002
}
1002
{
1000
C
1070
     1
1002
}
1001
GENIUS_GENODEF_13
1002
{
1000
HIER
1070
     0
1002
}
1002
{
1000
MANEDIT
1070
     0
1002
}
1002
{
1000
NOSEL
1070
     0
1002
}
1002
{
1000
BEHIND
1070
     0
1002
}
1002
{
1000
REACTOR
1002
}
1001
GENIUS_GENOBJ-N-REC_13
1002
{
1000
OWNER
1000
GEN
1002
}
  0
LINE
  5
5234
330
17CB
100
AcDbEntity
  8
AM_BOR
 62
     5
100
AcDbLine
 10
-85.0
 20
33.0
 30
0.0
 11
-85.0
 21
18.99999999999998
 31
0.0
1001
GENIUS_GENREC_14
1002
{
1000
PYDIR
1011
-110.0
1021
40.0
1031
0.0
1002
}
1002
{
1000
PXDIR
1011
0.0
1021
0.0
1031
0.0
1002
}
1002
{
1000
PORI
1011
-110.0
1021
0.0
1031
0.0
1002
}
1002
{
1000
PINS
1011
-110.0
1021
0.0
1031
0.0
1002
}
1002
{
1000
HVAL
1000
40
1002
}
1002
{
1000
H
1070
     2
1002
}
1002
{
1000
WVAL
1000
110
1002
}
1002
{
1000
W
1070
     2
1002
}
1002
{
1000
C
1070
     1
1002
}
1001
GENIUS_GENODEF_13
1002
{
1000
HIER
1070
     0
1002
}
1002
{
1000
MANEDIT
1070
     0
1002
}
1002
{
1000
NOSEL
1070
     0
1002
}
1002
{
1000
BEHIND
1070
     0
1002
}
1002
{
1000
REACTOR
1002
}
1001
GENIUS_GENOBJ-N-REC_13
1002
{
1000
OWNER
1000
GEN
1002
}
  0
LINE
  5
5235
330
17CB
100
AcDbEntity
  8
AM_BOR
 62
     5
100
AcDbLine
 10
-60.0
 20
40.00000000000001
 30
0.0
 11
-60.0
 21
0.0
 31
0.0
1001
GENIUS_GENREC_14
1002
{
1000
PYDIR
1011
-110.0
1021
40.0
1031
0.0
1002
}
1002
{
1000
PXDIR
1011
0.0
1021
0.0
1031
0.0
1002
}
1002
{
1000
PORI
1011
-110.0
1021
0.0
1031
0.0
1002
}
1002
{
1000
PINS
1011
-110.0
1021
0.0
1031
0.0
1002
}
1002
{
1000
HVAL
1000
40
1002
}
1002
{
1000
H
1070
     2
1002
}
1002
{
1000
WVAL
1000
110
1002
}
1002
{
1000
W
1070
     2
1002
}
1002
{
1000
C
1070
     1
1002
}
1001
GENIUS_GENODEF_13
1002
{
1000
HIER
1070
     0
1002
}
1002
{
1000
MANEDIT
1070
     0
1002
}
1002
{
1000
NOSEL
1070
     0
1002
}
1002
{
1000
BEHIND
1070
     0
1002
}
1002
{
1000
REACTOR
1002
}
1001
GENIUS_GENOBJ-N-REC_13
1002
{
1000
OWNER
1000
GEN
1002
}
  0
LINE
  5
5236
330
17CB
100
AcDbEntity
  8
AM_BOR
 62
     5
100
AcDbLine
 10
-20.0
 20
33.0
 30
0.0
 11
-20.0
 21
40.0
 31
0.0
1001
GENIUS_GENREC_14
1002
{
1000
PYDIR
1011
-110.0
1021
40.0
1031
0.0
1002
}
1002
{
1000
PXDIR
1011
0.0
1021
0.0
1031
0.0
1002
}
1002
{
1000
PORI
1011
-110.0
1021
0.0
1031
0.0
1002
}
1002
{
1000
PINS
1011
-110.0
1021
0.0
1031
0.0
1002
}
1002
{
1000
HVAL
1000
40
1002
}
1002
{
1000
H
1070
     2
1002
}
1002
{
1000
WVAL
1000
110
1002
}
1002
{
1000
W
1070
     2
1002
}
1002
{
1000
C
1070
     1
1002
}
1001
GENIUS_GENODEF_13
1002
{
1000
HIER
1070
     0
1002
}
1002
{
1000
MANEDIT
1070
     0
1002
}
1002
{
1000
NOSEL
1070
     0
1002
}
1002
{
1000
BEHIND
1070
     0
1002
}
1002
{
1000
REACTOR
1002
}
1001
GENIUS_GENOBJ-N-REC_13
1002
{
1000
OWNER
1000
GEN
1002
}
  0
LINE
  5
5237
330
17CB
100
AcDbEntity
  8
AM_BOR
 62
     5
100
AcDbLine
 10
-40.0
 20
33.0
 30
0.0
 11
-40.0
 21
40.0
 31
0.0
1001
GENIUS_GENREC_14
1002
{
1000
PYDIR
1011
-110.0
1021
40.0
1031
0.0
1002
}
1002
{
1000
PXDIR
1011
0.0
1021
0.0
1031
0.0
1002
}
1002
{
1000
PORI
1011
-110.0
1021
0.0
1031
0.0
1002
}
1002
{
1000
PINS
1011
-110.0
1021
0.0
1031
0.0
1002
}
1002
{
1000
HVAL
1000
40
1002
}
1002
{
1000
H
1070
     2
1002
}
1002
{
1000
WVAL
1000
110
1002
}
1002
{
1000
W
1070
     2
1002
}
1002
{
1000
C
1070
     1
1002
}
1001
GENIUS_GENODEF_13
1002
{
1000
HIER
1070
     0
1002
}
1002
{
1000
MANEDIT
1070
     0
1002
}
1002
{
1000
NOSEL
1070
     0
1002
}
1002
{
1000
BEHIND
1070
     0
1002
}
1002
{
1000
REACTOR
1002
}
1001
GENIUS_GENOBJ-N-REC_13
1002
{
1000
OWNER
1000
GEN
1002
}
  0
LINE
  5
5238
330
17CB
100
AcDbEntity
  8
AM_BOR
 62
     5
100
AcDbLine
 10
-80.0
 20
33.0
 30
0.0
 11
-80.0
 21
40.0
 31
0.0
1001
GENIUS_GENREC_14
1002
{
1000
PYDIR
1011
-110.0
1021
40.0
1031
0.0
1002
}
1002
{
1000
PXDIR
1011
0.0
1021
0.0
1031
0.0
1002
}
1002
{
1000
PORI
1011
-110.0
1021
0.0
1031
0.0
1002
}
1002
{
1000
PINS
1011
-110.0
1021
0.0
1031
0.0
1002
}
1002
{
1000
HVAL
1000
40
1002
}
1002
{
1000
H
1070
     2
1002
}
1002
{
1000
WVAL
1000
110
1002
}
1002
{
1000
W
1070
     2
1002
}
1002
{
1000
C
1070
     1
1002
}
1001
GENIUS_GENODEF_13
1002
{
1000
HIER
1070
     0
1002
}
1002
{
1000
MANEDIT
1070
     0
1002
}
1002
{
1000
NOSEL
1070
     0
1002
}
1002
{
1000
BEHIND
1070
     0
1002
}
1002
{
1000
REACTOR
1002
}
1001
GENIUS_GENOBJ-N-REC_13
1002
{
1000
OWNER
1000
GEN
1002
}
  0
TEXT
  5
5239
330
17CB
100
AcDbEntity
  8
AM_BOR
 62
     2
100
AcDbText
 10
-57.4
 20
35.0
 30
0.0
 40
3.0
  1
単位 ｍｍ
 72
     4
 11
-50.0
 21
36.5
 31
0.0
100
AcDbText
  0
TEXT
  5
523A
330
17CB
100
AcDbEntity
  8
AM_BOR
 62
     2
100
AcDbText
 10
-39.0
 20
35.0
 30
0.0
 40
3.0
  1
尺度
 41
0.9
 11
-39.0
 21
36.5
 31
0.0
100
AcDbText
 73
     2
  0
TEXT
  5
523B
330
17CB
100
AcDbEntity
  8
AM_BOR
 62
     2
100
AcDbText
 10
-19.0
 20
35.0
 30
0.0
 40
3.0
  1
日付
 41
0.9
 11
-19.0
 21
36.5
 31
0.0
100
AcDbText
 73
     2
  0
TEXT
  5
523C
330
17CB
100
AcDbEntity
  8
AM_BOR
 62
     2
100
AcDbText
 10
-76.79999999999999
 20
34.99999999999999
 30
0.0
 40
3.0
  1
第３角法
 72
     4
 11
-70.0
 21
36.49999999999999
 31
0.0
100
AcDbText
  0
TEXT
  5
523D
330
17CB
100
AcDbEntity
  8
AM_BOR
 62
     2
100
AcDbText
 10
-59.0
 20
29.5
 30
0.0
 40
3.0
  1
材 質
 11
-59.0
 21
31.0
 31
0.0
100
AcDbText
 73
     2
  0
TEXT
  5
523E
330
17CB
100
AcDbEntity
  8
AM_BOR
 62
     2
100
AcDbText
 10
-59.0
 20
22.5
 30
0.0
 40
3.0
  1
備 考
 11
-59.0
 21
24.0
 31
0.0
100
AcDbText
 73
     2
  0
TEXT
  5
523F
330
17CB
100
AcDbEntity
  8
AM_BOR
 62
     2
100
AcDbText
 10
-59.0
 20
15.5
 30
0.0
 40
3.0
  1
品 名
 11
-59.0
 21
17.0
 31
0.0
100
AcDbText
 73
     2
  0
TEXT
  5
5240
330
17CB
100
AcDbEntity
  8
AM_BOR
 62
     2
100
AcDbText
 10
-59.0
 20
6.499999999999992
 30
0.0
 40
3.0
  1
図 番
 11
-59.0
 21
7.999999999999992
 31
0.0
100
AcDbText
 73
     2
  0
TEXT
  5
5241
330
17CB
100
AcDbEntity
  8
AM_BOR
 62
     2
100
AcDbText
 10
-109.0
 20
29.5
 30
0.0
 40
3.0
  1
承認
 11
-109.0
 21
31.0
 31
0.0
100
AcDbText
 73
     2
  0
TEXT
  5
5242
330
17CB
100
AcDbEntity
  8
AM_BOR
 62
     2
100
AcDbText
 10
-109.0
 20
22.5
 30
0.0
 40
3.0
  1
設計
 11
-109.0
 21
24.0
 31
0.0
100
AcDbText
 73
     2
  0
TEXT
  5
5243
330
17CB
100
AcDbEntity
  8
AM_BOR
 62
     2
100
AcDbText
 10
-84.0
 20
22.5
 30
0.0
 40
3.0
  1
製図
 11
-84.0
 21
24.0
 31
0.0
100
AcDbText
 73
     2
  0
TEXT
  5
5244
330
17CB
100
AcDbEntity
  8
AM_BOR
 62
     2
100
AcDbText
 10
-84.0
 20
29.5
 30
0.0
 40
3.0
  1
検図
 11
-84.0
 21
31.0
 31
0.0
100
AcDbText
 73
     2
  0
ATTDEF
  5
5245
330
17CB
100
AcDbEntity
  8
AM_BOR
100
AcDbText
 10
-50.25926794017573
 20
12.75
 30
0.0
 40
3.5
  1

 11
-50.25926794017573
 21
14.5
 31
0.0
100
AcDbAttributeDefinition
  3
品名
  2
HINMEI{14}
 70
     0
 74
     2
  0
ATTDEF
  5
5246
330
17CB
100
AcDbEntity
  8
AM_BOR
100
AcDbText
 10
-50.10873010396898
 20
3.249999999999992
 30
0.0
 40
3.5
  1

 11
-50.10873010396898
 21
4.999999999999992
 31
0.0
100
AcDbAttributeDefinition
  3
図番
  2
ZUBAN{14}
 70
     0
 74
     2
  0
ATTDEF
  5
5247
330
17CB
100
AcDbEntity
  8
AM_BOR
 62
     2
100
AcDbText
 10
-11.91705654530994
 20
35.0
 30
0.0
 40
3.0
  1

 41
0.8
 11
-11.91705654530994
 21
36.5
 31
0.0
100
AcDbAttributeDefinition
  3
日付
  2
GEN-TITLE-DAT{3.5}
 70
     0
 74
     2
  0
ATTDEF
  5
5248
330
17CB
100
AcDbEntity
  8
AM_BOR
 62
     2
100
AcDbText
 10
-72.67071073591084
 20
20.00000000000001
 30
0.0
 40
3.0
  1
水 田
 72
     4
 11
-67.63012018472974
 21
21.50000000000002
 31
0.0
100
AcDbAttributeDefinition
  3
製図
  2
SEIZU
 70
     0
  0
ATTDEF
  5
5249
330
17CB
100
AcDbEntity
  8
AM_BOR
 62
     2
100
AcDbText
 10
-31.91705654530995
 20
35.0
 30
0.0
 40
3.0
  1

 11
-31.91705654530995
 21
36.5
 31
0.0
100
AcDbAttributeDefinition
  3
尺度
  2
GEN-TITLE-SCA
 70
     0
 74
     2
  0
LINE
  5
524A
330
17CB
100
AcDbEntity
  8
0
100
AcDbLine
 10
-106.9502221859465
 20
14.71456568209314
 30
0.0
 11
-107.7139711131768
 21
11.16237652835879
 31
0.0
  0
LINE
  5
524B
330
17CB
100
AcDbEntity
  8
0
100
AcDbLine
 10
-107.7139711131768
 20
11.16237652835879
 30
0.0
 11
-107.6697551010107
 21
11.22470827233807
 31
0.0
  0
ELLIPSE
  5
524C
330
17CB
100
AcDbEntity
  8
0
100
AcDbEllipse
 10
-106.5198686826232
 20
9.133166589319488
 30
0.0
 11
0.0200858413762701
 21
2.795177724472429
 31
0.0
210
0.0
220
0.0
230
1.0
 40
0.6250197778053533
 41
-1.051714224928873
 42
0.7298517778971401
1001
GENIUS_GENODEF_13
1002
{
1000
HIER
1070
     0
1002
}
1002
{
1000
MANEDIT
1070
     0
1002
}
1002
{
1000
NOSEL
1070
     0
1002
}
1002
{
1000
BEHIND
1070
     0
1002
}
1002
{
1000
REACTOR
1002
}
1001
GENIUS_GENOBJ-N-FIL_13
1002
{
1000
OWNER
1000
GEN
1002
}
  0
ELLIPSE
  5
524D
330
17CB
100
AcDbEntity
  8
0
100
AcDbEllipse
 10
-105.2984958385996
 20
13.8219417489321
 30
0.0
 11
0.0200858413762916
 21
2.795177724472415
 31
0.0
210
0.0
220
0.0
230
1.0
 40
0.6250197778053527
 41
-1.051714224928867
 42
1.250253596044828
1001
GENIUS_GENODEF_13
1002
{
1000
HIER
1070
     0
1002
}
1002
{
1000
MANEDIT
1070
     0
1002
}
1002
{
1000
NOSEL
1070
     0
1002
}
1002
{
1000
BEHIND
1070
     0
1002
}
1002
{
1000
REACTOR
1002
}
1001
GENIUS_GENOBJ-N-FIL_13
1002
{
1000
OWNER
1000
GEN
1002
}
  0
LINE
  5
524E
330
17CB
100
AcDbEntity
  8
0
100
AcDbLine
 10
-98.48721298302093
 20
8.077457208786752
 30
0.0
 11
-99.45177360188811
 21
4.065819878065248
 31
0.0
  0
ELLIPSE
  5
524F
330
17CB
100
AcDbEntity
  8
0
100
AcDbEllipse
 10
-101.0818809708247
 20
5.053412867376919
 30
0.0
 11
0.0200858413762853
 21
2.795177724472413
 31
0.0
210
0.0
220
0.0
230
1.0
 40
0.6250197778053547
 41
2.089878428660925
 42
4.355766148231805
1001
GENIUS_GENODEF_13
1002
{
1000
HIER
1070
     0
1002
}
1002
{
1000
MANEDIT
1070
     0
1002
}
1002
{
1000
NOSEL
1070
     0
1002
}
1002
{
1000
BEHIND
1070
     0
1002
}
1002
{
1000
REACTOR
1002
}
1001
GENIUS_GENOBJ-N-FIL_13
1002
{
1000
OWNER
1000
GEN
1002
}
  0
LINE
  5
5250
330
17CB
100
AcDbEntity
  8
0
100
AcDbLine
 10
-98.48721298302093
 20
8.077457208786752
 30
0.0
 11
-98.66382720839389
 21
7.801834007856294
 31
0.0
  0
ELLIPSE
  5
5251
330
17CB
100
AcDbEntity
  8
0
100
AcDbEllipse
 10
-99.87931293102301
 20
9.796066964505511
 30
0.0
 11
0.0200858413762724
 21
2.795177724472415
 31
0.0
210
0.0
220
0.0
230
0.9999999999999998
 40
0.6250197778053552
 41
2.08987842866092
 42
3.922474143254961
1001
GENIUS_GENODEF_13
1002
{
1000
HIER
1070
     0
1002
}
1002
{
1000
MANEDIT
1070
     0
1002
}
1002
{
1000
NOSEL
1070
     0
1002
}
1002
{
1000
BEHIND
1070
     0
1002
}
1002
{
1000
REACTOR
1002
}
1001
GENIUS_GENOBJ-N-FIL_13
1002
{
1000
OWNER
1000
GEN
1002
}
  0
HATCH
  5
5252
330
17CB
100
AcDbEntity
  8
AM_8
100
AcDbHatch
 10
0.0
 20
0.0
 30
0.0
210
0.0
220
0.0
230
1.0
  2
SOLID
 70
     1
 71
     0
 91
        1
 92
        1
 93
        2
 72
     3
 10
-106.7638987916396
 20
4.957358478318376
 11
0.0000000000000547
 21
2.56276973145977
 40
0.8333333333333941
 50
-77.14069946214277
 51
264.4007371808275
 73
     1
 72
     3
 10
-106.7638987916396
 20
4.957358478318376
 11
-0.0000000000003928
 21
2.562769731461267
 40
0.8333333333328997
 50
264.4007371808174
 51
282.8593005378472
 73
     1
 97
        0
 75
     0
 76
     1
 98
        1
 10
65.20293740923941
 20
-32.16820874956388
1001
GENIUS_GENODEF_13
1002
{
1000
HIER
1070
     0
1002
}
1002
{
1000
MANEDIT
1070
     0
1002
}
1002
{
1000
NOSEL
1070
     0
1002
}
1002
{
1000
BEHIND
1070
     0
1002
}
1002
{
1000
REACTOR
1002
}
1001
GENIUS_GENOBJ-N-HTC_13
1002
{
1000
OWNER
1000
GEN
1002
}
1001
GENIUS_GENHATCH_13
1002
{
1000
DATA
1040
0.0
1042
0.0015799698758396
1000
SOLID
1070
     0
1011
70.0136537122014
1021
-14.7540192633455
1031
0.0
1002
}
1002
{
1000
UCS
1010
0.0
1020
0.0
1030
0.0
1010
1.0
1020
0.0
1030
0.0
1010
0.0
1020
1.0
1030
0.0
1002
}
  0
ELLIPSE
  5
5253
330
17CB
100
AcDbEntity
  8
0
100
AcDbEllipse
 10
-106.7638987916396
 20
4.957358478318417
 30
0.0
 11
0.0000000000000006
 21
2.562769731459943
 31
0.0
210
0.0
220
0.0
230
1.0
 40
0.8333333333333353
 41
-1.570796326794896
 42
4.712388980384689
  0
HATCH
  5
5254
330
17CB
100
AcDbEntity
  8
AM_8
100
AcDbHatch
 10
0.0
 20
0.0
 30
0.0
210
0.0
220
0.0
230
1.0
  2
SOLID
 70
     1
 71
     0
 91
        1
 92
        1
 93
       10
 72
     1
 10
-106.9502221859465
 20
14.71456568209311
 11
-107.7139711131768
 21
11.16237652835879
 72
     1
 10
-107.7139711131768
 20
11.16237652835879
 11
-107.6697551010108
 21
11.22470827233809
 72
     3
 10
-106.5198686826232
 20
9.133166589319488
 11
0.0200858413762859
 21
2.795177724472421
 40
0.6250197778053525
 50
-29.21280058452436
 51
47.56891328106517
 73
     0
 72
     1
 10
-104.9929922696577
 20
10.5089073790986
 11
-102.6087573837903
 21
3.677672077597827
 72
     3
 10
-101.0818809708247
 20
5.053412867376919
 11
0.0200858413762844
 21
2.79517772447242
 40
0.625019777805353
 50
132.4310867189347
 51
239.202331800838
 73
     1
 72
     1
 10
-99.45177360188809
 20
4.065819878065248
 11
-98.48721298302093
 21
8.077457208786761
 72
     1
 10
-98.48721298302095
 20
8.077457208786752
 11
-98.66382720839393
 21
7.801834007856288
 72
     3
 10
-99.87931293102301
 20
9.796066964505511
 11
0.0200858413762811
 21
2.795177724472416
 40
0.6250197778053536
 50
148.2259629226598
 51
227.5689132810653
 73
     0
 72
     1
 10
-101.4061893439886
 20
8.420326174726406
 11
-103.771619425634
 21
15.19768253871121
 72
     3
 10
-105.2984958385996
 20
13.8219417489321
 11
0.02008584137625
 21
2.795177724472417
 40
0.6250197778053583
 50
-47.56891328106589
 51
62.02409398278944
 73
     1
 97
        0
 75
     0
 76
     1
 98
        1
 10
65.20293740923941
 20
-32.16820874956388
1001
GENIUS_GENODEF_13
1002
{
1000
HIER
1070
     0
1002
}
1002
{
1000
MANEDIT
1070
     0
1002
}
1002
{
1000
NOSEL
1070
     0
1002
}
1002
{
1000
BEHIND
1070
     0
1002
}
1002
{
1000
REACTOR
1002
}
1001
GENIUS_GENOBJ-N-HTC_13
1002
{
1000
OWNER
1000
GEN
1002
}
1001
GENIUS_GENHATCH_13
1002
{
1000
DATA
1040
0.0
1042
0.0015799698758396
1000
SOLID
1070
     0
1011
74.07735655451816
1021
-11.90112763631223
1031
0.0
1002
}
1002
{
1000
UCS
1010
0.0
1020
0.0
1030
0.0
1010
1.0
1020
0.0
1030
0.0
1010
0.0
1020
1.0
1030
0.0
1002
}
  0
LINE
  5
5255
330
17CB
100
AcDbEntity
  8
0
100
AcDbLine
 10
-104.9929922696577
 20
10.5089073790986
 30
0.0
 11
-102.6087573837903
 21
3.677672077597847
 31
0.0
  0
LINE
  5
5256
330
17CB
100
AcDbEntity
  8
0
100
AcDbLine
 10
-101.4061893439886
 20
8.420326174726406
 30
0.0
 11
-103.771619425634
 21
15.1976825387112
 31
0.0
  0
TEXT
  5
5257
330
17CB
100
AcDbEntity
  8
0
100
AcDbText
 10
-92.04358977334541
 20
2.736280326823534
 30
0.0
 40
1.397647058823528
  1
ASOH　CO.,LTD.
 41
2.222222222222219
  7
ｽﾀｲﾙ1
100
AcDbText
  0
TEXT
  5
5258
330
17CB
100
AcDbEntity
  8
0
100
AcDbText
 10
-96.37601713265375
 20
7.065690057310197
 30
0.0
 40
9.355420606948992
  1
アソー株式会社
 41
0.4444444444444381
  7
ｽﾀｲﾙ1
100
AcDbText
  0
ATTDEF
  5
5259
330
17CB
100
AcDbEntity
  8
AM_BOR
 62
     2
100
AcDbText
 10
-100.6087961583518
 20
20.29902073441097
 30
0.0
 40
3.0
  1
水 田
 72
     4
 11
-94.50320560717072
 21
21.79902073441097
 31
0.0
100
AcDbAttributeDefinition
  3
設計
  2
SEKKEI
 70
     0
  0
ATTDEF
  5
525A
330
17CB
100
AcDbEntity
  8
AM_BOR
 62
     2
100
AcDbText
 10
-101.5824602549398
 20
27.05583171251668
 30
0.0
 40
3.0
  1
水 田
 72
     4
 11
-93.8418697037587
 21
28.55583171251668
 31
0.0
100
AcDbAttributeDefinition
  3
承認
  2
SYOUNIN
 70
     0
  0
ATTDEF
  5
525B
330
17CB
100
AcDbEntity
  8
AM_BOR
 62
     2
100
AcDbText
 10
-74.6993697037587
 20
27.05583171251668
 30
0.0
 40
3.0
  1
水 田
 72
     4
 11
-68.8418697037587
 21
28.55583171251668
 31
0.0
100
AcDbAttributeDefinition
  3
検図
  2
KENZU
 70
     0
  0
ATTDEF
  5
525C
330
17CB
100
AcDbEntity
  8
AM_BOR
 62
     2
100
AcDbText
 10
-34.75927375716205
 20
26.23523221998006
 30
0.0
 40
2.5
  1

 72
     4
 11
-28.88427375716205
 21
27.48523221998006
 31
0.0
100
AcDbAttributeDefinition
  3
材質
  2
ZAISITU
 70
     0
  0
ATTDEF
  5
525D
330
17CB
100
AcDbEntity
  8
AM_BOR
 62
     2
100
AcDbText
 10
-33.26552375716205
 20
19.24352515660298
 30
0.0
 40
2.5
  1

 72
     4
 11
-28.88427375716205
 21
20.49352515660299
 31
0.0
100
AcDbAttributeDefinition
  3
備考
  2
BIKOU
 70
     0
  0
ENDBLK
  5
1800
330
17CB
100
AcDbEntity
  8
0
100
AcDbBlockEnd
  0
BLOCK
  5
40D0
330
40CF
100
AcDbEntity
  8
0
100
AcDbBlockBegin
  2
_None
 70
     0
 10
0.0
 20
0.0
 30
0.0
  3
_None
  1

  0
ENDBLK
  5
40D1
330
40CF
100
AcDbEntity
  8
0
100
AcDbBlockEnd
  0
BLOCK
  5
44B1
330
44AD
100
AcDbEntity
  8
0
100
AcDbBlockBegin
  2
A$C7E273EC7
 70
     0
 10
0.0
 20
0.0
 30
0.0
  3
A$C7E273EC7
  1

  0
LINE
  5
44AE
330
44AD
100
AcDbEntity
  8
0
100
AcDbLine
 10
10.24999999999997
 20
15.00000000000006
 30
0.0
 11
-10.25000000000003
 21
15.0
 31
0.0
  0
ENDBLK
  5
44B2
330
44AD
100
AcDbEntity
  8
0
100
AcDbBlockEnd
  0
BLOCK
  5
4EEA
330
4ED4
100
AcDbEntity
  8
0
100
AcDbBlockBegin
  2
A$C0FBD0FB6
 70
     0
 10
0.0
 20
0.0
 30
0.0
  3
A$C0FBD0FB6
  1

  0
LINE
  5
4ED5
330
4ED4
100
AcDbEntity
  8
0
100
AcDbLine
 10
-24.00000000000006
 20
12.00000000000011
 30
0.0
 11
-24.00000000000006
 21
0.0000000000001137
 31
0.0
  0
LINE
  5
4ED6
330
4ED4
100
AcDbEntity
  8
0
100
AcDbLine
 10
-0.4850712500726786
 20
8.871267812518169
 30
0.0
 11
-11.99999999999994
 21
11.75000000000011
 31
0.0
  0
LINE
  5
4ED7
330
4ED4
100
AcDbEntity
  8
0
100
AcDbLine
 10
0.0
 20
8.249999999999943
 30
0.0
 11
0.0
 21
0.0
 31
0.0
  0
LINE
  5
4ED8
330
4ED4
100
AcDbEntity
  8
0
100
AcDbLine
 10
0.0
 20
8.249999999999943
 30
0.0
 11
-0.4850712500726786
 21
8.871267812518169
 31
0.0
1001
GENIUS_GENFIL_13
1070
     0
1040
0.5
1040
0.5
1040
0.4999999999999148
1040
37.98187826603592
1000
~T
  0
LINE
  5
4ED9
330
4ED4
100
AcDbEntity
  8
0
100
AcDbLine
 10
-0.4850712500726786
 20
-8.871267812518169
 30
0.0
 11
-11.99999999999994
 21
-11.75000000000011
 31
0.0
  0
LINE
  5
4EDA
330
4ED4
100
AcDbEntity
  8
0
100
AcDbLine
 10
0.0
 20
-8.249999999999943
 30
0.0
 11
0.0
 21
0.0
 31
0.0
  0
LINE
  5
4EDB
330
4ED4
100
AcDbEntity
  8
0
100
AcDbLine
 10
0.0
 20
-8.249999999999943
 30
0.0
 11
-0.4850712500726786
 21
-8.871267812518169
 31
0.0
1001
GENIUS_GENFIL_13
1070
     0
1040
0.5
1040
0.5
1040
0.4999999999999148
1040
37.98187826603592
1000
~T
  0
LINE
  5
4EDC
330
4ED4
100
AcDbEntity
  8
0
100
AcDbLine
 10
-0.4850712500726786
 20
-8.871267812518169
 30
0.0
 11
-0.4850712500726786
 21
0.0000000000000568
 31
0.0
  0
LINE
  5
4EDD
330
4ED4
100
AcDbEntity
  8
0
100
AcDbLine
 10
-11.99999999999988
 20
12.00000000000011
 30
0.0
 11
-11.99999999999988
 21
0.0000000000001137
 31
0.0
  0
LINE
  5
4EDE
330
4ED4
100
AcDbEntity
  8
0
100
AcDbLine
 10
-11.99999999999988
 20
12.00000000000011
 30
0.0
 11
-24.00000000000006
 21
12.00000000000011
 31
0.0
  0
ARC
  5
4EDF
330
4ED4
100
AcDbEntity
  8
0
100
AcDbCircle
 10
-29.33012701891971
 20
6.000000000000113
 30
0.0
 40
17.33012701891988
100
AcDbArc
 50
339.7438419995794
 51
20.25615800042054
  0
ARC
  5
4EE0
330
4ED4
100
AcDbEntity
  8
0
100
AcDbCircle
 10
-6.669872981080175
 20
6.000000000000113
 30
0.0
 40
17.33012701891988
100
AcDbArc
 50
159.7438419995794
 51
200.2561580004205
  0
LINE
  5
4EE1
330
4ED4
100
AcDbEntity
  8
0
100
AcDbLine
 10
-24.00000000000029
 20
-11.99999999999966
 30
0.0
 11
-24.00000000000006
 21
0.0000000000003411
 31
0.0
  0
LINE
  5
4EE2
330
4ED4
100
AcDbEntity
  8
0
100
AcDbLine
 10
-12.00000000000011
 20
-11.99999999999988
 30
0.0
 11
-11.99999999999988
 21
0.0000000000001137
 31
0.0
  0
LINE
  5
4EE3
330
4ED4
100
AcDbEntity
  8
0
100
AcDbLine
 10
-12.00000000000011
 20
-11.99999999999988
 30
0.0
 11
-24.00000000000029
 21
-11.99999999999966
 31
0.0
  0
ARC
  5
4EE4
330
4ED4
100
AcDbEntity
  8
0
100
AcDbCircle
 10
-29.33012701891982
 20
-5.999999999999545
 30
0.0
 40
17.33012701891988
100
AcDbArc
 50
339.7438419995794
 51
20.25615800041636
  0
ARC
  5
4EE5
330
4ED4
100
AcDbEntity
  8
0
100
AcDbCircle
 10
-6.669872981080288
 20
-6.0
 30
0.0
 40
17.33012701891988
100
AcDbArc
 50
159.7438419995794
 51
200.2561580004163
  0
LINE
  5
4EE6
330
4ED4
100
AcDbEntity
  8
0
100
AcDbLine
 10
-22.9282032302753
 20
-0.0000000000002842
 30
0.0
 11
-13.07179676972441
 21
-0.0000000000002274
 31
0.0
  0
LINE
  5
4EE7
330
4ED4
100
AcDbEntity
  8
0
100
AcDbLine
 10
-0.4850712500726786
 20
8.871267812518169
 30
0.0
 11
-0.4850712500726786
 21
0.0000000000000568
 31
0.0
  0
ENDBLK
  5
4EEB
330
4ED4
100
AcDbEntity
  8
0
100
AcDbBlockEnd
  0
BLOCK
  5
55DC
330
55DB
100
AcDbEntity
  8
0
100
AcDbBlockBegin
  2
*D13
 70
     1
 10
0.0
 20
0.0
 30
0.0
  3
*D13
  1

  0
LINE
  5
6B54
330
55DB
100
AcDbEntity
  8
AM_5
  6
ByBlock
100
AcDbLine
 10
359.4700202960288
 20
232.22625054762
 30
0.0
 11
369.8294151002055
 21
232.22625054762
 31
0.0
  0
LINE
  5
6B55
330
55DB
100
AcDbEntity
  8
AM_5
  6
ByBlock
100
AcDbLine
 10
364.3670202960287
 20
207.2262505476204
 30
0.0
 11
369.8294151002055
 21
207.2262505476204
 31
0.0
  0
LINE
  5
6B56
330
55DB
100
AcDbEntity
  8
AM_5
  6
ByBlock
100
AcDbLine
 10
369.3294151002056
 20
230.97625054762
 30
0.0
 11
369.3294151002056
 21
208.4762505476204
 31
0.0
  0
INSERT
  5
6B57
330
55DB
100
AcDbEntity
  8
AM_5
100
AcDbBlockReference
  2
_Open30
 10
369.3294151002056
 20
232.22625054762
 30
0.0
 41
1.25
 42
1.25
 43
1.25
 50
90.0
  0
INSERT
  5
6B58
330
55DB
100
AcDbEntity
  8
AM_5
100
AcDbBlockReference
  2
_Open30
 10
369.3294151002056
 20
207.2262505476204
 30
0.0
 41
1.25
 42
1.25
 43
1.25
 50
270.0
  0
MTEXT
  5
6B59
330
55DB
100
AcDbEntity
  8
AM_5
 62
     2
100
AcDbMText
 10
367.704242856111
 20
219.7262505476202
 30
0.0
 40
1.75
 41
0.0
 71
     5
 72
     1
  1
25
 11
0.0000000000000001
 21
1.0
 31
0.0
 73
     1
 44
1.0
1001
ACAD
1000
MTEXTBEGIN
1070
    73
1070
     1
1070
    44
1040
1.0
1070
    74
1070
     0
1000
MTEXTEND
  0
POINT
  5
6B5A
330
55DB
100
AcDbEntity
  8
Defpoints
 62
     0
100
AcDbPoint
 10
358.9700202960288
 20
232.22625054762
 30
0.0
  0
POINT
  5
6B5B
330
55DB
100
AcDbEntity
  8
Defpoints
 62
     0
100
AcDbPoint
 10
363.8670202960287
 20
207.2262505476204
 30
0.0
  0
POINT
  5
6B5C
330
55DB
100
AcDbEntity
  8
Defpoints
 62
     0
100
AcDbPoint
 10
369.3294151002056
 20
207.2262505476204
 30
0.0
  0
ENDBLK
  5
55DD
330
55DB
100
AcDbEntity
  8
0
100
AcDbBlockEnd
  0
BLOCK
  5
57C8
330
57C7
100
AcDbEntity
  8
0
100
AcDbBlockBegin
  2
*D15
 70
     1
 10
0.0
 20
0.0
 30
0.0
  3
*D15
  1

  0
LINE
  5
6B81
330
57C7
100
AcDbEntity
  8
AM_5
  6
ByBlock
100
AcDbLine
 10
315.9279453750573
 20
281.5389247955023
 30
0.0
 11
315.9279453750573
 21
290.8908403439168
 31
0.0
  0
LINE
  5
6B82
330
57C7
100
AcDbEntity
  8
AM_5
  6
ByBlock
100
AcDbLine
 10
283.6019453750567
 20
283.9699089972008
 30
0.0
 11
283.6019453750567
 21
290.8908403439168
 31
0.0
  0
LINE
  5
6B83
330
57C7
100
AcDbEntity
  8
AM_5
  6
ByBlock
100
AcDbLine
 10
314.6779453750573
 20
290.3908403439168
 30
0.0
 11
284.8519453750567
 21
290.3908403439168
 31
0.0
  0
INSERT
  5
6B84
330
57C7
100
AcDbEntity
  8
AM_5
100
AcDbBlockReference
  2
_Open30
 10
315.9279453750573
 20
290.3908403439168
 30
0.0
 41
1.25
 42
1.25
 43
1.25
  0
INSERT
  5
6B85
330
57C7
100
AcDbEntity
  8
AM_5
100
AcDbBlockReference
  2
_Open30
 10
283.6019453750567
 20
290.3908403439168
 30
0.0
 41
1.25
 42
1.25
 43
1.25
 50
180.0
  0
MTEXT
  5
6B86
330
57C7
100
AcDbEntity
  8
AM_5
 62
     2
100
AcDbMText
 10
299.764945375057
 20
292.0160125880113
 30
0.0
 40
1.75
 41
0.0
 71
     5
 72
     1
  1
32
 73
     1
 44
1.0
1001
ACAD
1000
MTEXTBEGIN
1070
    73
1070
     1
1070
    44
1040
1.0
1070
    74
1070
     0
1000
MTEXTEND
  0
POINT
  5
6B87
330
57C7
100
AcDbEntity
  8
Defpoints
 62
     0
100
AcDbPoint
 10
315.9279453750573
 20
281.0389247955023
 30
0.0
  0
POINT
  5
6B88
330
57C7
100
AcDbEntity
  8
Defpoints
 62
     0
100
AcDbPoint
 10
283.6019453750567
 20
283.4699089972009
 30
0.0
  0
POINT
  5
6B89
330
57C7
100
AcDbEntity
  8
Defpoints
 62
     0
100
AcDbPoint
 10
283.6019453750567
 20
290.3908403439168
 30
0.0
  0
ENDBLK
  5
57C9
330
57C7
100
AcDbEntity
  8
0
100
AcDbBlockEnd
  0
BLOCK
  5
5B0B
330
5B0A
100
AcDbEntity
  8
0
100
AcDbBlockBegin
  2
*D17
 70
     1
 10
0.0
 20
0.0
 30
0.0
  3
*D17
  1

  0
LINE
  5
6B78
330
5B0A
100
AcDbEntity
  8
AM_5
  6
ByBlock
100
AcDbLine
 10
251.2759453750557
 20
281.5389247955023
 30
0.0
 11
251.2759453750557
 21
290.8908403439168
 31
0.0
  0
LINE
  5
6B79
330
5B0A
100
AcDbEntity
  8
AM_5
  6
ByBlock
100
AcDbLine
 10
283.6019453750567
 20
283.9699089972008
 30
0.0
 11
283.6019453750567
 21
290.8908403439168
 31
0.0
  0
LINE
  5
6B7A
330
5B0A
100
AcDbEntity
  8
AM_5
  6
ByBlock
100
AcDbLine
 10
252.5259453750557
 20
290.3908403439168
 30
0.0
 11
282.3519453750567
 21
290.3908403439168
 31
0.0
  0
INSERT
  5
6B7B
330
5B0A
100
AcDbEntity
  8
AM_5
100
AcDbBlockReference
  2
_Open30
 10
251.2759453750557
 20
290.3908403439168
 30
0.0
 41
1.25
 42
1.25
 43
1.25
 50
180.0
  0
INSERT
  5
6B7C
330
5B0A
100
AcDbEntity
  8
AM_5
100
AcDbBlockReference
  2
_Open30
 10
283.6019453750567
 20
290.3908403439168
 30
0.0
 41
1.25
 42
1.25
 43
1.25
  0
MTEXT
  5
6B7D
330
5B0A
100
AcDbEntity
  8
AM_5
 62
     2
100
AcDbMText
 10
267.4389453750562
 20
292.0160125880113
 30
0.0
 40
1.75
 41
0.0
 71
     5
 72
     1
  1
32
 73
     1
 44
1.0
1001
ACAD
1000
MTEXTBEGIN
1070
    73
1070
     1
1070
    44
1040
1.0
1070
    74
1070
     0
1000
MTEXTEND
  0
POINT
  5
6B7E
330
5B0A
100
AcDbEntity
  8
Defpoints
 62
     0
100
AcDbPoint
 10
251.2759453750557
 20
281.0389247955023
 30
0.0
  0
POINT
  5
6B7F
330
5B0A
100
AcDbEntity
  8
Defpoints
 62
     0
100
AcDbPoint
 10
283.6019453750567
 20
283.4699089972009
 30
0.0
  0
POINT
  5
6B80
330
5B0A
100
AcDbEntity
  8
Defpoints
 62
     0
100
AcDbPoint
 10
283.6019453750567
 20
290.3908403439168
 30
0.0
  0
ENDBLK
  5
5B0C
330
5B0A
100
AcDbEntity
  8
0
100
AcDbBlockEnd
  0
BLOCK
  5
5B21
330
5B20
100
AcDbEntity
  8
0
100
AcDbBlockBegin
  2
*D18
 70
     1
 10
0.0
 20
0.0
 30
0.0
  3
*D18
  1

  0
LINE
  5
60A7
330
5B20
100
AcDbEntity
  8
AM_5
  6
ByBlock
100
AcDbLine
 10
315.9279453750573
 20
285.584737654897
 30
0.0
 11
315.9279453750573
 21
294.9366532033115
 31
0.0
  0
LINE
  5
60A8
330
5B20
100
AcDbEntity
  8
AM_5
  6
ByBlock
100
AcDbLine
 10
251.2759453750556
 20
281.538924795502
 30
0.0
 11
251.2759453750556
 21
294.9366532033115
 31
0.0
  0
LINE
  5
60A9
330
5B20
100
AcDbEntity
  8
AM_5
  6
ByBlock
100
AcDbLine
 10
314.6779453750573
 20
294.4366532033115
 30
0.0
 11
252.5259453750556
 21
294.4366532033115
 31
0.0
  0
INSERT
  5
60AA
330
5B20
100
AcDbEntity
  8
AM_5
100
AcDbBlockReference
  2
_Open30
 10
315.9279453750573
 20
294.4366532033115
 30
0.0
 41
1.25
 42
1.25
 43
1.25
  0
INSERT
  5
60AB
330
5B20
100
AcDbEntity
  8
AM_5
100
AcDbBlockReference
  2
_Open30
 10
251.2759453750556
 20
294.4366532033115
 30
0.0
 41
1.25
 42
1.25
 43
1.25
 50
180.0
  0
MTEXT
  5
60AC
330
5B20
100
AcDbEntity
  8
AM_5
 62
     2
100
AcDbMText
 10
283.6019453750564
 20
296.0616532033115
 30
0.0
 40
1.75
 41
0.0
 71
     5
 72
     1
  1
64
 73
     1
 44
1.0
1001
ACAD
1000
MTEXTBEGIN
1070
    73
1070
     1
1070
    44
1040
1.0
1070
    74
1070
     0
1000
MTEXTEND
  0
POINT
  5
60AD
330
5B20
100
AcDbEntity
  8
Defpoints
 62
     0
100
AcDbPoint
 10
315.9279453750573
 20
285.084737654897
 30
0.0
  0
POINT
  5
60AE
330
5B20
100
AcDbEntity
  8
Defpoints
 62
     0
100
AcDbPoint
 10
251.2759453750556
 20
281.038924795502
 30
0.0
  0
POINT
  5
60AF
330
5B20
100
AcDbEntity
  8
Defpoints
 62
     0
100
AcDbPoint
 10
251.2759453750556
 20
294.4366532033115
 30
0.0
  0
ENDBLK
  5
5B22
330
5B20
100
AcDbEntity
  8
0
100
AcDbBlockEnd
  0
BLOCK
  5
5DEF
330
5DEE
100
AcDbEntity
  8
0
100
AcDbBlockBegin
  2
*D19
 70
     1
 10
0.0
 20
0.0
 30
0.0
  3
*D19
  1

  0
LINE
  5
5E03
330
5DEE
100
AcDbEntity
  8
AM_5
  6
ByBlock
100
AcDbLine
 10
261.7759453750555
 20
284.038924795502
 30
0.0
 11
245.9636853551979
 21
284.038924795502
 31
0.0
  0
LINE
  5
5E04
330
5DEE
100
AcDbEntity
  8
AM_5
  6
ByBlock
100
AcDbLine
 10
261.7759453750555
 20
263.0389247955022
 30
0.0
 11
245.9636853551979
 21
263.0389247955022
 31
0.0
  0
LINE
  5
5E05
330
5DEE
100
AcDbEntity
  8
AM_5
  6
ByBlock
100
AcDbLine
 10
246.4636853551979
 20
282.7889247955019
 30
0.0
 11
246.4636853551979
 21
264.2889247955022
 31
0.0
  0
INSERT
  5
5E06
330
5DEE
100
AcDbEntity
  8
AM_5
100
AcDbBlockReference
  2
_Open30
 10
246.4636853551979
 20
284.038924795502
 30
0.0
 41
1.25
 42
1.25
 43
1.25
 50
90.0
  0
INSERT
  5
5E07
330
5DEE
100
AcDbEntity
  8
AM_5
100
AcDbBlockReference
  2
_Open30
 10
246.4636853551979
 20
263.0389247955022
 30
0.0
 41
1.25
 42
1.25
 43
1.25
 50
270.0
  0
MTEXT
  5
5E08
330
5DEE
100
AcDbEntity
  8
AM_5
 62
     2
100
AcDbMText
 10
244.8385131111034
 20
273.5389247955021
 30
0.0
 40
1.75
 41
0.0
 71
     5
 72
     1
  1
HEX 21
 11
0.0000000000000001
 21
1.0
 31
0.0
 73
     1
 44
1.0
1001
ACAD
1000
MTEXTBEGIN
1070
    73
1070
     1
1070
    44
1040
1.0
1070
    74
1070
     0
1000
MTEXTEND
  0
POINT
  5
5E09
330
5DEE
100
AcDbEntity
  8
Defpoints
 62
     0
100
AcDbPoint
 10
262.2759453750555
 20
284.038924795502
 30
0.0
  0
POINT
  5
5E0A
330
5DEE
100
AcDbEntity
  8
Defpoints
 62
     0
100
AcDbPoint
 10
262.2759453750555
 20
263.0389247955022
 30
0.0
  0
POINT
  5
5E0B
330
5DEE
100
AcDbEntity
  8
Defpoints
 62
     0
100
AcDbPoint
 10
246.4636853551979
 20
263.0389247955022
 30
0.0
  0
ENDBLK
  5
5DF0
330
5DEE
100
AcDbEntity
  8
0
100
AcDbBlockEnd
  0
BLOCK
  5
5F9A
330
5F92
100
AcDbEntity
  8
0
100
AcDbBlockBegin
  2
*S20
 70
     1
 10
0.0
 20
0.0
 30
0.0
  3
*S20
  1

  0
LINE
  5
5F93
330
5F92
100
AcDbEntity
  8
AM_5
 62
     3
100
AcDbLine
 10
238.7632026751844
 20
197.6096474303919
 30
0.0
 11
248.854629732892
 21
197.6096474303919
 31
0.0
  0
LINE
  5
5F94
330
5F92
100
AcDbEntity
  8
AM_5
 62
     3
100
AcDbLine
 10
248.854629732892
 20
197.6096474303919
 30
0.0
 11
250.2166060053055
 21
197.6096474303919
 31
0.0
  0
LINE
  5
5F95
330
5F92
100
AcDbEntity
  8
AM_5
 62
     3
100
AcDbLine
 10
250.2166060053055
 20
197.6096474303919
 30
0.0
 11
248.2030316395729
 21
201.0972605366589
 31
0.0
  0
LINE
  5
5F96
330
5F92
100
AcDbEntity
  8
AM_5
  6
Continuous
 62
     3
100
AcDbLine
 10
248.2030316395729
 20
201.0972605366589
 30
0.0
 11
247.4155316395729
 21
202.4612505476194
 31
0.0
  0
LINE
  5
5F97
330
5F92
100
AcDbEntity
  8
AM_5
  6
Continuous
 62
     3
100
AcDbLine
 10
248.3826043303989
 20
201.2009368780464
 30
0.0
 11
247.4155316395729
 21
202.4612505476194
 31
0.0
  0
LINE
  5
5F98
330
5F92
100
AcDbEntity
  8
AM_5
  6
Continuous
 62
     3
100
AcDbLine
 10
247.4155316395729
 20
202.4612505476194
 30
0.0
 11
248.0234589487469
 21
200.9935841952714
 31
0.0
  0
MTEXT
  5
5F99
330
5F92
100
AcDbEntity
  8
AM_5
 62
     2
100
AcDbMText
 10
238.7632026751844
 20
198.3971474303919
 30
0.0
 40
1.575
 41
0.0
 71
     7
 72
     5
  1
適用管外径
  7
ACJISTS
 73
     1
 44
1.0
1001
ACAD
1000
MTEXTBEGIN
1070
    73
1070
     1
1070
    44
1040
1.0
1070
    74
1070
     0
1000
MTEXTEND
  0
ENDBLK
  5
5F9B
330
5F92
100
AcDbEntity
  8
0
100
AcDbBlockEnd
  0
BLOCK
  5
5FA4
330
5F9D
100
AcDbEntity
  8
0
100
AcDbBlockBegin
  2
*S21
 70
     1
 10
0.0
 20
0.0
 30
0.0
  3
*S21
  1

  0
LINE
  5
5F9E
330
5F9D
100
AcDbEntity
  8
AM_5
 62
     3
100
AcDbLine
 10
254.5286303035841
 20
225.8752910857538
 30
0.0
 11
265.2386303035842
 21
225.8752910857537
 31
0.0
  0
LINE
  5
5F9F
330
5F9D
100
AcDbEntity
  8
AM_5
 62
     3
100
AcDbLine
 10
265.2386303035842
 20
225.8752910857537
 30
0.0
 11
267.6182429845346
 21
216.68843292715
 31
0.0
  0
LINE
  5
5FA0
330
5F9D
100
AcDbEntity
  8
AM_5
  6
Continuous
 62
     3
100
AcDbLine
 10
267.6182429845346
 20
216.68843292715
 30
0.0
 11
268.0131716382825
 21
215.1637505476201
 31
0.0
  0
LINE
  5
5FA1
330
5F9D
100
AcDbEntity
  8
AM_5
  6
Continuous
 62
     3
100
AcDbLine
 10
267.4175147421375
 20
216.6364395837472
 30
0.0
 11
268.0131716382825
 21
215.1637505476201
 31
0.0
  0
LINE
  5
5FA2
330
5F9D
100
AcDbEntity
  8
AM_5
  6
Continuous
 62
     3
100
AcDbLine
 10
268.0131716382825
 20
215.1637505476201
 30
0.0
 11
267.8189712269316
 21
216.7404262705527
 31
0.0
  0
MTEXT
  5
5FA3
330
5F9D
100
AcDbEntity
  8
AM_5
 62
     2
100
AcDbMText
 10
254.5286303035842
 20
226.6752910857538
 30
0.0
 40
1.575
 41
0.0
 71
     7
 72
     5
  1
UNF 5/8-18
  7
ACJISTS
 73
     1
 44
1.0
1001
ACAD
1000
MTEXTBEGIN
1070
    73
1070
     1
1070
    44
1040
1.0
1070
    74
1070
     0
1000
MTEXTEND
  0
ENDBLK
  5
5FA5
330
5F9D
100
AcDbEntity
  8
0
100
AcDbBlockEnd
  0
BLOCK
  5
663B
330
661B
100
AcDbEntity
  8
0
100
AcDbBlockBegin
  2
A$C20C144CA
 70
     0
 10
0.0
 20
0.0
 30
0.0
  3
A$C20C144CA
  1

  0
LINE
  5
661C
330
661B
100
AcDbEntity
  8
0
100
AcDbLine
 10
7.000000000000113
 20
10.0
 30
0.0
 11
7.000000000000113
 21
8.08290376865483
 31
0.0
  0
LINE
  5
661D
330
661B
100
AcDbEntity
  8
0
100
AcDbLine
 10
-6.999999999999772
 20
8.082903768654887
 30
0.0
 11
-7.0
 21
10.0
 31
0.0
  0
LINE
  5
661E
330
661B
100
AcDbEntity
  8
0
100
AcDbLine
 10
-6.000000000000113
 20
11.99999999999994
 30
0.0
 11
-6.381966011250142
 21
11.99999999999994
 31
0.0
  0
LINE
  5
661F
330
661B
100
AcDbEntity
  8
0
100
AcDbLine
 10
-0.0000000000001137
 20
24.0
 30
0.0
 11
-5.250000000000113
 21
23.99999999999995
 31
0.0
  0
LINE
  5
6620
330
661B
100
AcDbEntity
  8
0
100
AcDbLine
 10
-5.250000000000113
 20
24.0
 30
0.0
 11
-6.455962114180124
 21
21.91121234623699
 31
0.0
  0
LINE
  5
6621
330
661B
100
AcDbEntity
  8
AM_4
100
AcDbLine
 10
-5.550536656975282
 20
23.47945524058212
 30
0.0
 11
-5.909269633243525
 21
12.0
 31
0.0
  0
LINE
  5
6622
330
661B
100
AcDbEntity
  8
0
100
AcDbLine
 10
-6.455962114180124
 20
21.91121234623699
 30
0.0
 11
-6.828187500000012
 21
10.0
 31
0.0
  0
LINE
  5
6623
330
661B
100
AcDbEntity
  8
0
100
AcDbLine
 10
-5.909269633243525
 20
12.0
 30
0.0
 11
-6.555210595464814
 21
12.0
 31
0.0
  0
LINE
  5
6624
330
661B
100
AcDbEntity
  8
0
100
AcDbLine
 10
-6.455962114180124
 20
21.91121234623694
 30
0.0
 11
-0.0000000000001137
 21
21.91121234623694
 31
0.0
  0
LINE
  5
6625
330
661B
100
AcDbEntity
  8
0
100
AcDbLine
 10
6.45596211418001
 20
21.91121234623694
 30
0.0
 11
-0.0000000000001137
 21
21.91121234623694
 31
0.0
  0
LINE
  5
6626
330
661B
100
AcDbEntity
  8
0
100
AcDbLine
 10
5.249999999999886
 20
24.0
 30
0.0
 11
6.45596211418001
 21
21.91121234623699
 31
0.0
  0
LINE
  5
6627
330
661B
100
AcDbEntity
  8
0
100
AcDbLine
 10
-0.0000000000001137
 20
24.0
 30
0.0
 11
5.249999999999886
 21
23.99999999999995
 31
0.0
  0
LINE
  5
6628
330
661B
100
AcDbEntity
  8
0
100
AcDbLine
 10
-0.2153903091756319
 20
11.99999999999875
 30
0.0
 11
-6.765687500000012
 21
12.00000000000011
 31
0.0
  0
LINE
  5
6629
330
661B
100
AcDbEntity
  8
AM_4
100
AcDbLine
 10
-5.909269633243525
 20
12.0
 30
0.0
 11
-6.828187500000012
 21
10.0
 31
0.0
  0
LINE
  5
662A
330
661B
100
AcDbEntity
  8
0
100
AcDbLine
 10
-3.679491924311264
 20
10.0
 30
0.0
 11
-7.0
 21
10.0
 31
0.0
  0
LINE
  5
662B
330
661B
100
AcDbEntity
  8
0
100
AcDbLine
 10
6.000000000000113
 20
11.99999999999994
 30
0.0
 11
6.381966011250256
 21
11.99999999999994
 31
0.0
  0
LINE
  5
662C
330
661B
100
AcDbEntity
  8
AM_4
100
AcDbLine
 10
5.550536656975282
 20
23.47945524058212
 30
0.0
 11
5.909269633243525
 21
12.0
 31
0.0
  0
LINE
  5
662D
330
661B
100
AcDbEntity
  8
0
100
AcDbLine
 10
6.455962114180238
 20
21.91121234623699
 30
0.0
 11
6.828187500000126
 21
10.0
 31
0.0
  0
LINE
  5
662E
330
661B
100
AcDbEntity
  8
0
100
AcDbLine
 10
5.909269633243525
 20
12.0
 30
0.0
 11
6.555210595464927
 21
12.0
 31
0.0
  0
LINE
  5
662F
330
661B
100
AcDbEntity
  8
0
100
AcDbLine
 10
0.2153903091757456
 20
11.99999999999875
 30
0.0
 11
6.765687500000126
 21
12.00000000000011
 31
0.0
  0
LINE
  5
6630
330
661B
100
AcDbEntity
  8
AM_4
100
AcDbLine
 10
5.909269633243525
 20
12.0
 30
0.0
 11
6.828187500000126
 21
10.0
 31
0.0
  0
LINE
  5
6631
330
661B
100
AcDbEntity
  8
0
100
AcDbLine
 10
3.679491924311378
 20
10.0
 30
0.0
 11
7.0
 21
10.0
 31
0.0
  0
LINE
  5
6632
330
661B
100
AcDbEntity
  8
AM_11
100
AcDbLine
 10
-7.97550000000001
 20
17.98999999999998
 30
0.0
 11
7.975500000000124
 21
17.98999999999998
 31
0.0
1001
GENIUS_GENODEF_13
1002
{
1000
HIER
1070
     0
1002
}
1002
{
1000
MANEDIT
1070
     0
1002
}
1002
{
1000
NOSEL
1070
     0
1002
}
1002
{
1000
BEHIND
1070
     0
1002
}
1002
{
1000
OTHER
1070
     0
1002
}
1002
{
1000
REACTOR
1002
}
1001
GENIUS_GENOBJ-N-CEN_13
1002
{
1000
OWNER
1000
GEN
1002
}
1001
GENIUS_GENCEN_19
1002
{
1040
1.397
1002
}
  0
ARC
  5
6633
330
661B
100
AcDbEntity
  8
AM_3
100
AcDbCircle
 10
0.0
 20
0.0
 30
0.0
 40
11.19134295108949
100
AcDbArc
 50
260.2443931226179
 51
279.7556068773821
  0
ARC
  5
6634
330
661B
100
AcDbEntity
  8
AM_3
100
AcDbCircle
 10
0.0
 20
0.0
 30
0.0
 40
11.19134295108949
100
AcDbArc
 50
320.2443931226189
 51
339.7556068773825
  0
ARC
  5
6635
330
661B
100
AcDbEntity
  8
AM_3
100
AcDbCircle
 10
0.0
 20
0.0
 30
0.0
 40
11.19134295108949
100
AcDbArc
 50
20.24439312261744
 51
39.75560687738114
  0
ARC
  5
6636
330
661B
100
AcDbEntity
  8
AM_3
100
AcDbCircle
 10
0.0
 20
0.0
 30
0.0
 40
11.19134295108949
100
AcDbArc
 50
80.24439312261788
 51
99.75560687738211
  0
ARC
  5
6637
330
661B
100
AcDbEntity
  8
AM_3
100
AcDbCircle
 10
0.0
 20
0.0
 30
0.0
 40
11.19134295108949
100
AcDbArc
 50
140.2443931226188
 51
159.7556068773825
  0
ARC
  5
6638
330
661B
100
AcDbEntity
  8
AM_3
100
AcDbCircle
 10
0.0
 20
0.0
 30
0.0
 40
11.19134295108949
100
AcDbArc
 50
200.2443931226174
 51
219.7556068773812
  0
ENDBLK
  5
663C
330
661B
100
AcDbEntity
  8
0
100
AcDbBlockEnd
  0
BLOCK
  5
6872
330
6871
100
AcDbEntity
  8
0
100
AcDbBlockBegin
  2
*D23
 70
     1
 10
0.0
 20
0.0
 30
0.0
  3
*D23
  1

  0
LINE
  5
68A1
330
6871
100
AcDbEntity
  8
AM_5
  6
ByBlock
100
AcDbLine
 10
362.4700202960287
 20
200.6640727211293
 30
0.0
 11
362.4700202960287
 21
188.3526293357103
 31
0.0
  0
LINE
  5
68A2
330
6871
100
AcDbEntity
  8
AM_5
  6
ByBlock
100
AcDbLine
 10
341.4700202960287
 20
200.6640727211293
 30
0.0
 11
341.4700202960287
 21
188.3526293357103
 31
0.0
  0
LINE
  5
68A3
330
6871
100
AcDbEntity
  8
AM_5
  6
ByBlock
100
AcDbLine
 10
361.2200202960287
 20
188.8526293357103
 30
0.0
 11
342.7200202960287
 21
188.8526293357103
 31
0.0
  0
INSERT
  5
68A4
330
6871
100
AcDbEntity
  8
AM_5
100
AcDbBlockReference
  2
_Open30
 10
362.4700202960287
 20
188.8526293357103
 30
0.0
 41
1.25
 42
1.25
 43
1.25
  0
INSERT
  5
68A5
330
6871
100
AcDbEntity
  8
AM_5
100
AcDbBlockReference
  2
_Open30
 10
341.4700202960287
 20
188.8526293357103
 30
0.0
 41
1.25
 42
1.25
 43
1.25
 50
180.0
  0
MTEXT
  5
68A6
330
6871
100
AcDbEntity
  8
AM_5
 62
     2
100
AcDbMText
 10
351.9700202960287
 20
190.4778015798049
 30
0.0
 40
1.75
 41
0.0
 71
     5
 72
     1
  1
HEX 21
 73
     1
 44
1.0
1001
ACAD
1000
MTEXTBEGIN
1070
    73
1070
     1
1070
    44
1040
1.0
1070
    74
1070
     0
1000
MTEXTEND
  0
POINT
  5
68A7
330
6871
100
AcDbEntity
  8
Defpoints
 62
     0
100
AcDbPoint
 10
362.4700202960287
 20
201.1640727211293
 30
0.0
  0
POINT
  5
68A8
330
6871
100
AcDbEntity
  8
Defpoints
 62
     0
100
AcDbPoint
 10
341.4700202960287
 20
201.1640727211293
 30
0.0
  0
POINT
  5
68A9
330
6871
100
AcDbEntity
  8
Defpoints
 62
     0
100
AcDbPoint
 10
341.4700202960287
 20
188.8526293357103
 30
0.0
  0
ENDBLK
  5
6873
330
6871
100
AcDbEntity
  8
0
100
AcDbBlockEnd
  0
BLOCK
  5
6A0C
330
6A0B
100
AcDbEntity
  8
0
100
AcDbBlockBegin
  2
*D24
 70
     1
 10
0.0
 20
0.0
 30
0.0
  3
*D24
  1

  0
LINE
  5
6A17
330
6A0B
100
AcDbEntity
  8
AM_5
  6
ByBlock
100
AcDbLine
 10
288.6019453750567
 20
232.22625054762
 30
0.0
 11
288.6019453750567
 21
236.1783770311046
 31
0.0
  0
LINE
  5
6A18
330
6A0B
100
AcDbEntity
  8
AM_5
  6
ByBlock
100
AcDbLine
 10
278.6019453750567
 20
232.2262505476201
 30
0.0
 11
278.6019453750567
 21
236.1783770311046
 31
0.0
  0
LINE
  5
6A19
330
6A0B
100
AcDbEntity
  8
AM_5
  6
ByBlock
100
AcDbLine
 10
287.3519453750567
 20
235.6783770311046
 30
0.0
 11
279.8519453750567
 21
235.6783770311046
 31
0.0
  0
INSERT
  5
6A1A
330
6A0B
100
AcDbEntity
  8
AM_5
100
AcDbBlockReference
  2
_Open30
 10
288.6019453750567
 20
235.6783770311046
 30
0.0
 41
1.25
 42
1.25
 43
1.25
  0
INSERT
  5
6A1B
330
6A0B
100
AcDbEntity
  8
AM_5
100
AcDbBlockReference
  2
_Open30
 10
278.6019453750567
 20
235.6783770311046
 30
0.0
 41
1.25
 42
1.25
 43
1.25
 50
180.0
  0
MTEXT
  5
6A1C
330
6A0B
100
AcDbEntity
  8
AM_5
 62
     2
100
AcDbMText
 10
283.6019453750568
 20
237.3033770311046
 30
0.0
 40
1.75
 41
0.0
 71
     5
 72
     1
  1
%%c10
 73
     1
 44
1.0
1001
ACAD
1000
MTEXTBEGIN
1070
    73
1070
     1
1070
    44
1040
1.0
1070
    74
1070
     0
1000
MTEXTEND
  0
POINT
  5
6A1D
330
6A0B
100
AcDbEntity
  8
Defpoints
 62
     0
100
AcDbPoint
 10
288.6019453750567
 20
231.72625054762
 30
0.0
  0
POINT
  5
6A1E
330
6A0B
100
AcDbEntity
  8
Defpoints
 62
     0
100
AcDbPoint
 10
278.6019453750567
 20
231.72625054762
 30
0.0
  0
POINT
  5
6A1F
330
6A0B
100
AcDbEntity
  8
Defpoints
 62
     0
100
AcDbPoint
 10
278.6019453750567
 20
235.6783770311046
 30
0.0
  0
ENDBLK
  5
6A0D
330
6A0B
100
AcDbEntity
  8
0
100
AcDbBlockEnd
  0
BLOCK
  5
6C55
330
6C54
100
AcDbEntity
  8
0
100
AcDbBlockBegin
  2
*D26
 70
     1
 10
0.0
 20
0.0
 30
0.0
  3
*D26
  1

  0
LINE
  5
6C5E
330
6C54
100
AcDbEntity
  8
AM_5
  6
ByBlock
100
AcDbLine
 10
316.2279453750574
 20
212.2262505476213
 30
0.0
 11
321.7129440004644
 21
212.2262505476213
 31
0.0
  0
LINE
  5
6C5F
330
6C54
100
AcDbEntity
  8
AM_5
  6
ByBlock
100
AcDbLine
 10
321.2129440004644
 20
210.9762505476213
 30
0.0
 11
321.2129440004644
 21
202.2262505476208
 31
0.0
  0
INSERT
  5
6C60
330
6C54
100
AcDbEntity
  8
AM_5
100
AcDbBlockReference
  2
_Open30
 10
321.2129440004644
 20
212.2262505476213
 30
0.0
 41
1.25
 42
1.25
 43
1.25
 50
90.0
  0
MTEXT
  5
6C61
330
6C54
100
AcDbEntity
  8
AM_5
 62
     2
100
AcDbMText
 10
319.5879440004643
 20
207.2262505476209
 30
0.0
 40
1.75
 41
0.0
 71
     5
 72
     1
  1
%%c10
 11
0.0000000000000001
 21
1.0
 31
0.0
 73
     1
 44
1.0
1001
ACAD
1000
MTEXTBEGIN
1070
    73
1070
     1
1070
    44
1040
1.0
1070
    74
1070
     0
1000
MTEXTEND
  0
POINT
  5
6C62
330
6C54
100
AcDbEntity
  8
Defpoints
 62
     0
100
AcDbPoint
 10
315.7279453750574
 20
212.2262505476213
 30
0.0
  0
POINT
  5
6C63
330
6C54
100
AcDbEntity
  8
Defpoints
 62
     0
100
AcDbPoint
 10
315.4380879089161
 20
202.2262505476209
 30
0.0
  0
POINT
  5
6C64
330
6C54
100
AcDbEntity
  8
Defpoints
 62
     0
100
AcDbPoint
 10
321.2129440004644
 20
202.2262505476208
 30
0.0
  0
ENDBLK
  5
6C56
330
6C54
100
AcDbEntity
  8
0
100
AcDbBlockEnd
  0
BLOCK
  5
6C6B
330
6C6A
100
AcDbEntity
  8
0
100
AcDbBlockBegin
  2
*D27
 70
     1
 10
0.0
 20
0.0
 30
0.0
  3
*D27
  1

  0
LINE
  5
6C7B
330
6C6A
100
AcDbEntity
  8
AM_5
  6
ByBlock
100
AcDbLine
 10
250.9759453750556
 20
212.2262505476213
 30
0.0
 11
246.8841327858315
 21
212.2262505476213
 31
0.0
  0
LINE
  5
6C7C
330
6C6A
100
AcDbEntity
  8
AM_5
  6
ByBlock
100
AcDbLine
 10
247.3841327858315
 20
210.9762505476213
 30
0.0
 11
247.3841327858315
 21
202.2262505476209
 31
0.0
  0
INSERT
  5
6C7D
330
6C6A
100
AcDbEntity
  8
AM_5
100
AcDbBlockReference
  2
_Open30
 10
247.3841327858315
 20
212.2262505476213
 30
0.0
 41
1.25
 42
1.25
 43
1.25
 50
90.0
  0
MTEXT
  5
6C7E
330
6C6A
100
AcDbEntity
  8
AM_5
 62
     2
100
AcDbMText
 10
245.7591327858315
 20
207.2262505476209
 30
0.0
 40
1.75
 41
0.0
 71
     5
 72
     1
  1
%%c10
 11
0.0000000000000001
 21
1.0
 31
0.0
 73
     1
 44
1.0
1001
ACAD
1000
MTEXTBEGIN
1070
    73
1070
     1
1070
    44
1040
1.0
1070
    74
1070
     0
1000
MTEXTEND
  0
POINT
  5
6C7F
330
6C6A
100
AcDbEntity
  8
Defpoints
 62
     0
100
AcDbPoint
 10
251.4759453750556
 20
212.2262505476213
 30
0.0
  0
POINT
  5
6C80
330
6C6A
100
AcDbEntity
  8
Defpoints
 62
     0
100
AcDbPoint
 10
251.765802841197
 20
202.2262505476209
 30
0.0
  0
POINT
  5
6C81
330
6C6A
100
AcDbEntity
  8
Defpoints
 62
     0
100
AcDbPoint
 10
247.3841327858315
 20
202.2262505476209
 30
0.0
  0
ENDBLK
  5
6C6C
330
6C6A
100
AcDbEntity
  8
0
100
AcDbBlockEnd
  0
ENDSEC
  0
SECTION
  2
ENTITIES
  0
CIRCLE
  5
5503
330
1F
100
AcDbEntity
  8
0
100
AcDbCircle
 10
344.2793716100524
 20
215.0012502366707
 30
0.0
 40
3.999999999999545
  0
CIRCLE
  5
5504
330
1F
100
AcDbEntity
  8
0
100
AcDbCircle
 10
344.2793716100524
 20
215.0012502366707
 30
0.0
 40
5.000000000000909
  0
CIRCLE
  5
5505
330
1F
100
AcDbEntity
  8
0
100
AcDbCircle
 10
344.2793716100524
 20
215.0012502366707
 30
0.0
 40
10.25000000000024
  0
POLYLINE
  5
5506
330
1F
100
AcDbEntity
  8
0
100
AcDb2dPolyline
 66
     1
 10
0.0
 20
0.0
 30
0.0
 70
     1
  0
VERTEX
  5
5507
330
5506
100
AcDbEntity
  8
0
100
AcDbVertex
100
AcDb2dVertex
 10
354.7793716100524
 20
221.0634280631618
 30
0.0
  0
VERTEX
  5
5508
330
5506
100
AcDbEntity
  8
0
100
AcDbVertex
100
AcDb2dVertex
 10
344.2793716100524
 20
227.1256058896528
 30
0.0
  0
VERTEX
  5
5509
330
5506
100
AcDbEntity
  8
0
100
AcDbVertex
100
AcDb2dVertex
 10
333.7793716100524
 20
221.0634280631618
 30
0.0
  0
VERTEX
  5
550A
330
5506
100
AcDbEntity
  8
0
100
AcDbVertex
100
AcDb2dVertex
 10
333.7793716100524
 20
208.9390724101797
 30
0.0
  0
VERTEX
  5
550B
330
5506
100
AcDbEntity
  8
0
100
AcDbVertex
100
AcDb2dVertex
 10
344.2793716100524
 20
202.8768945836886
 30
0.0
  0
VERTEX
  5
550C
330
5506
100
AcDbEntity
  8
0
100
AcDbVertex
100
AcDb2dVertex
 10
354.7793716100524
 20
208.9390724101796
 30
0.0
  0
SEQEND
  5
550D
330
5506
100
AcDbEntity
  8
0
  0
LINE
  5
550E
330
1F
100
AcDbEntity
  8
AM_7
100
AcDbLine
 10
332.3823716100524
 20
215.0012502366707
 30
0.0
 11
356.1763716100523
 21
215.0012502366707
 31
0.0
1001
GENIUS_GENODEF_13
1002
{
1000
HIER
1070
     0
1002
}
1002
{
1000
MANEDIT
1070
     0
1002
}
1002
{
1000
NOSEL
1070
     0
1002
}
1002
{
1000
BEHIND
1070
     0
1002
}
1002
{
1000
OTHER
1070
     0
1002
}
1002
{
1000
REACTOR
1002
}
1001
GENIUS_GENOBJ-N-CEN_13
1002
{
1000
OWNER
1000
GEN
1002
}
  0
LINE
  5
5510
330
1F
100
AcDbEntity
  8
0
100
AcDbLine
 10
294.1524556322735
 20
208.0012502366709
 30
0.0
 11
273.0514351178393
 21
208.0012502366709
 31
0.0
  0
ARC
  5
5512
330
1F
100
AcDbEntity
  8
0
100
AcDbCircle
 10
291.6019453750567
 20
223.0012502366708
 30
0.0
 40
1.0
100
AcDbArc
 50
180.0
 51
270.0
1001
GENIUS_GENOREF_13
1005
55D2
  0
LINE
  5
5513
330
1F
100
AcDbEntity
  8
0
100
AcDbLine
 10
294.1524556322736
 20
222.0012502366705
 30
0.0
 11
291.6019453750566
 21
222.0012502366705
 31
0.0
  0
LINE
  5
553B
330
1F
100
AcDbEntity
  8
0
100
AcDbLine
 10
290.6019453750567
 20
223.0012502366708
 30
0.0
 11
290.6019453750565
 21
225.0012502366703
 31
0.0
  0
ARC
  5
5564
330
1F
100
AcDbEntity
  8
0
100
AcDbCircle
 10
294.1524556322737
 20
206.5012502366703
 30
0.0
 40
1.5
100
AcDbArc
 50
58.86922600415735
 51
90.00000000000319
1001
GENIUS_GENODEF_13
1002
{
1000
HIER
1070
     0
1002
}
1002
{
1000
MANEDIT
1070
     0
1002
}
1002
{
1000
NOSEL
1070
     0
1002
}
1002
{
1000
BEHIND
1070
     0
1002
}
1002
{
1000
REACTOR
1002
}
1001
GENIUS_GENOBJ-N-FIL_13
1002
{
1000
OWNER
1000
GEN
1002
}
  0
LINE
  5
5578
330
1F
100
AcDbEntity
  8
0
100
AcDbLine
 10
296.0101051158636
 20
202.8768945836893
 30
0.0
 11
303.8457856342511
 21
202.8768945836894
 31
0.0
  0
LINE
  5
5579
330
1F
100
AcDbEntity
  8
0
100
AcDbLine
 10
304.9279453750574
 20
204.7512502366713
 30
0.0
 11
303.8457856342511
 21
202.8768945836894
 31
0.0
  0
LINE
  5
557A
330
1F
100
AcDbEntity
  8
0
100
AcDbLine
 10
294.9279453750573
 20
204.7512502366713
 30
0.0
 11
296.0101051158636
 21
202.8768945836894
 31
0.0
  0
LINE
  5
557B
330
1F
100
AcDbEntity
  8
0
100
AcDbLine
 10
294.9279453750574
 20
204.7512502366713
 30
0.0
 11
294.9279453750573
 21
215.0012502366713
 31
0.0
  0
LINE
  5
557C
330
1F
100
AcDbEntity
  8
0
100
AcDbLine
 10
304.9279453750574
 20
204.7512502366713
 30
0.0
 11
315.4380879089161
 21
206.9010521185969
 31
0.0
  0
LINE
  5
557D
330
1F
100
AcDbEntity
  8
0
100
AcDbLine
 10
315.9279453750574
 20
207.5012502366712
 30
0.0
 11
315.9279453750573
 21
215.0012502366712
 31
0.0
  0
LINE
  5
557E
330
1F
100
AcDbEntity
  8
0
100
AcDbLine
 10
315.9279453750574
 20
207.5012502366712
 30
0.0
 11
315.4380879089161
 21
206.9010521185969
 31
0.0
1001
GENIUS_GENFIL_13
1070
     0
1040
0.5
1040
0.5
1040
0.4999999999999432
1040
39.2199346028848
1000
~T
  0
ARC
  5
557F
330
1F
100
AcDbEntity
  8
0
100
AcDbCircle
 10
284.865767548566
 20
215.0012502366711
 30
0.0
 40
20.06217782649128
100
AcDbArc
 50
342.4120462260053
 51
0.0
  0
ARC
  5
5580
330
1F
100
AcDbEntity
  8
0
100
AcDbCircle
 10
299.5607176033686
 20
205.9079834969345
 30
0.0
 40
5.367227771688691
100
AcDbArc
 50
343.1483601525448
 51
34.38424746803895
  0
ARC
  5
5581
330
1F
100
AcDbEntity
  8
0
100
AcDbCircle
 10
314.9901232015487
 20
215.0012502366711
 30
0.0
 40
20.06217782649128
100
AcDbArc
 50
180.0
 51
197.5879537739946
  0
ARC
  5
5582
330
1F
100
AcDbEntity
  8
0
100
AcDbCircle
 10
300.2951731467461
 20
205.9079834969345
 30
0.0
 40
5.367227771688691
100
AcDbArc
 50
145.615752531961
 51
196.8516398474551
  0
LINE
  5
5583
330
1F
100
AcDbEntity
  8
0
100
AcDbLine
 10
303.9901232015483
 20
208.9390724101797
 30
0.0
 11
295.8657675485664
 21
208.9390724101797
 31
0.0
  0
LINE
  5
5584
330
1F
100
AcDbEntity
  8
0
100
AcDbLine
 10
304.9279453750574
 20
204.7512502366713
 30
0.0
 11
304.9279453750574
 21
215.0012502366711
 31
0.0
  0
LINE
  5
5585
330
1F
100
AcDbEntity
  8
0
100
AcDbLine
 10
315.4380879089161
 20
206.9010521185969
 30
0.0
 11
315.4380879089161
 21
215.001250236671
 31
0.0
  0
CIRCLE
  5
55A5
330
1F
100
AcDbEntity
  8
0
100
AcDbCircle
 10
344.2793716100524
 20
215.0012502366707
 30
0.0
 40
8.100198118074644
  0
CIRCLE
  5
55A6
330
1F
100
AcDbEntity
  8
0
100
AcDbCircle
 10
344.2793716100524
 20
215.0012502366707
 30
0.0
 40
7.500000000000312
  0
POINT
  5
55D2
330
1F
100
AcDbEntity
  8
0
 60
     1
100
AcDbPoint
 10
-276.3049722306911
 20
-266.7543940934558
 30
0.0
1001
GENIUS_GENOBJ-N-FIL_13
1002
{
1000
OWNER
1000
GEN
1002
}
1001
GENIUS_GENOENT_13
1002
{
1000
MYREF
1005
55D2
1002
}
1002
{
1000
GRP
1005
0
1002
}
1001
GENIUS_GENOLIS_13
1002
{
1000
ENT
1005
0
1005
5512
1002
}
1001
GENIUS_GENODEF_13
1002
{
1000
HIER
1070
     1
1002
}
1002
{
1000
MANEDIT
1070
     1
1002
}
1002
{
1000
NOSEL
1070
     0
1002
}
1002
{
1000
BEHIND
1070
     0
1002
}
1002
{
1000
REACTOR
1002
}
  0
LINE
  5
5686
330
1F
100
AcDbEntity
  8
0
100
AcDbLine
 10
290.6019453750565
 20
225.5517604938868
 30
0.0
 11
290.6019453750558
 21
223.0012502366713
 31
0.0
  0
LINE
  5
568B
330
1F
100
AcDbEntity
  8
0
100
AcDbLine
 10
291.6019453750561
 20
222.0012502366714
 30
0.0
 11
294.1524556322728
 21
222.0012502366711
 31
0.0
  0
ARC
  5
5752
330
1F
100
AcDbEntity
  8
0
100
AcDbCircle
 10
294.1524556322737
 20
282.0389247955018
 30
0.0
 40
1.5
100
AcDbArc
 50
269.9999999999968
 51
301.1307739958446
1001
GENIUS_GENODEF_13
1002
{
1000
HIER
1070
     0
1002
}
1002
{
1000
MANEDIT
1070
     0
1002
}
1002
{
1000
NOSEL
1070
     0
1002
}
1002
{
1000
BEHIND
1070
     0
1002
}
1002
{
1000
REACTOR
1002
}
1001
GENIUS_GENOBJ-N-FIL_13
1002
{
1000
OWNER
1000
GEN
1002
}
  0
ARC
  5
5753
330
1F
100
AcDbEntity
  8
0
100
AcDbCircle
 10
294.1524556322736
 20
265.0389247955018
 30
0.0
 40
1.5
100
AcDbArc
 50
58.86922600415545
 51
90.0
1001
GENIUS_GENODEF_13
1002
{
1000
HIER
1070
     0
1002
}
1002
{
1000
MANEDIT
1070
     0
1002
}
1002
{
1000
NOSEL
1070
     0
1002
}
1002
{
1000
BEHIND
1070
     0
1002
}
1002
{
1000
REACTOR
1002
}
1001
GENIUS_GENOBJ-N-FIL_13
1002
{
1000
OWNER
1000
GEN
1002
}
  0
LINE
  5
5754
330
1F
100
AcDbEntity
  8
0
100
AcDbLine
 10
294.9279453750575
 20
263.0389247955023
 30
0.0
 11
294.9279453750573
 21
273.5389247955027
 31
0.0
  0
LINE
  5
5755
330
1F
100
AcDbEntity
  8
0
100
AcDbLine
 10
304.9279453750574
 20
263.2889247955022
 30
0.0
 11
315.4380879089162
 21
265.4387266774277
 31
0.0
  0
LINE
  5
5756
330
1F
100
AcDbEntity
  8
0
100
AcDbLine
 10
315.9279453750575
 20
266.038924795502
 30
0.0
 11
315.9279453750573
 21
273.538924795502
 31
0.0
  0
LINE
  5
5757
330
1F
100
AcDbEntity
  8
0
100
AcDbLine
 10
304.9279453750575
 20
283.7889247955019
 30
0.0
 11
315.4380879089162
 21
281.6391229135764
 31
0.0
  0
LINE
  5
5758
330
1F
100
AcDbEntity
  8
0
100
AcDbLine
 10
315.9279453750575
 20
281.038924795502
 30
0.0
 11
315.9279453750573
 21
273.538924795502
 31
0.0
  0
LINE
  5
5759
330
1F
100
AcDbEntity
  8
0
100
AcDbLine
 10
315.9279453750575
 20
266.038924795502
 30
0.0
 11
315.4380879089162
 21
265.4387266774277
 31
0.0
1001
GENIUS_GENFIL_13
1070
     0
1040
0.5000000000001818
1040
0.5
1040
0.5000000000001818
1040
39.21993460288926
1000
~T
  0
LINE
  5
575A
330
1F
100
AcDbEntity
  8
0
100
AcDbLine
 10
315.4380879089162
 20
281.6391229135764
 30
0.0
 11
315.9279453750575
 21
281.038924795502
 31
0.0
1001
GENIUS_GENFIL_13
1070
     0
1040
0.5
1040
0.5
1040
0.4999999999999432
1040
39.2199346028951
1000
~T
1001
GENIUS_GENOREF_13
1005
5777
  0
LINE
  5
575B
330
1F
100
AcDbEntity
  8
0
100
AcDbLine
 10
315.4380879089162
 20
281.6391229135764
 30
0.0
 11
315.4380879089162
 21
273.5389247955021
 31
0.0
  0
LINE
  5
575C
330
1F
100
AcDbEntity
  8
0
100
AcDbLine
 10
304.9279453750574
 20
263.0389247955022
 30
0.0
 11
294.9279453750573
 21
263.0389247955023
 31
0.0
  0
LINE
  5
575D
330
1F
100
AcDbEntity
  8
0
100
AcDbLine
 10
304.9279453750576
 20
273.5389247955021
 30
0.0
 11
304.9279453750574
 21
263.0389247955022
 31
0.0
  0
ARC
  5
575E
330
1F
100
AcDbEntity
  8
0
100
AcDbCircle
 10
289.7640842335031
 20
268.2889247955021
 30
0.0
 40
15.16386114155436
100
AcDbArc
 50
339.7438419995797
 51
20.25615800042024
  0
ARC
  5
575F
330
1F
100
AcDbEntity
  8
0
100
AcDbCircle
 10
310.0918065166116
 20
268.288924795502
 30
0.0
 40
15.16386114155436
100
AcDbArc
 50
159.7438419995797
 51
200.2561580004202
  0
LINE
  5
5760
330
1F
100
AcDbEntity
  8
0
100
AcDbLine
 10
294.9279453750576
 20
284.0389247955021
 30
0.0
 11
294.9279453750574
 21
273.5389247955027
 31
0.0
  0
LINE
  5
5761
330
1F
100
AcDbEntity
  8
0
100
AcDbLine
 10
304.9279453750576
 20
273.5389247955021
 30
0.0
 11
304.9279453750576
 21
284.038924795502
 31
0.0
  0
ARC
  5
5762
330
1F
100
AcDbEntity
  8
0
100
AcDbCircle
 10
289.7640842335032
 20
278.7889247955024
 30
0.0
 40
15.16386114155436
100
AcDbArc
 50
339.743841999583
 51
20.25615800041693
  0
ARC
  5
5763
330
1F
100
AcDbEntity
  8
0
100
AcDbCircle
 10
310.0918065166116
 20
278.7889247955021
 30
0.0
 40
15.16386114155436
100
AcDbArc
 50
159.7438419995831
 51
200.2561580004169
  0
LINE
  5
5764
330
1F
100
AcDbEntity
  8
0
100
AcDbLine
 10
304.9279453750575
 20
284.0389247955012
 30
0.0
 11
294.9279453750574
 21
284.0389247955012
 31
0.0
  0
LINE
  5
5765
330
1F
100
AcDbEntity
  8
0
100
AcDbLine
 10
297.1779453750573
 20
273.5389247955023
 30
0.0
 11
303.9901232015482
 21
273.5389247955017
 31
0.0
  0
LINE
  5
5766
330
1F
100
AcDbEntity
  8
0
100
AcDbLine
 10
315.4380879089162
 20
265.4387266774277
 30
0.0
 11
315.4380879089162
 21
273.5389247955021
 31
0.0
  0
LINE
  5
5772
330
1F
100
AcDbEntity
  8
0
100
AcDbLine
 10
296.6779453750573
 20
273.5389247955024
 30
0.0
 11
295.8657675485664
 21
273.5389247955022
 31
0.0
  0
LINE
  5
5773
330
1F
100
AcDbEntity
  8
0
100
AcDbLine
 10
294.1524556322737
 20
280.5389247955018
 30
0.0
 11
294.1524556322737
 21
273.5389247955027
 31
0.0
  0
LINE
  5
5774
330
1F
100
AcDbEntity
  8
0
100
AcDbLine
 10
294.1524556322737
 20
273.5389247955026
 30
0.0
 11
294.1524556322736
 21
266.5389247955017
 31
0.0
  0
LINE
  5
5775
330
1F
100
AcDbEntity
  8
0
100
AcDbLine
 10
294.1524556322736
 20
280.5389247955018
 30
0.0
 11
288.4834294070746
 21
280.5389247955018
 31
0.0
  0
LINE
  5
5776
330
1F
100
AcDbEntity
  8
0
100
AcDbLine
 10
294.1524556322736
 20
266.5389247955023
 30
0.0
 11
288.4834294070738
 21
266.5389247955025
 31
0.0
  0
POINT
  5
5777
330
1F
100
AcDbEntity
  8
0
 60
     1
100
AcDbPoint
 10
-98.9099099774288
 20
-209.724669844574
 30
0.0
 50
89.99999999999991
1001
GENIUS_GENODEF_13
1002
{
1000
HIER
1070
     1
1002
}
1002
{
1000
MANEDIT
1070
     0
1002
}
1002
{
1000
NOSEL
1070
     0
1002
}
1002
{
1000
BEHIND
1070
     0
1002
}
1002
{
1000
REACTOR
1002
}
1001
GENIUS_GENOBJ-N-CHA_13
1002
{
1000
OWNER
1000
GEN
1002
}
1001
GENIUS_GENOENT_13
1002
{
1000
MYREF
1005
5777
1002
}
1002
{
1000
GRP
1005
0
1002
}
1001
GENIUS_GENOLIS_13
1002
{
1000
ENT
1005
575A
1002
}
  0
ARC
  5
5A76
330
1F
100
AcDbEntity
  8
0
100
AcDbCircle
 10
275.6019453750564
 20
223.0012502366708
 30
0.0
 40
1.0
100
AcDbArc
 50
270.0
 51
0.0
1001
GENIUS_GENOREF_13
1005
5AC1
  0
LINE
  5
5A77
330
1F
100
AcDbEntity
  8
0
100
AcDbLine
 10
273.0514351178394
 20
222.0012502366705
 30
0.0
 11
275.6019453750564
 21
222.0012502366705
 31
0.0
  0
ARC
  5
5A7F
330
1F
100
AcDbEntity
  8
0
100
AcDbCircle
 10
273.0514351178393
 20
206.5012502366703
 30
0.0
 40
1.5
100
AcDbArc
 50
90.0
 51
121.1307739958427
1001
GENIUS_GENODEF_13
1002
{
1000
HIER
1070
     0
1002
}
1002
{
1000
MANEDIT
1070
     0
1002
}
1002
{
1000
NOSEL
1070
     0
1002
}
1002
{
1000
BEHIND
1070
     0
1002
}
1002
{
1000
REACTOR
1002
}
1001
GENIUS_GENOBJ-N-FIL_13
1002
{
1000
OWNER
1000
GEN
1002
}
  0
LINE
  5
5A90
330
1F
100
AcDbEntity
  8
0
100
AcDbLine
 10
271.1937856342494
 20
202.8768945836894
 30
0.0
 11
263.358105115862
 21
202.8768945836894
 31
0.0
  0
LINE
  5
5A91
330
1F
100
AcDbEntity
  8
0
100
AcDbLine
 10
262.2759453750556
 20
204.7512502366713
 30
0.0
 11
263.358105115862
 21
202.8768945836894
 31
0.0
  0
LINE
  5
5A92
330
1F
100
AcDbEntity
  8
0
100
AcDbLine
 10
272.2759453750557
 20
204.7512502366713
 30
0.0
 11
271.1937856342494
 21
202.8768945836894
 31
0.0
  0
LINE
  5
5A93
330
1F
100
AcDbEntity
  8
0
100
AcDbLine
 10
272.2759453750557
 20
204.7512502366713
 30
0.0
 11
272.2759453750557
 21
215.0012502366713
 31
0.0
  0
LINE
  5
5A94
330
1F
100
AcDbEntity
  8
0
100
AcDbLine
 10
262.2759453750556
 20
204.7512502366713
 30
0.0
 11
251.765802841197
 21
206.9010521185969
 31
0.0
  0
LINE
  5
5A95
330
1F
100
AcDbEntity
  8
0
100
AcDbLine
 10
251.2759453750557
 20
207.5012502366712
 30
0.0
 11
251.2759453750557
 21
215.0012502366712
 31
0.0
  0
LINE
  5
5A96
330
1F
100
AcDbEntity
  8
0
100
AcDbLine
 10
251.2759453750557
 20
207.5012502366712
 30
0.0
 11
251.765802841197
 21
206.9010521185969
 31
0.0
1001
GENIUS_GENFIL_13
1070
     0
1040
0.5
1040
0.5
1040
0.4999999999999432
1040
39.2199346028848
1000
~T
  0
ARC
  5
5A97
330
1F
100
AcDbEntity
  8
0
100
AcDbCircle
 10
282.338123201547
 20
215.0012502366711
 30
0.0
 40
20.06217782649128
100
AcDbArc
 50
180.0
 51
197.5879537739938
  0
ARC
  5
5A98
330
1F
100
AcDbEntity
  8
0
100
AcDbCircle
 10
267.6431731467445
 20
205.9079834969345
 30
0.0
 40
5.367227771688691
100
AcDbArc
 50
145.6157525319609
 51
196.8516398474542
  0
ARC
  5
5A99
330
1F
100
AcDbEntity
  8
0
100
AcDbCircle
 10
252.2137675485644
 20
215.0012502366711
 30
0.0
 40
20.06217782649128
100
AcDbArc
 50
342.4120462260062
 51
0.0
  0
ARC
  5
5A9A
330
1F
100
AcDbEntity
  8
0
100
AcDbCircle
 10
266.908717603367
 20
205.9079834969345
 30
0.0
 40
5.367227771688691
100
AcDbArc
 50
343.1483601525457
 51
34.38424746803909
  0
LINE
  5
5A9B
330
1F
100
AcDbEntity
  8
0
100
AcDbLine
 10
263.2137675485647
 20
208.9390724101797
 30
0.0
 11
271.3381232015468
 21
208.93907241018
 31
0.0
  0
LINE
  5
5A9C
330
1F
100
AcDbEntity
  8
0
100
AcDbLine
 10
262.2759453750556
 20
204.7512502366713
 30
0.0
 11
262.2759453750556
 21
215.0012502366711
 31
0.0
  0
LINE
  5
5A9D
330
1F
100
AcDbEntity
  8
0
100
AcDbLine
 10
251.765802841197
 20
206.9010521185969
 30
0.0
 11
251.765802841197
 21
215.001250236671
 31
0.0
  0
LINE
  5
5AB9
330
1F
100
AcDbEntity
  8
0
100
AcDbLine
 10
276.6019453750573
 20
225.5517604938872
 30
0.0
 11
276.6019453750573
 21
223.0012502366713
 31
0.0
  0
LINE
  5
5ABA
330
1F
100
AcDbEntity
  8
0
100
AcDbLine
 10
275.6019453750569
 20
222.0012502366714
 30
0.0
 11
273.0514351178403
 21
222.0012502366711
 31
0.0
  0
POINT
  5
5AC1
330
1F
100
AcDbEntity
  8
0
 60
     1
100
AcDbPoint
 10
822.9840412800701
 20
-266.7543940934558
 30
0.0
 50
180.0
1001
GENIUS_GENOBJ-N-FIL_13
1002
{
1000
OWNER
1000
GEN
1002
}
1001
GENIUS_GENOENT_13
1002
{
1000
MYREF
1005
5AC1
1002
}
1002
{
1000
GRP
1005
0
1002
}
1001
GENIUS_GENOLIS_13
1002
{
1000
ENT
1005
0
1005
5A76
1002
}
1001
GENIUS_GENODEF_13
1002
{
1000
HIER
1070
     1
1002
}
1002
{
1000
MANEDIT
1070
     1
1002
}
1002
{
1000
NOSEL
1070
     0
1002
}
1002
{
1000
BEHIND
1070
     0
1002
}
1002
{
1000
REACTOR
1002
}
  0
LINE
  5
5AD4
330
1F
100
AcDbEntity
  8
AM_7
100
AcDbLine
 10
249.8789453750557
 20
215.0012502366712
 30
0.0
 11
317.3249453750572
 21
215.0012502366702
 31
0.0
1001
GENIUS_GENOBJ-N-CEN_13
1002
{
1000
OWNER
1000
GEN
1002
}
1001
GENIUS_GENODEF_13
1002
{
1000
HIER
1070
     0
1002
}
1002
{
1000
MANEDIT
1070
     0
1002
}
1002
{
1000
NOSEL
1070
     0
1002
}
1002
{
1000
BEHIND
1070
     0
1002
}
1002
{
1000
OTHER
1070
     0
1002
}
1002
{
1000
REACTOR
1002
}
1001
GENIUS_GENCEN_19
1002
{
1040
1.397
1002
}
  0
ARC
  5
5AE3
330
1F
100
AcDbEntity
  8
0
100
AcDbCircle
 10
273.0514351178393
 20
282.0389247955018
 30
0.0
 40
1.5
100
AcDbArc
 50
238.8692260041568
 51
270.0000000000065
1001
GENIUS_GENODEF_13
1002
{
1000
HIER
1070
     0
1002
}
1002
{
1000
MANEDIT
1070
     0
1002
}
1002
{
1000
NOSEL
1070
     0
1002
}
1002
{
1000
BEHIND
1070
     0
1002
}
1002
{
1000
REACTOR
1002
}
1001
GENIUS_GENOBJ-N-FIL_13
1002
{
1000
OWNER
1000
GEN
1002
}
  0
ARC
  5
5AE4
330
1F
100
AcDbEntity
  8
0
100
AcDbCircle
 10
273.0514351178394
 20
265.0389247955018
 30
0.0
 40
1.5
100
AcDbArc
 50
90.0
 51
121.1307739958432
1001
GENIUS_GENODEF_13
1002
{
1000
HIER
1070
     0
1002
}
1002
{
1000
MANEDIT
1070
     0
1002
}
1002
{
1000
NOSEL
1070
     0
1002
}
1002
{
1000
BEHIND
1070
     0
1002
}
1002
{
1000
REACTOR
1002
}
1001
GENIUS_GENOBJ-N-FIL_13
1002
{
1000
OWNER
1000
GEN
1002
}
  0
LINE
  5
5AE5
330
1F
100
AcDbEntity
  8
0
100
AcDbLine
 10
272.2759453750556
 20
263.0389247955023
 30
0.0
 11
272.2759453750558
 21
273.5389247955023
 31
0.0
  0
LINE
  5
5AE6
330
1F
100
AcDbEntity
  8
0
100
AcDbLine
 10
262.2759453750556
 20
263.2889247955022
 30
0.0
 11
251.7658028411969
 21
265.4387266774277
 31
0.0
  0
LINE
  5
5AE7
330
1F
100
AcDbEntity
  8
0
100
AcDbLine
 10
251.2759453750556
 20
266.038924795502
 30
0.0
 11
251.2759453750557
 21
273.538924795502
 31
0.0
  0
LINE
  5
5AE8
330
1F
100
AcDbEntity
  8
0
100
AcDbLine
 10
262.2759453750556
 20
283.7889247955019
 30
0.0
 11
251.7658028411969
 21
281.6391229135764
 31
0.0
  0
LINE
  5
5AE9
330
1F
100
AcDbEntity
  8
0
100
AcDbLine
 10
251.2759453750556
 20
281.038924795502
 30
0.0
 11
251.2759453750557
 21
273.538924795502
 31
0.0
  0
LINE
  5
5AEA
330
1F
100
AcDbEntity
  8
0
100
AcDbLine
 10
251.2759453750556
 20
266.038924795502
 30
0.0
 11
251.7658028411969
 21
265.4387266774277
 31
0.0
1001
GENIUS_GENFIL_13
1070
     0
1040
0.5000000000001818
1040
0.5
1040
0.5000000000001818
1040
39.21993460288926
1000
~T
  0
LINE
  5
5AEB
330
1F
100
AcDbEntity
  8
0
100
AcDbLine
 10
251.7658028411969
 20
281.6391229135764
 30
0.0
 11
251.2759453750556
 21
281.038924795502
 31
0.0
1001
GENIUS_GENFIL_13
1070
     0
1040
0.5
1040
0.5
1040
0.4999999999999432
1040
39.2199346028951
1000
~T
1001
GENIUS_GENOREF_13
1005
5B08
  0
LINE
  5
5AEC
330
1F
100
AcDbEntity
  8
0
100
AcDbLine
 10
251.7658028411969
 20
281.6391229135764
 30
0.0
 11
251.7658028411969
 21
273.5389247955021
 31
0.0
  0
LINE
  5
5AED
330
1F
100
AcDbEntity
  8
0
100
AcDbLine
 10
262.2759453750556
 20
263.0389247955022
 30
0.0
 11
272.2759453750557
 21
263.0389247955023
 31
0.0
  0
LINE
  5
5AEE
330
1F
100
AcDbEntity
  8
0
100
AcDbLine
 10
262.2759453750555
 20
273.5389247955021
 30
0.0
 11
262.2759453750556
 21
263.0389247955022
 31
0.0
  0
ARC
  5
5AEF
330
1F
100
AcDbEntity
  8
0
100
AcDbCircle
 10
277.4398065166099
 20
268.2889247955021
 30
0.0
 40
15.16386114155436
100
AcDbArc
 50
159.7438419995794
 51
200.2561580004205
  0
ARC
  5
5AF0
330
1F
100
AcDbEntity
  8
0
100
AcDbCircle
 10
257.1120842335015
 20
268.288924795502
 30
0.0
 40
15.16386114155436
100
AcDbArc
 50
339.7438419995794
 51
20.25615800042051
  0
LINE
  5
5AF1
330
1F
100
AcDbEntity
  8
0
100
AcDbLine
 10
272.2759453750554
 20
284.0389247955021
 30
0.0
 11
272.2759453750557
 21
273.5389247955024
 31
0.0
  0
LINE
  5
5AF2
330
1F
100
AcDbEntity
  8
0
100
AcDbLine
 10
262.2759453750555
 20
273.5389247955021
 30
0.0
 11
262.2759453750555
 21
284.038924795502
 31
0.0
  0
ARC
  5
5AF3
330
1F
100
AcDbEntity
  8
0
100
AcDbCircle
 10
277.4398065166098
 20
278.7889247955024
 30
0.0
 40
15.16386114155436
100
AcDbArc
 50
159.7438419995824
 51
200.2561580004176
  0
ARC
  5
5AF4
330
1F
100
AcDbEntity
  8
0
100
AcDbCircle
 10
257.1120842335014
 20
278.7889247955021
 30
0.0
 40
15.16386114155436
100
AcDbArc
 50
339.7438419995824
 51
20.25615800041758
  0
LINE
  5
5AF5
330
1F
100
AcDbEntity
  8
0
100
AcDbLine
 10
262.2759453750556
 20
284.0389247955012
 30
0.0
 11
272.2759453750557
 21
284.0389247955012
 31
0.0
  0
LINE
  5
5AF6
330
1F
100
AcDbEntity
  8
0
100
AcDbLine
 10
270.0259453750557
 20
273.5389247955023
 30
0.0
 11
263.2137675485648
 21
273.5389247955017
 31
0.0
  0
LINE
  5
5AF7
330
1F
100
AcDbEntity
  8
0
100
AcDbLine
 10
251.7658028411969
 20
265.4387266774277
 30
0.0
 11
251.7658028411969
 21
273.5389247955021
 31
0.0
  0
LINE
  5
5B03
330
1F
100
AcDbEntity
  8
0
100
AcDbLine
 10
270.5259453750557
 20
273.5389247955024
 30
0.0
 11
271.3381232015467
 21
273.5389247955022
 31
0.0
  0
LINE
  5
5B04
330
1F
100
AcDbEntity
  8
0
100
AcDbLine
 10
273.0514351178393
 20
280.5389247955018
 30
0.0
 11
273.0514351178393
 21
273.5389247955024
 31
0.0
  0
LINE
  5
5B05
330
1F
100
AcDbEntity
  8
0
100
AcDbLine
 10
273.0514351178393
 20
273.5389247955023
 30
0.0
 11
273.0514351178394
 21
266.5389247955017
 31
0.0
  0
LINE
  5
5B06
330
1F
100
AcDbEntity
  8
0
100
AcDbLine
 10
273.0514351178394
 20
280.5389247955018
 30
0.0
 11
278.7204613430387
 21
280.5389247955018
 31
0.0
  0
LINE
  5
5B07
330
1F
100
AcDbEntity
  8
0
100
AcDbLine
 10
273.0514351178395
 20
266.5389247955023
 30
0.0
 11
278.7204613430396
 21
266.5389247955025
 31
0.0
  0
POINT
  5
5B08
330
1F
100
AcDbEntity
  8
0
 60
     1
100
AcDbPoint
 10
645.5889790268079
 20
-209.724669844574
 30
0.0
 50
90.00000000000012
1001
GENIUS_GENODEF_13
1002
{
1000
HIER
1070
     1
1002
}
1002
{
1000
MANEDIT
1070
     0
1002
}
1002
{
1000
NOSEL
1070
     0
1002
}
1002
{
1000
BEHIND
1070
     0
1002
}
1002
{
1000
REACTOR
1002
}
1001
GENIUS_GENOBJ-N-CHA_13
1002
{
1000
OWNER
1000
GEN
1002
}
1001
GENIUS_GENOENT_13
1002
{
1000
MYREF
1005
5B08
1002
}
1002
{
1000
GRP
1005
0
1002
}
1001
GENIUS_GENOLIS_13
1002
{
1000
ENT
1005
5AEB
1002
}
  0
LINE
  5
5B3E
330
1F
100
AcDbEntity
  8
AM_7
100
AcDbLine
 10
249.8789453750557
 20
273.538924795502
 30
0.0
 11
317.3249453750573
 21
273.538924795503
 31
0.0
1001
GENIUS_GENODEF_13
1002
{
1000
HIER
1070
     0
1002
}
1002
{
1000
MANEDIT
1070
     0
1002
}
1002
{
1000
NOSEL
1070
     0
1002
}
1002
{
1000
BEHIND
1070
     0
1002
}
1002
{
1000
OTHER
1070
     0
1002
}
1002
{
1000
REACTOR
1002
}
1001
GENIUS_GENOBJ-N-CEN_13
1002
{
1000
OWNER
1000
GEN
1002
}
1001
GENIUS_GENCEN_19
1002
{
1040
1.397
1002
}
  0
LINE
  5
666E
330
1F
100
AcDbEntity
  8
AM_7
100
AcDbLine
 10
344.2793716100523
 20
241.3982502366703
 30
0.0
 11
344.2793716100524
 21
201.4798945836886
 31
0.0
1001
GENIUS_GENOBJ-N-CEN_13
1002
{
1000
OWNER
1000
GEN
1002
}
1001
GENIUS_GENODEF_13
1002
{
1000
HIER
1070
     0
1002
}
1002
{
1000
MANEDIT
1070
     0
1002
}
1002
{
1000
NOSEL
1070
     0
1002
}
1002
{
1000
BEHIND
1070
     0
1002
}
1002
{
1000
OTHER
1070
     0
1002
}
1002
{
1000
REACTOR
1002
}
1001
GENIUS_GENCEN_19
1002
{
1040
1.397
1002
}
  0
LINE
  5
66F1
330
1F
100
AcDbEntity
  8
0
100
AcDbLine
 10
289.6019453750566
 20
280.5389247955018
 30
0.0
 11
289.6019453750566
 21
279.6076055709955
 31
0.0
  0
LINE
  5
66F2
330
1F
100
AcDbEntity
  8
0
100
AcDbLine
 10
291.1019453750567
 20
280.5389247955018
 30
0.0
 11
291.1019453750567
 21
277.6106426583754
 31
0.0
  0
LINE
  5
66F3
330
1F
100
AcDbEntity
  8
0
100
AcDbLine
 10
289.6019453750562
 20
267.470244020009
 30
0.0
 11
289.6019453750562
 21
266.5389247955025
 31
0.0
  0
LINE
  5
6700
330
1F
100
AcDbEntity
  8
0
100
AcDbLine
 10
291.1019453750567
 20
269.4672069326295
 30
0.0
 11
291.1019453750567
 21
266.5389247955025
 31
0.0
  0
LINE
  5
6701
330
1F
100
AcDbEntity
  8
0
100
AcDbLine
 10
277.6019453750564
 20
280.5389247955015
 30
0.0
 11
277.6019453750565
 21
279.6076055709952
 31
0.0
  0
LINE
  5
6702
330
1F
100
AcDbEntity
  8
0
100
AcDbLine
 10
277.6019453750576
 20
267.4702440200086
 30
0.0
 11
277.6019453750576
 21
266.5389247955021
 31
0.0
  0
LINE
  5
6703
330
1F
100
AcDbEntity
  8
0
100
AcDbLine
 10
276.1019453750563
 20
280.5389247955014
 30
0.0
 11
276.1019453750565
 21
277.610642658375
 31
0.0
  0
LINE
  5
6704
330
1F
100
AcDbEntity
  8
0
100
AcDbLine
 10
276.1019453750571
 20
269.4672069326289
 30
0.0
 11
276.1019453750572
 21
266.538924795502
 31
0.0
  0
LINE
  5
69F5
330
1F
100
AcDbEntity
  8
0
100
AcDbLine
 10
275.4045732052544
 20
237.927340803004
 30
0.0
 11
275.0679611733581
 21
227.1557557823203
 31
0.0
  0
LINE
  5
69F6
330
1F
100
AcDbEntity
  8
0
100
AcDbLine
 10
276.3099986624594
 20
239.4955836973493
 30
0.0
 11
275.9195507418132
 21
227.0012502366703
 31
0.0
  0
LINE
  5
69F7
330
1F
100
AcDbEntity
  8
0
100
AcDbLine
 10
275.0679611733581
 20
227.1557557823203
 30
0.0
 11
275.9243790401148
 21
227.1557557823203
 31
0.0
  0
ARC
  5
69F8
330
1F
100
AcDbEntity
  8
0
100
AcDbCircle
 10
275.1019453750564
 20
225.5517604938872
 30
0.0
 40
1.5
100
AcDbArc
 50
0.0
 51
78.46304096718505
1001
GENIUS_GENODEF_13
1002
{
1000
HIER
1070
     0
1002
}
1002
{
1000
MANEDIT
1070
     0
1002
}
1002
{
1000
NOSEL
1070
     0
1002
}
1002
{
1000
BEHIND
1070
     0
1002
}
1002
{
1000
REACTOR
1002
}
1001
GENIUS_GENOBJ-N-FIL_13
1002
{
1000
OWNER
1000
GEN
1002
}
  0
ARC
  5
69F9
330
1F
100
AcDbEntity
  8
0
100
AcDbCircle
 10
275.6019453750565
 20
228.0012502366703
 30
0.0
 40
1.0
100
AcDbArc
 50
237.7249513295106
 51
258.4630409671819
1001
GENIUS_GENODEF_13
1002
{
1000
HIER
1070
     0
1002
}
1002
{
1000
MANEDIT
1070
     0
1002
}
1002
{
1000
NOSEL
1070
     0
1002
}
1002
{
1000
BEHIND
1070
     0
1002
}
1002
{
1000
REACTOR
1002
}
1001
GENIUS_GENOBJ-N-FIL_13
1002
{
1000
OWNER
1000
GEN
1002
}
  0
LINE
  5
69FA
330
1F
100
AcDbEntity
  8
0
100
AcDbLine
 10
275.9195507418132
 20
227.0012502366703
 30
0.0
 11
275.9195507418132
 21
226.8093460632424
 31
0.0
  0
LINE
  5
69FC
330
1F
100
AcDbEntity
  8
0
100
AcDbLine
 10
276.6019453750565
 20
240.0012502366703
 30
0.0
 11
290.6019453750565
 21
240.0012502366703
 31
0.0
  0
LINE
  5
69FE
330
1F
100
AcDbEntity
  8
0
100
AcDbLine
 10
276.6019453750565
 20
240.0012502366703
 30
0.0
 11
275.4045732052544
 21
237.927340803004
 31
0.0
  0
LINE
  5
69FF
330
1F
100
AcDbEntity
  8
0
100
AcDbLine
 10
275.4045732052544
 20
237.927340803004
 30
0.0
 11
276.2609910720112
 21
237.927340803004
 31
0.0
  0
LINE
  5
6A01
330
1F
100
AcDbEntity
  8
0
100
AcDbLine
 10
290.8938920876535
 20
239.4955836973494
 30
0.0
 11
291.2843400082999
 21
227.0012502366703
 31
0.0
  0
LINE
  5
6A02
330
1F
100
AcDbEntity
  8
0
100
AcDbLine
 10
291.7993175448584
 20
237.9273408030042
 30
0.0
 11
292.135929576755
 21
227.1557557823204
 31
0.0
  0
ARC
  5
6A03
330
1F
100
AcDbEntity
  8
0
100
AcDbCircle
 10
292.1019453750565
 20
225.5517604938871
 30
0.0
 40
1.5
100
AcDbArc
 50
101.5369590328149
 51
180.0
1001
GENIUS_GENODEF_13
1002
{
1000
HIER
1070
     0
1002
}
1002
{
1000
MANEDIT
1070
     0
1002
}
1002
{
1000
NOSEL
1070
     0
1002
}
1002
{
1000
BEHIND
1070
     0
1002
}
1002
{
1000
REACTOR
1002
}
1001
GENIUS_GENOBJ-N-FIL_13
1002
{
1000
OWNER
1000
GEN
1002
}
  0
LINE
  5
6A04
330
1F
100
AcDbEntity
  8
0
100
AcDbLine
 10
292.135929576755
 20
227.1557557823204
 30
0.0
 11
291.2795117099983
 21
227.1557557823204
 31
0.0
  0
LINE
  5
6A05
330
1F
100
AcDbEntity
  8
0
100
AcDbLine
 10
291.2843400082999
 20
227.0012502366703
 30
0.0
 11
291.2843400082999
 21
226.8093460632424
 31
0.0
  0
ARC
  5
6A06
330
1F
100
AcDbEntity
  8
0
100
AcDbCircle
 10
291.6019453750565
 20
228.0012502366703
 30
0.0
 40
1.0
100
AcDbArc
 50
281.5369590328149
 51
302.2750486704966
1001
GENIUS_GENODEF_13
1002
{
1000
HIER
1070
     0
1002
}
1002
{
1000
MANEDIT
1070
     0
1002
}
1002
{
1000
NOSEL
1070
     0
1002
}
1002
{
1000
BEHIND
1070
     0
1002
}
1002
{
1000
REACTOR
1002
}
1001
GENIUS_GENOBJ-N-FIL_13
1002
{
1000
OWNER
1000
GEN
1002
}
  0
LINE
  5
6A07
330
1F
100
AcDbEntity
  8
0
100
AcDbLine
 10
290.6019453750565
 20
240.0012502366703
 30
0.0
 11
291.7993175448586
 21
237.9273408030042
 31
0.0
  0
LINE
  5
6A08
330
1F
100
AcDbEntity
  8
0
100
AcDbLine
 10
291.7993175448584
 20
237.9273408030042
 30
0.0
 11
290.9428996781019
 21
237.9273408030042
 31
0.0
  0
LINE
  5
6A26
330
1F
100
AcDbEntity
  8
AM_7
100
AcDbLine
 10
283.6019453750565
 20
241.3982502366703
 30
0.0
 11
283.6019453750565
 21
206.6042502366709
 31
0.0
1001
GENIUS_GENODEF_13
1002
{
1000
HIER
1070
     0
1002
}
1002
{
1000
MANEDIT
1070
     0
1002
}
1002
{
1000
NOSEL
1070
     0
1002
}
1002
{
1000
BEHIND
1070
     0
1002
}
1002
{
1000
OTHER
1070
     0
1002
}
1002
{
1000
REACTOR
1002
}
1001
GENIUS_GENOBJ-N-CEN_13
1002
{
1000
OWNER
1000
GEN
1002
}
1001
GENIUS_GENCEN_19
1002
{
1040
1.397
1002
}
  0
LINE
  5
6B38
330
1F
100
AcDbEntity
  8
0
100
AcDbLine
 10
336.0819994402503
 20
237.9273408030042
 30
0.0
 11
335.745387408354
 21
227.1557557823205
 31
0.0
  0
LINE
  5
6B39
330
1F
100
AcDbEntity
  8
0
100
AcDbLine
 10
336.9874248974552
 20
239.4955836973494
 30
0.0
 11
336.5969769768091
 21
227.0012502366705
 31
0.0
  0
LINE
  5
6B3A
330
1F
100
AcDbEntity
  8
0
100
AcDbLine
 10
335.745387408354
 20
227.1557557823205
 30
0.0
 11
336.6018052751106
 21
227.1557557823205
 31
0.0
  0
ARC
  5
6B3B
330
1F
100
AcDbEntity
  8
0
100
AcDbCircle
 10
335.7793716100522
 20
225.5517604938873
 30
0.0
 40
1.5
100
AcDbArc
 50
0.0
 51
78.46304096718518
1001
GENIUS_GENODEF_13
1002
{
1000
HIER
1070
     0
1002
}
1002
{
1000
MANEDIT
1070
     0
1002
}
1002
{
1000
NOSEL
1070
     0
1002
}
1002
{
1000
BEHIND
1070
     0
1002
}
1002
{
1000
REACTOR
1002
}
1001
GENIUS_GENOBJ-N-FIL_13
1002
{
1000
OWNER
1000
GEN
1002
}
  0
ARC
  5
6B3C
330
1F
100
AcDbEntity
  8
0
100
AcDbCircle
 10
336.2793716100524
 20
228.0012502366705
 30
0.0
 40
1.0
100
AcDbArc
 50
237.7249513295107
 51
258.4630409671819
1001
GENIUS_GENODEF_13
1002
{
1000
HIER
1070
     0
1002
}
1002
{
1000
MANEDIT
1070
     0
1002
}
1002
{
1000
NOSEL
1070
     0
1002
}
1002
{
1000
BEHIND
1070
     0
1002
}
1002
{
1000
REACTOR
1002
}
1001
GENIUS_GENOBJ-N-FIL_13
1002
{
1000
OWNER
1000
GEN
1002
}
  0
LINE
  5
6B3D
330
1F
100
AcDbEntity
  8
0
100
AcDbLine
 10
336.5969769768091
 20
227.0012502366705
 30
0.0
 11
336.5969769768091
 21
226.8093460632426
 31
0.0
  0
LINE
  5
6B3F
330
1F
100
AcDbEntity
  8
0
100
AcDbLine
 10
337.2793716100523
 20
240.0012502366705
 30
0.0
 11
351.2793716100524
 21
240.0012502366705
 31
0.0
  0
LINE
  5
6B41
330
1F
100
AcDbEntity
  8
0
100
AcDbLine
 10
337.2793716100523
 20
240.0012502366705
 30
0.0
 11
336.0819994402503
 21
237.9273408030042
 31
0.0
  0
LINE
  5
6B42
330
1F
100
AcDbEntity
  8
0
100
AcDbLine
 10
336.0819994402503
 20
237.9273408030042
 30
0.0
 11
336.938417307007
 21
237.9273408030042
 31
0.0
  0
LINE
  5
6B44
330
1F
100
AcDbEntity
  8
0
100
AcDbLine
 10
351.5713183226493
 20
239.4955836973496
 30
0.0
 11
351.9617662432957
 21
227.0012502366705
 31
0.0
  0
LINE
  5
6B45
330
1F
100
AcDbEntity
  8
0
100
AcDbLine
 10
352.4767437798543
 20
237.9273408030044
 30
0.0
 11
352.8133558117508
 21
227.1557557823206
 31
0.0
  0
ARC
  5
6B46
330
1F
100
AcDbEntity
  8
0
100
AcDbCircle
 10
352.7793716100524
 20
225.5517604938873
 30
0.0
 40
1.5
100
AcDbArc
 50
101.5369590328148
 51
180.0
1001
GENIUS_GENODEF_13
1002
{
1000
HIER
1070
     0
1002
}
1002
{
1000
MANEDIT
1070
     0
1002
}
1002
{
1000
NOSEL
1070
     0
1002
}
1002
{
1000
BEHIND
1070
     0
1002
}
1002
{
1000
REACTOR
1002
}
1001
GENIUS_GENOBJ-N-FIL_13
1002
{
1000
OWNER
1000
GEN
1002
}
  0
LINE
  5
6B47
330
1F
100
AcDbEntity
  8
0
100
AcDbLine
 10
352.8133558117508
 20
227.1557557823206
 30
0.0
 11
351.9569379449941
 21
227.1557557823205
 31
0.0
  0
LINE
  5
6B48
330
1F
100
AcDbEntity
  8
0
100
AcDbLine
 10
351.9617662432957
 20
227.0012502366705
 30
0.0
 11
351.9617662432957
 21
226.8093460632426
 31
0.0
  0
ARC
  5
6B49
330
1F
100
AcDbEntity
  8
0
100
AcDbCircle
 10
352.2793716100523
 20
228.0012502366705
 30
0.0
 40
1.0
100
AcDbArc
 50
281.5369590328148
 51
302.2750486704969
1001
GENIUS_GENODEF_13
1002
{
1000
HIER
1070
     0
1002
}
1002
{
1000
MANEDIT
1070
     0
1002
}
1002
{
1000
NOSEL
1070
     0
1002
}
1002
{
1000
BEHIND
1070
     0
1002
}
1002
{
1000
REACTOR
1002
}
1001
GENIUS_GENOBJ-N-FIL_13
1002
{
1000
OWNER
1000
GEN
1002
}
  0
LINE
  5
6B4A
330
1F
100
AcDbEntity
  8
0
100
AcDbLine
 10
351.2793716100524
 20
240.0012502366705
 30
0.0
 11
352.4767437798544
 21
237.9273408030044
 31
0.0
  0
LINE
  5
6B4B
330
1F
100
AcDbEntity
  8
0
100
AcDbLine
 10
352.4767437798543
 20
237.9273408030044
 30
0.0
 11
351.6203259130977
 21
237.9273408030044
 31
0.0
  0
LINE
  5
6B4E
330
1F
100
AcDbEntity
  8
0
100
AcDbLine
 10
337.2793716100523
 20
225.5517604938873
 30
0.0
 11
337.2793716100523
 21
223.0841540053254
 31
0.0
  0
LINE
  5
6B4F
330
1F
100
AcDbEntity
  8
0
100
AcDbLine
 10
351.2793716100524
 20
225.5517604938873
 30
0.0
 11
351.2793716100524
 21
223.0841540053254
 31
0.0
  0
LINE
  5
6B50
330
1F
100
AcDbEntity
  8
0
100
AcDbLine
 10
336.6018052751106
 20
227.1557557823205
 30
0.0
 11
351.9569379449941
 21
227.1557557823205
 31
0.0
  0
LINE
  5
6B51
330
1F
100
AcDbEntity
  8
0
100
AcDbLine
 10
337.2793716100523
 20
225.5517604938873
 30
0.0
 11
341.5533914213284
 21
225.5517604938874
 31
0.0
  0
LINE
  5
6B52
330
1F
100
AcDbEntity
  8
0
100
AcDbLine
 10
347.0053517987765
 20
225.5517604938874
 30
0.0
 11
351.2793716100524
 21
225.5517604938873
 31
0.0
  0
LINE
  5
6B53
330
1F
100
AcDbEntity
  8
0
100
AcDbLine
 10
336.9384173070069
 20
237.9273408030042
 30
0.0
 11
351.6203259130977
 21
237.9273408030044
 31
0.0
  0
CIRCLE
  5
6B6B
330
1F
100
AcDbEntity
  8
0
100
AcDbCircle
 10
283.6019453750567
 20
273.5389247955025
 30
0.0
 40
8.533984201698388
  0
CIRCLE
  5
6B6C
330
1F
100
AcDbEntity
  8
0
100
AcDbCircle
 10
283.6019453750567
 20
273.5389247955025
 30
0.0
 40
8.197372169802036
  0
CIRCLE
  5
6B6D
330
1F
100
AcDbEntity
  8
0
100
AcDbCircle
 10
283.6019453750567
 20
273.5389247955025
 30
0.0
 40
7.291946712597109
  0
CIRCLE
  5
6B6E
330
1F
100
AcDbEntity
  8
0
100
AcDbCircle
 10
283.6019453750567
 20
273.5389247955025
 30
0.0
 40
7.0
  0
CIRCLE
  5
6B6F
330
1F
100
AcDbEntity
  8
0
100
AcDbCircle
 10
283.6019453750567
 20
273.5389247955025
 30
0.0
 40
5.500000000000028
  0
CIRCLE
  5
6B70
330
1F
100
AcDbEntity
  8
0
100
AcDbCircle
 10
283.6019453750567
 20
273.5389247955025
 30
0.0
 40
5.000000000000028
  0
LINE
  5
6B77
330
1F
100
AcDbEntity
  8
AM_7
100
AcDbLine
 10
283.6019453750567
 20
283.4699089972009
 30
0.0
 11
283.6019453750567
 21
263.6079405938041
 31
0.0
1001
GENIUS_GENODEF_13
1002
{
1000
HIER
1070
     0
1002
}
1002
{
1000
MANEDIT
1070
     0
1002
}
1002
{
1000
NOSEL
1070
     0
1002
}
1002
{
1000
BEHIND
1070
     0
1002
}
1002
{
1000
OTHER
1070
     0
1002
}
1002
{
1000
REACTOR
1002
}
1001
GENIUS_GENOBJ-N-CEN_13
1002
{
1000
OWNER
1000
GEN
1002
}
1001
GENIUS_GENCEN_19
1002
{
1040
1.397
1002
}
  0
MTEXT
  5
6D47
330
1F
100
AcDbEntity
  8
0
100
AcDbMText
 10
333.0767547708308
 20
273.538924795503
 30
0.0
 40
1.5
 41
23.73368635512838
 71
     1
 72
     5
  1
二方ﾌﾚｱｰﾁｰｽﾞ　FT-2310
 73
     1
 44
1.0
1001
ACAD
1000
ACAD_MTEXT_COLUMN_INFO_BEGIN
1070
    75
1070
     2
1070
    79
1070
     0
1070
    76
1070
     1
1070
    78
1070
     0
1070
    48
1040
23.73368635512838
1070
    49
1040
7.5
1070
    50
1070
     1
1040
0.0
1000
ACAD_MTEXT_COLUMN_INFO_END
1000
MTEXTBEGIN
1070
    73
1070
     1
1070
    44
1040
1.0
1070
    74
1070
     0
1000
MTEXTEND
  0
ARC
  5
6D48
330
1F
100
AcDbEntity
  8
0
100
AcDbCircle
 10
294.152455632274
 20
223.5012502366709
 30
0.0
 40
1.5
100
AcDbArc
 50
269.999999999995
 51
301.1307739958401
1001
GENIUS_GENODEF_13
1002
{
1000
HIER
1070
     0
1002
}
1002
{
1000
MANEDIT
1070
     0
1002
}
1002
{
1000
NOSEL
1070
     0
1002
}
1002
{
1000
BEHIND
1070
     0
1002
}
1002
{
1000
REACTOR
1002
}
1001
GENIUS_GENOBJ-N-FIL_13
1002
{
1000
OWNER
1000
GEN
1002
}
  0
LINE
  5
6D49
330
1F
100
AcDbEntity
  8
0
100
AcDbLine
 10
296.0101051158639
 20
227.1256058896518
 30
0.0
 11
303.8457856342514
 21
227.1256058896515
 31
0.0
  0
LINE
  5
6D4A
330
1F
100
AcDbEntity
  8
0
100
AcDbLine
 10
304.9279453750577
 20
225.2512502366695
 30
0.0
 11
303.8457856342514
 21
227.1256058896515
 31
0.0
  0
LINE
  5
6D4B
330
1F
100
AcDbEntity
  8
0
100
AcDbLine
 10
294.9279453750575
 20
225.2512502366698
 30
0.0
 11
296.0101051158639
 21
227.1256058896518
 31
0.0
  0
LINE
  5
6D4C
330
1F
100
AcDbEntity
  8
0
100
AcDbLine
 10
294.9279453750577
 20
225.2512502366698
 30
0.0
 11
294.9279453750573
 21
215.0012502366698
 31
0.0
  0
LINE
  5
6D4D
330
1F
100
AcDbEntity
  8
0
100
AcDbLine
 10
304.9279453750577
 20
225.2512502366695
 30
0.0
 11
315.4380879089163
 21
223.1014483547436
 31
0.0
  0
LINE
  5
6D4E
330
1F
100
AcDbEntity
  8
0
100
AcDbLine
 10
315.9279453750576
 20
222.5012502366693
 30
0.0
 11
315.9279453750573
 21
215.0012502366693
 31
0.0
  0
LINE
  5
6D4F
330
1F
100
AcDbEntity
  8
0
100
AcDbLine
 10
315.9279453750576
 20
222.5012502366693
 30
0.0
 11
315.4380879089163
 21
223.1014483547436
 31
0.0
1001
GENIUS_GENFIL_13
1070
     0
1040
0.5
1040
0.5
1040
0.4999999999999432
1040
39.2199346028848
1000
~T
  0
ARC
  5
6D50
330
1F
100
AcDbEntity
  8
0
100
AcDbCircle
 10
284.865767548566
 20
215.0012502366704
 30
0.0
 40
20.06217782649128
100
AcDbArc
 50
359.9999999999968
 51
17.58795377399427
  0
ARC
  5
6D51
330
1F
100
AcDbEntity
  8
0
100
AcDbCircle
 10
299.5607176033689
 20
224.0945169764065
 30
0.0
 40
5.367227771688691
100
AcDbArc
 50
325.6157525319582
 51
16.85163984745465
  0
ARC
  5
6D52
330
1F
100
AcDbEntity
  8
0
100
AcDbCircle
 10
314.9901232015487
 20
215.0012502366694
 30
0.0
 40
20.06217782649128
100
AcDbArc
 50
162.4120462260023
 51
179.9999999999967
  0
ARC
  5
6D53
330
1F
100
AcDbEntity
  8
0
100
AcDbCircle
 10
300.2951731467464
 20
224.0945169764065
 30
0.0
 40
5.367227771688691
100
AcDbArc
 50
163.1483601525419
 51
214.384247468038
  0
LINE
  5
6D54
330
1F
100
AcDbEntity
  8
0
100
AcDbLine
 10
303.9901232015485
 20
221.0634280631612
 30
0.0
 11
295.8657675485666
 21
221.0634280631615
 31
0.0
  0
LINE
  5
6D55
330
1F
100
AcDbEntity
  8
0
100
AcDbLine
 10
304.9279453750577
 20
225.2512502366695
 30
0.0
 11
304.9279453750574
 21
215.0012502366697
 31
0.0
  0
LINE
  5
6D56
330
1F
100
AcDbEntity
  8
0
100
AcDbLine
 10
315.4380879089163
 20
223.1014483547436
 30
0.0
 11
315.4380879089161
 21
215.0012502366696
 31
0.0
  0
ARC
  5
6D57
330
1F
100
AcDbEntity
  8
0
100
AcDbCircle
 10
273.0514351178396
 20
223.5012502366715
 30
0.0
 40
1.5
100
AcDbArc
 50
238.8692260041555
 51
269.9999999999981
1001
GENIUS_GENODEF_13
1002
{
1000
HIER
1070
     0
1002
}
1002
{
1000
MANEDIT
1070
     0
1002
}
1002
{
1000
NOSEL
1070
     0
1002
}
1002
{
1000
BEHIND
1070
     0
1002
}
1002
{
1000
REACTOR
1002
}
1001
GENIUS_GENOBJ-N-FIL_13
1002
{
1000
OWNER
1000
GEN
1002
}
  0
LINE
  5
6D58
330
1F
100
AcDbEntity
  8
0
100
AcDbLine
 10
271.1937856342498
 20
227.1256058896525
 30
0.0
 11
263.3581051158624
 21
227.1256058896527
 31
0.0
  0
LINE
  5
6D59
330
1F
100
AcDbEntity
  8
0
100
AcDbLine
 10
262.275945375056
 20
225.2512502366708
 30
0.0
 11
263.3581051158624
 21
227.1256058896527
 31
0.0
  0
LINE
  5
6D5A
330
1F
100
AcDbEntity
  8
0
100
AcDbLine
 10
272.2759453750561
 20
225.2512502366705
 30
0.0
 11
271.1937856342498
 21
227.1256058896525
 31
0.0
  0
LINE
  5
6D5B
330
1F
100
AcDbEntity
  8
0
100
AcDbLine
 10
272.275945375056
 20
225.2512502366705
 30
0.0
 11
272.2759453750557
 21
215.0012502366705
 31
0.0
  0
LINE
  5
6D5C
330
1F
100
AcDbEntity
  8
0
100
AcDbLine
 10
262.275945375056
 20
225.2512502366708
 30
0.0
 11
251.7658028411972
 21
223.1014483547456
 31
0.0
  0
LINE
  5
6D5D
330
1F
100
AcDbEntity
  8
0
100
AcDbLine
 10
251.2759453750559
 20
222.5012502366713
 30
0.0
 11
251.2759453750557
 21
215.0012502366713
 31
0.0
  0
LINE
  5
6D5E
330
1F
100
AcDbEntity
  8
0
100
AcDbLine
 10
251.2759453750559
 20
222.5012502366713
 30
0.0
 11
251.7658028411972
 21
223.1014483547456
 31
0.0
1001
GENIUS_GENFIL_13
1070
     0
1040
0.5
1040
0.5
1040
0.4999999999999432
1040
39.2199346028848
1000
~T
  0
ARC
  5
6D5F
330
1F
100
AcDbEntity
  8
0
100
AcDbCircle
 10
282.338123201547
 20
215.0012502366704
 30
0.0
 40
20.06217782649128
100
AcDbArc
 50
162.4120462260055
 51
179.9999999999967
  0
ARC
  5
6D60
330
1F
100
AcDbEntity
  8
0
100
AcDbCircle
 10
267.6431731467447
 20
224.0945169764074
 30
0.0
 40
5.367227771688691
100
AcDbArc
 50
163.1483601525451
 51
214.384247468038
  0
ARC
  5
6D61
330
1F
100
AcDbEntity
  8
0
100
AcDbCircle
 10
252.2137675485643
 20
215.0012502366713
 30
0.0
 40
20.06217782649128
100
AcDbArc
 50
359.9999999999968
 51
17.58795377399107
  0
ARC
  5
6D62
330
1F
100
AcDbEntity
  8
0
100
AcDbCircle
 10
266.9087176033672
 20
224.0945169764075
 30
0.0
 40
5.367227771688691
100
AcDbArc
 50
325.6157525319581
 51
16.85163984745146
  0
LINE
  5
6D63
330
1F
100
AcDbEntity
  8
0
100
AcDbLine
 10
263.2137675485649
 20
221.0634280631624
 30
0.0
 11
271.3381232015469
 21
221.0634280631618
 31
0.0
  0
LINE
  5
6D64
330
1F
100
AcDbEntity
  8
0
100
AcDbLine
 10
262.275945375056
 20
225.2512502366708
 30
0.0
 11
262.2759453750556
 21
215.001250236671
 31
0.0
  0
LINE
  5
6D65
330
1F
100
AcDbEntity
  8
0
100
AcDbLine
 10
251.7658028411972
 20
223.1014483547456
 30
0.0
 11
251.7658028411969
 21
215.0012502366715
 31
0.0
  0
LINE
  5
6D66
330
1F
100
AcDbEntity
  8
0
100
AcDbLine
 10
276.2609910720111
 20
237.927340803004
 30
0.0
 11
290.9428996781019
 21
237.9273408030042
 31
0.0
  0
LINE
  5
6D67
330
1F
100
AcDbEntity
  8
0
100
AcDbLine
 10
275.9243790401148
 20
227.1557557823203
 30
0.0
 11
291.2843400082999
 21
227.1557557823203
 31
0.0
  0
LINE
  5
6EC5
330
1F
100
AcDbEntity
  8
0
100
AcDbLine
 10
275.9195507418132
 20
226.8093460632424
 30
0.0
 11
291.2843400082999
 21
226.8093460632424
 31
0.0
  0
LINE
  5
6EC6
330
1F
100
AcDbEntity
  8
0
100
AcDbLine
 10
276.6019453750564
 20
225.5517604938872
 30
0.0
 11
290.6019453750565
 21
225.5517604938876
 31
0.0
  0
LINE
  5
6EC7
330
1F
100
AcDbEntity
  8
0
100
AcDbLine
 10
273.0514351178403
 20
222.0012502366711
 30
0.0
 11
273.0514351178403
 21
208.0012502366709
 31
0.0
  0
LINE
  5
6EC8
330
1F
100
AcDbEntity
  8
0
100
AcDbLine
 10
294.1524556322728
 20
222.0012502366711
 30
0.0
 11
294.1524556322715
 21
208.0012502366709
 31
0.0
  0
LINE
  5
6EF3
330
1F
100
AcDbEntity
  8
0
100
AcDbLine
 10
276.1019453750565
 20
215.0012502366707
 30
0.0
 11
276.1019453750565
 21
221.0012502366708
 31
0.0
  0
LINE
  5
6EF4
330
1F
100
AcDbEntity
  8
0
100
AcDbLine
 10
276.1019453750565
 20
209.0012502366708
 30
0.0
 11
287.6019453750566
 21
209.0012502366708
 31
0.0
  0
LINE
  5
6EF5
330
1F
100
AcDbEntity
  8
0
100
AcDbLine
 10
276.1019453750565
 20
209.0012502366708
 30
0.0
 11
276.1019453750565
 21
215.0012502366707
 31
0.0
  0
LINE
  5
6EF6
330
1F
100
AcDbEntity
  8
0
100
AcDbLine
 10
277.6019453750565
 20
222.5012502366708
 30
0.0
 11
288.1019453750566
 21
222.5012502366708
 31
0.0
  0
LINE
  5
6EF7
330
1F
100
AcDbEntity
  8
0
100
AcDbLine
 10
283.6019453750565
 20
222.5012502366708
 30
0.0
 11
289.6019453750566
 21
222.5012502366708
 31
0.0
  0
LINE
  5
6EF8
330
1F
100
AcDbEntity
  8
0
100
AcDbLine
 10
291.1019453750565
 20
209.0012502366708
 30
0.0
 11
291.1019453750565
 21
215.0012502366707
 31
0.0
  0
LINE
  5
6EF9
330
1F
100
AcDbEntity
  8
0
100
AcDbLine
 10
291.1019453750565
 20
215.0012502366707
 30
0.0
 11
291.1019453750567
 21
221.0012502366708
 31
0.0
  0
ARC
  5
6EFA
330
1F
100
AcDbEntity
  8
0
100
AcDbCircle
 10
290.6019453750566
 20
222.0012502366706
 30
0.0
 40
1.0
100
AcDbArc
 50
180.0
 51
270.0
  0
LINE
  5
6EFB
330
1F
100
AcDbEntity
  8
0
100
AcDbLine
 10
289.6019453750566
 20
222.0012502366708
 30
0.0
 11
289.6019453750566
 21
222.5012502366708
 31
0.0
  0
LINE
  5
6EFC
330
1F
100
AcDbEntity
  8
0
100
AcDbLine
 10
291.1019453750567
 20
221.0012502366708
 30
0.0
 11
290.6019453750566
 21
221.0012502366708
 31
0.0
  0
LINE
  5
6EFD
330
1F
100
AcDbEntity
  8
0
100
AcDbLine
 10
289.6019453750566
 20
222.5012502366708
 30
0.0
 11
279.1019453750565
 21
222.5012502366708
 31
0.0
  0
LINE
  5
6EFE
330
1F
100
AcDbEntity
  8
0
100
AcDbLine
 10
291.1019453750565
 20
209.0012502366708
 30
0.0
 11
279.6019453750565
 21
209.0012502366708
 31
0.0
  0
LINE
  5
6EFF
330
1F
100
AcDbEntity
  8
0
100
AcDbLine
 10
289.2065873027096
 20
211.6356306315437
 30
0.0
 11
288.1143715394139
 21
214.6898571647233
 31
0.0
  0
LINE
  5
6F00
330
1F
100
AcDbEntity
  8
0
100
AcDbLine
 10
287.089519210699
 20
214.6898571647231
 30
0.0
 11
285.9975579736887
 21
211.6363423782154
 31
0.0
  0
ELLIPSE
  5
6F01
330
1F
100
AcDbEntity
  8
0
100
AcDbEllipse
 10
287.6019453750565
 20
208.2860651274761
 30
0.0
 11
-2.485294117647051
 21
0.000000000000051
 31
0.0
210
0.0
220
0.0
230
1.0
 40
0.953303940344945
 41
3.962594650554286
 42
5.462183310215122
  0
ELLIPSE
  5
6F02
330
1F
100
AcDbEntity
  8
0
100
AcDbEllipse
 10
287.6019453750565
 20
214.462388174803
 30
0.0
 11
0.565257352941185
 21
0.0000000000000471
 31
0.0
210
0.0
220
0.0
230
1.0
 40
0.953303940344951
 41
0.2213144423477107
 42
2.920278211241923
  0
LINE
  5
6F03
330
1F
100
AcDbEntity
  8
0
100
AcDbLine
 10
287.2693911840534
 20
211.7303197674058
 30
0.0
 11
287.5326996480158
 21
212.4331561526973
 31
0.0
  0
LINE
  5
6F04
330
1F
100
AcDbEntity
  8
0
100
AcDbLine
 10
287.6711911056032
 20
212.4331561526973
 30
0.0
 11
287.9344995665639
 21
211.7303197671601
 31
0.0
  0
LINE
  5
6F05
330
1F
100
AcDbEntity
  8
0
100
AcDbLine
 10
287.8652538377242
 20
211.6366480942768
 30
0.0
 11
287.3386369128011
 21
211.6366480942768
 31
0.0
  0
LINE
  5
6F06
330
1F
100
AcDbEntity
  8
0
100
AcDbLine
 10
285.7923704776021
 20
210.0398946408711
 30
0.0
 11
285.1019453750565
 21
211.3562645824106
 31
0.0
  0
LINE
  5
6F07
330
1F
100
AcDbEntity
  8
0
100
AcDbLine
 10
289.4115202725109
 20
210.0398946408711
 30
0.0
 11
290.1019453750565
 21
211.3562645824106
 31
0.0
  0
LINE
  5
6F08
330
1F
100
AcDbEntity
  8
0
100
AcDbLine
 10
285.1019453750565
 20
211.3562645824106
 30
0.0
 11
285.1466696277014
 21
211.3316487881805
 31
0.0
  0
LINE
  5
6F09
330
1F
100
AcDbEntity
  8
0
100
AcDbLine
 10
290.1019453750565
 20
211.3562645824106
 30
0.0
 11
290.0658314006772
 21
211.3356239092814
 31
0.0
  0
ELLIPSE
  5
6F0A
330
1F
100
AcDbEntity
  8
0
100
AcDbEllipse
 10
285.4407872747602
 20
211.8172872763372
 30
0.0
 11
0.5882352941176451
 21
0.0000000000000116
 31
0.0
210
0.0
220
0.0
230
1.0
 40
0.9533039403449411
 41
4.188790204786369
 42
5.954632136628113
1001
GENIUS_GENODEF_13
1002
{
1000
HIER
1070
     0
1002
}
1002
{
1000
MANEDIT
1070
     0
1002
}
1002
{
1000
NOSEL
1070
     0
1002
}
1002
{
1000
BEHIND
1070
     0
1002
}
1002
{
1000
REACTOR
1002
}
1001
GENIUS_GENOBJ-N-FIL_13
1002
{
1000
OWNER
1000
GEN
1002
}
  0
ELLIPSE
  5
6F0B
330
1F
100
AcDbEntity
  8
0
100
AcDbEllipse
 10
289.7633580016382
 20
211.8165755296654
 30
0.0
 11
-0.5882352941176458
 21
0.000000000000002
 31
0.0
210
0.0
220
0.0
230
1.0
 40
0.9533039403449464
 41
0.3285531705514608
 42
2.110876526947248
1001
GENIUS_GENODEF_13
1002
{
1000
HIER
1070
     0
1002
}
1002
{
1000
MANEDIT
1070
     0
1002
}
1002
{
1000
NOSEL
1070
     0
1002
}
1002
{
1000
BEHIND
1070
     0
1002
}
1002
{
1000
REACTOR
1002
}
1001
GENIUS_GENOBJ-N-FIL_13
1002
{
1000
OWNER
1000
GEN
1002
}
  0
ELLIPSE
  5
6F0C
330
1F
100
AcDbEntity
  8
0
100
AcDbEllipse
 10
285.8581371828226
 20
210.0712424704862
 30
0.0
 11
0.0735294117647067
 21
0.0000000000000146
 31
0.0
210
0.0
220
0.0
230
1.0
 40
0.9533039403448611
 41
3.605240262590422
 42
5.462183310214919
1001
GENIUS_GENODEF_13
1002
{
1000
HIER
1070
     0
1002
}
1002
{
1000
MANEDIT
1070
     0
1002
}
1002
{
1000
NOSEL
1070
     0
1002
}
1002
{
1000
BEHIND
1070
     0
1002
}
1002
{
1000
REACTOR
1002
}
1001
GENIUS_GENOBJ-N-FIL_13
1002
{
1000
OWNER
1000
GEN
1002
}
  0
ELLIPSE
  5
6F0D
330
1F
100
AcDbEntity
  8
0
100
AcDbEllipse
 10
289.3457535672903
 20
210.0712424704862
 30
0.0
 11
0.0735294117647032
 21
0.0000000000000345
 31
0.0
210
0.0
220
0.0
230
1.0
 40
0.9533039403449665
 41
3.962594650553778
 42
5.819537698178287
1001
GENIUS_GENODEF_13
1002
{
1000
HIER
1070
     0
1002
}
1002
{
1000
MANEDIT
1070
     0
1002
}
1002
{
1000
NOSEL
1070
     0
1002
}
1002
{
1000
BEHIND
1070
     0
1002
}
1002
{
1000
REACTOR
1002
}
1001
GENIUS_GENOBJ-N-FIL_13
1002
{
1000
OWNER
1000
GEN
1002
}
  0
ELLIPSE
  5
6F0E
330
1F
100
AcDbEntity
  8
0
100
AcDbEllipse
 10
287.6019453768095
 20
212.4095803576576
 30
0.0
 11
-0.0735294117647053
 21
0.0
 31
0.0
210
0.0
220
0.0
230
1.0
 40
0.9533039403448885
 41
3.484616594010533
 42
5.940161366758846
1001
GENIUS_GENODEF_13
1002
{
1000
HIER
1070
     0
1002
}
1002
{
1000
MANEDIT
1070
     0
1002
}
1002
{
1000
NOSEL
1070
     0
1002
}
1002
{
1000
BEHIND
1070
     0
1002
}
1002
{
1000
REACTOR
1002
}
1001
GENIUS_GENOBJ-N-FIL_13
1002
{
1000
OWNER
1000
GEN
1002
}
  0
ELLIPSE
  5
6F0F
330
1F
100
AcDbEntity
  8
0
100
AcDbEllipse
 10
287.3386369128011
 20
211.7067439722433
 30
0.0
 11
-0.0735294117647077
 21
0.0000000000000054
 31
0.0
210
0.0
220
0.0
230
1.0
 40
0.9533039403448576
 41
-0.3430239422815355
 42
1.570796326795022
1001
GENIUS_GENODEF_13
1002
{
1000
HIER
1070
     0
1002
}
1002
{
1000
MANEDIT
1070
     0
1002
}
1002
{
1000
NOSEL
1070
     0
1002
}
1002
{
1000
BEHIND
1070
     0
1002
}
1002
{
1000
REACTOR
1002
}
1001
GENIUS_GENOBJ-N-FIL_13
1002
{
1000
OWNER
1000
GEN
1002
}
  0
ELLIPSE
  5
6F10
330
1F
100
AcDbEntity
  8
0
100
AcDbEllipse
 10
287.8652538377242
 20
211.7067439722433
 30
0.0
 11
0.0735294117647059
 21
0.0000000000000367
 31
0.0
210
0.0
220
0.0
230
1.0
 40
0.9533039403448807
 41
4.712388980384213
 42
6.62620924573893
1001
GENIUS_GENODEF_13
1002
{
1000
HIER
1070
     0
1002
}
1002
{
1000
MANEDIT
1070
     0
1002
}
1002
{
1000
NOSEL
1070
     0
1002
}
1002
{
1000
BEHIND
1070
     0
1002
}
1002
{
1000
REACTOR
1002
}
1001
GENIUS_GENOBJ-N-FIL_13
1002
{
1000
OWNER
1000
GEN
1002
}
  0
LINE
  5
6F11
330
1F
100
AcDbEntity
  8
0
100
AcDbLine
 10
276.1019453750565
 20
221.0012502366708
 30
0.0
 11
276.6019453750565
 21
221.0012502366708
 31
0.0
  0
LINE
  5
6F12
330
1F
100
AcDbEntity
  8
0
100
AcDbLine
 10
277.6019453750565
 20
222.0012502366708
 30
0.0
 11
277.6019453750565
 21
222.5012502366708
 31
0.0
  0
ARC
  5
6F13
330
1F
100
AcDbEntity
  8
0
100
AcDbCircle
 10
276.6019453750565
 20
222.0012502366708
 30
0.0
 40
1.0
100
AcDbArc
 50
270.0
 51
0.0
1001
GENIUS_GENOREF_13
1005
6F14
  0
POINT
  5
6F14
330
1F
100
AcDbEntity
  8
0
 60
     1
100
AcDbPoint
 10
-58.754924549252
 20
-69.23397523285678
 30
0.0
1001
GENIUS_GENOBJ-N-FIL_13
1002
{
1000
OWNER
1000
GEN
1002
}
1001
GENIUS_GENOENT_13
1002
{
1000
MYREF
1005
6F14
1002
}
1002
{
1000
GRP
1005
0
1002
}
1001
GENIUS_GENOLIS_13
1002
{
1000
ENT
1005
0
1005
6F13
1002
}
1001
GENIUS_GENODEF_13
1002
{
1000
HIER
1070
     1
1002
}
1002
{
1000
MANEDIT
1070
     1
1002
}
1002
{
1000
NOSEL
1070
     0
1002
}
1002
{
1000
BEHIND
1070
     0
1002
}
1002
{
1000
REACTOR
1002
}
  0
ENDSEC
  0
SECTION
  2
OBJECTS
  0
DICTIONARY
  5
C
330
0
100
AcDbDictionary
281
     1
  3
ACAD_2007HEADERVARS_RT
350
6F73
  3
ACAD_COLOR
350
247
  3
ACAD_GROUP
350
D
  3
ACAD_LAYOUT
350
1A
  3
ACAD_MATERIAL
350
232
  3
ACAD_MLEADERSTYLE
350
2102
  3
ACAD_MLINESTYLE
350
17
  3
ACAD_PLOTSETTINGS
350
19
  3
ACAD_PLOTSTYLENAME
350
E
  3
ACAD_SCALELIST
350
20F0
  3
ACAD_TABLESTYLE
350
248
  3
ACAD_VISUALSTYLE
350
236
  3
ACDB_RECOMPOSE_DATA
350
6F71
  3
AcDbVariableDictionary
350
34
  3
AcmDictionary
350
43
  3
AMG
350
2B
  3
AMGSNAPSETTINGS
350
74
  3
DWGPROPS
350
6F72
  0
DICTIONARY
  5
CA7
330
8
100
AcDbDictionary
280
     1
281
     1
  0
DICTIONARY
  5
971
330
2
100
AcDbDictionary
280
     1
281
     1
  3
ACAD_LAYERSTATES
360
2298
  3
AMLAYER_GROUPCOLORS
360
972
  0
DICTIONARY
  5
227D
330
10
100
AcDbDictionary
280
     1
281
     1
  3
ADSK_XREC_LAYER_RECONCILED
360
227E
  0
DICTIONARY
  5
227F
330
59
100
AcDbDictionary
280
     1
281
     1
  3
ADSK_XREC_LAYER_RECONCILED
360
2280
  0
DICTIONARY
  5
2281
330
5A
100
AcDbDictionary
280
     1
281
     1
  3
ADSK_XREC_LAYER_RECONCILED
360
2282
  0
DICTIONARY
  5
2283
330
31B
100
AcDbDictionary
280
     1
281
     1
  3
ADSK_XREC_LAYER_RECONCILED
360
2284
  0
DICTIONARY
  5
2285
330
7C0
100
AcDbDictionary
280
     1
281
     1
  3
ADSK_XREC_LAYER_RECONCILED
360
2286
  0
DICTIONARY
  5
2287
330
7C1
100
AcDbDictionary
280
     1
281
     1
  3
ADSK_XREC_LAYER_RECONCILED
360
2288
  0
DICTIONARY
  5
2289
330
7C2
100
AcDbDictionary
280
     1
281
     1
  3
ADSK_XREC_LAYER_RECONCILED
360
228A
  0
DICTIONARY
  5
228B
330
7C3
100
AcDbDictionary
280
     1
281
     1
  3
ADSK_XREC_LAYER_RECONCILED
360
228C
  0
DICTIONARY
  5
228D
330
7C4
100
AcDbDictionary
280
     1
281
     1
  3
ADSK_XREC_LAYER_RECONCILED
360
228E
  0
DICTIONARY
  5
228F
330
7C5
100
AcDbDictionary
280
     1
281
     1
  3
ADSK_XREC_LAYER_RECONCILED
360
2290
  0
DICTIONARY
  5
2291
330
1264
100
AcDbDictionary
280
     1
281
     1
  3
ADSK_XREC_LAYER_RECONCILED
360
2292
  0
DICTIONARY
  5
2293
330
2276
100
AcDbDictionary
280
     1
281
     1
  3
ADSK_XREC_LAYER_RECONCILED
360
2294
  0
DICTIONARY
  5
C9
330
1F
100
AcDbDictionary
280
     1
281
     1
  3
ACAD_SORTENTS
360
97C
  0
DICTIONARY
  5
BCD
330
BBF
100
AcDbDictionary
280
     1
281
     1
  0
DICTIONARY
  5
179B
330
176D
100
AcDbDictionary
280
     1
281
     1
  0
DICTIONARY
  5
17BE
330
17BD
100
AcDbDictionary
280
     1
281
     1
  0
DICTIONARY
  5
17C3
330
17C2
100
AcDbDictionary
280
     1
281
     1
  0
DICTIONARY
  5
525E
330
17CB
100
AcDbDictionary
280
     1
281
     1
  0
DICTIONARY
  5
44AF
330
44AD
100
AcDbDictionary
280
     1
281
     1
  3
ACAD_SORTENTS
360
44B0
  0
DICTIONARY
  5
4EE8
330
4ED4
100
AcDbDictionary
280
     1
281
     1
  3
ACAD_SORTENTS
360
4EE9
  0
DICTIONARY
  5
6639
330
661B
100
AcDbDictionary
280
     1
281
     1
  3
ACAD_SORTENTS
360
663A
  0
DICTIONARY
  5
6F73
102
{ACAD_REACTORS
330
C
102
}
330
C
100
AcDbDictionary
281
     1
  3
DIMARCSYM
350
6F74
  3
DIMLTEX1
350
6F76
  3
DIMLTEX2
350
6F77
  3
DIMLTYPE
350
6F75
  0
DICTIONARY
  5
247
102
{ACAD_REACTORS
330
C
102
}
330
C
100
AcDbDictionary
281
     1
  0
DICTIONARY
  5
D
102
{ACAD_REACTORS
330
C
102
}
330
C
100
AcDbDictionary
281
     1
  0
DICTIONARY
  5
1A
102
{ACAD_REACTORS
330
C
102
}
330
C
100
AcDbDictionary
281
     1
  3
Model
350
22
  3
ﾚｲｱｳﾄ1
350
1E
  3
ﾚｲｱｳﾄ2
350
26
  0
DICTIONARY
  5
232
102
{ACAD_REACTORS
330
C
102
}
330
C
100
AcDbDictionary
281
     1
  3
ByBlock
350
234
  3
ByLayer
350
233
  3
Global
350
235
  0
DICTIONARY
  5
2102
102
{ACAD_REACTORS
330
C
102
}
330
C
100
AcDbDictionary
281
     1
  3
Standard
350
2103
  0
DICTIONARY
  5
17
102
{ACAD_REACTORS
330
C
102
}
330
C
100
AcDbDictionary
281
     1
  3
Standard
350
18
  0
DICTIONARY
  5
19
102
{ACAD_REACTORS
330
C
102
}
330
C
100
AcDbDictionary
281
     1
  0
ACDBDICTIONARYWDFLT
  5
E
102
{ACAD_REACTORS
330
C
102
}
330
C
100
AcDbDictionary
281
     1
  3
Normal
350
F
100
AcDbDictionaryWithDefault
340
F
  0
DICTIONARY
  5
20F0
102
{ACAD_REACTORS
330
C
102
}
330
C
100
AcDbDictionary
281
     1
  3
A0
350
20F1
  3
A1
350
20F2
  3
A2
350
20F3
  3
A3
350
20F4
  3
A4
350
20F5
  3
A5
350
20F6
  3
A6
350
20F7
  3
A7
350
20F8
  3
A8
350
20F9
  3
A9
350
20FA
  3
B0
350
20FB
  3
B1
350
20FC
  3
B2
350
20FD
  3
B3
350
20FE
  3
B4
350
20FF
  3
B5
350
2100
  3
B6
350
2101
  0
DICTIONARY
  5
248
102
{ACAD_REACTORS
330
C
102
}
330
C
100
AcDbDictionary
281
     1
  3
Standard
350
249
  0
DICTIONARY
  5
236
102
{ACAD_REACTORS
330
C
102
}
330
C
100
AcDbDictionary
281
     1
  3
2dWireframe
350
23C
  3
3D Hidden
350
23E
  3
3dWireframe
350
23D
  3
Basic
350
23B
  3
Brighten
350
242
  3
ColorChange
350
246
  3
Conceptual
350
23F
  3
Dim
350
241
  3
EdgeColorOff
350
20EF
  3
Facepattern
350
245
  3
Flat
350
237
  3
FlatWithEdges
350
238
  3
Gouraud
350
239
  3
GouraudWithEdges
350
23A
  3
Hidden
350
20E7
  3
JitterOff
350
20ED
  3
Linepattern
350
244
  3
OverhangOff
350
20EE
  3
Realistic
350
240
  3
Shaded
350
20EC
  3
Shaded with edges
350
20EB
  3
Shades of Gray
350
20E8
  3
Sketchy
350
20E9
  3
Thicken
350
243
  3
Wireframe
350
20E6
  3
X-Ray
350
20EA
  0
XRECORD
  5
6F71
102
{ACAD_REACTORS
330
C
102
}
330
C
100
AcDbXrecord
280
     1
 90
        1
330
249
330
6D47
  0
DICTIONARY
  5
34
102
{ACAD_REACTORS
330
C
102
}
330
C
100
AcDbDictionary
281
     1
  3
CANNOSCALE
350
22EE
  3
CMLEADERSTYLE
350
22ED
  3
CTABLESTYLE
350
2C0
  3
DIMASSOC
350
6F6F
  3
EXPORTMODELSPACE
350
33A2
  3
EXPORTPAGESETUP
350
33A3
  3
INDEXCTL
350
35
  3
SORTENTS
350
6F6D
  3
XCLIPFRAME
350
6F6E
  0
DICTIONARY
  5
43
102
{ACAD_REACTORS
330
C
102
}
330
C
100
AcDbDictionary
281
     1
  3
AcmBOM
350
C4E
  3
AcmStdDictionary
350
15F
  3
AMDTSECTSYM_ARROWCOLOR
350
2A8
  0
DICTIONARY
  5
2B
102
{ACAD_REACTORS
330
C
102
}
330
C
100
AcDbDictionary
281
     1
  0
DICTIONARY
  5
74
102
{ACAD_REACTORS
330
C
102
}
330
C
100
AcDbDictionary
281
     1
  0
XRECORD
  5
6F72
102
{ACAD_REACTORS
330
C
102
}
330
C
100
AcDbXrecord
280
     1
  1
DWGPROPS COOKIE
  2

  3

  4

  6

  7

  8
user
  9

300
AmdtFileType=84
301
=
302
=
303
=
304
=
305
=
306
=
307
=
308
=
309
=
 40
0.5014159375000001
 41
2454784.375539815
 42
2456049.57104184
  1

 90
        1
  0
DICTIONARY
  5
2298
102
{ACAD_REACTORS
330
971
102
}
330
971
100
AcDbDictionary
281
     1
  0
DICTIONARY
  5
972
102
{ACAD_REACTORS
330
971
102
}
330
971
100
AcDbDictionary
280
     1
281
     1
  0
XRECORD
  5
227E
102
{ACAD_REACTORS
330
227D
102
}
330
227D
100
AcDbXrecord
280
     1
290
     1
  0
XRECORD
  5
2280
102
{ACAD_REACTORS
330
227F
102
}
330
227F
100
AcDbXrecord
280
     1
290
     1
  0
XRECORD
  5
2282
102
{ACAD_REACTORS
330
2281
102
}
330
2281
100
AcDbXrecord
280
     1
290
     1
  0
XRECORD
  5
2284
102
{ACAD_REACTORS
330
2283
102
}
330
2283
100
AcDbXrecord
280
     1
290
     1
  0
XRECORD
  5
2286
102
{ACAD_REACTORS
330
2285
102
}
330
2285
100
AcDbXrecord
280
     1
290
     1
  0
XRECORD
  5
2288
102
{ACAD_REACTORS
330
2287
102
}
330
2287
100
AcDbXrecord
280
     1
290
     1
  0
XRECORD
  5
228A
102
{ACAD_REACTORS
330
2289
102
}
330
2289
100
AcDbXrecord
280
     1
290
     1
  0
XRECORD
  5
228C
102
{ACAD_REACTORS
330
228B
102
}
330
228B
100
AcDbXrecord
280
     1
290
     1
  0
XRECORD
  5
228E
102
{ACAD_REACTORS
330
228D
102
}
330
228D
100
AcDbXrecord
280
     1
290
     1
  0
XRECORD
  5
2290
102
{ACAD_REACTORS
330
228F
102
}
330
228F
100
AcDbXrecord
280
     1
290
     1
  0
XRECORD
  5
2292
102
{ACAD_REACTORS
330
2291
102
}
330
2291
100
AcDbXrecord
280
     1
290
     1
  0
XRECORD
  5
2294
102
{ACAD_REACTORS
330
2293
102
}
330
2293
100
AcDbXrecord
280
     1
290
     1
  0
SORTENTSTABLE
  5
97C
102
{ACAD_REACTORS
330
C9
102
}
330
C9
100
AcDbSortentsTable
330
1F
331
6D4D
  5
6D4E
331
6D55
  5
6D56
331
6D5D
  5
6D5E
331
6D65
  5
6D66
331
6B3B
  5
6B45
331
5A96
  5
5AA7
331
5AE5
  5
5AF6
331
5564
  5
558A
331
69F5
  5
69FE
331
6B4B
  5
6B53
331
6B53
  5
6B77
331
5AED
  5
5AFE
331
6A05
  5
6A51
331
5AF5
  5
636A
331
5B05
  5
653E
331
5752
  5
5763
331
5A77
  5
5A90
331
575A
  5
576B
331
557C
  5
558F
331
5A7F
  5
5AA0
331
5505
  5
556A
331
5762
  5
5A7F
331
5584
  5
5599
331
6D4E
  5
6D4F
331
6D56
  5
6D57
331
6D5E
  5
6D5F
331
6B6B
  5
6C32
331
6D66
  5
6D67
331
6700
  5
69F7
331
5772
  5
5A84
331
6B3C
  5
6B46
331
5A97
  5
5AA8
331
5AE6
  5
5AF7
331
568B
  5
5762
331
6D47
  5
6D48
331
6B44
  5
6B4B
331
69F6
  5
69FF
331
69FE
  5
6A07
331
6A06
  5
6B1E
331
5AEE
  5
5AFF
331
5AF6
  5
64FC
331
5B06
  5
653F
331
5753
  5
5764
331
575B
  5
576C
331
557D
  5
5590
331
5506
  5
556B
331
5763
  5
5A80
331
5585
  5
575A
331
550E
  5
556C
331
6D4F
  5
6D50
331
6D57
  5
6D58
331
6D5F
  5
6D60
331
66F1
  5
686E
331
6B6C
  5
6C4F
331
6D67
  5
6D68
331
6701
  5
69F8
331
5773
  5
5A85
331
6A26
  5
6B3F
331
6B3D
  5
6B47
331
5A90
  5
5AA1
331
5B3E
  5
6706
331
5A98
  5
5AA9
331
5AE7
  5
5AF8
331
55A5
  5
575B
331
6B45
  5
6B4C
331
69F7
  5
6A00
331
69FF
  5
6A09
331
6A07
  5
6B1F
331
5AEF
  5
5B00
331
5AF7
  5
64FD
331
5B07
  5
6687
331
5754
  5
5765
331
575C
  5
576D
331
557E
  5
5591
331
5764
  5
5A81
331
6D48
  5
6D49
331
6D50
  5
6D51
331
6D58
  5
6D59
331
6D60
  5
6D61
331
66F2
  5
69F6
331
6B6D
  5
6C50
331
6702
  5
69F9
331
5774
  5
5A86
331
5A91
  5
5AA2
331
5A99
  5
5AAA
331
55A6
  5
575C
331
6B46
  5
6B4E
331
69F8
  5
6A01
331
6B4E
  5
6B6C
331
5AE8
  5
5AF9
331
6A08
  5
6B39
331
5AF0
  5
5B01
331
5755
  5
5766
331
575D
  5
576E
331
557F
  5
5592
331
5765
  5
5A82
331
5510
  5
556D
331
6D49
  5
6D4A
331
6D51
  5
6D52
331
6D59
  5
6D5A
331
6D61
  5
6D62
331
66F3
  5
69F5
331
6B6E
  5
6C51
331
6703
  5
69FA
331
5AB9
  5
5AF1
331
5775
  5
5A87
331
6B3F
  5
6B48
331
5A92
  5
5AA3
331
5A9A
  5
5AAD
331
5686
  5
5760
331
6B47
  5
6B4F
331
69F9
  5
6A02
331
6B4F
  5
6B6D
331
5AE9
  5
5AFA
331
6A01
  5
6A26
331
5AF1
  5
5D2B
331
5756
  5
5767
331
5578
  5
558B
331
575E
  5
576F
331
5580
  5
5593
331
5766
  5
5A83
331
6D4A
  5
6D4B
331
6D52
  5
6D53
331
6D5A
  5
6D5B
331
6D62
  5
6D63
331
6B6F
  5
6C52
331
6704
  5
69FD
331
5ABA
  5
5AF2
331
6B77
  5
6D47
331
5776
  5
5A89
331
6B38
  5
6B41
331
5A93
  5
5AA4
331
5A9B
  5
5AAE
331
6B48
  5
6B50
331
69FA
  5
6A04
331
6B50
  5
6B6E
331
5AEA
  5
5AFB
331
6A02
  5
6A27
331
5AF2
  5
5DEB
331
5757
  5
5768
331
5579
  5
558C
331
575F
  5
5770
331
5581
  5
5594
331
5512
  5
556E
331
6D4B
  5
6D4C
331
6D53
  5
6D54
331
6D5B
  5
6D5C
331
6D63
  5
6D64
331
6B70
  5
6C53
331
6B39
  5
6B42
331
5A94
  5
5AA5
331
5AE3
  5
5AF4
331
5A9C
  5
5AAF
331
6B41
  5
6B49
331
6B49
  5
6B51
331
6B51
  5
6B6F
331
5AEB
  5
5AFC
331
666E
  5
67A8
331
6A03
  5
6A28
331
5AF3
  5
5E0C
331
5B03
  5
653C
331
5758
  5
5769
331
557A
  5
558D
331
5503
  5
5567
331
5760
  5
5A7C
331
5582
  5
5597
331
5513
  5
5574
331
6D4C
  5
6D4D
331
6D54
  5
6D55
331
6D5C
  5
6D5D
331
6D64
  5
6D65
331
6B3A
  5
6B44
331
5AD4
  5
5AF3
331
553B
  5
5578
331
5A95
  5
5AA6
331
5AE4
  5
5AF5
331
5A9D
  5
5AF0
331
6B42
  5
6B4A
331
6B4A
  5
6B52
331
69FC
  5
6A06
331
6B52
  5
6B70
331
5AEC
  5
5AFD
331
6A04
  5
6A37
331
5AF4
  5
5E1A
331
5B04
  5
653D
331
5A76
  5
5A8B
331
5759
  5
576A
331
557B
  5
558E
331
5504
  5
5569
331
5761
  5
5A7E
331
5583
  5
5598
  0
SORTENTSTABLE
  5
44B0
102
{ACAD_REACTORS
330
44AF
102
}
330
44AF
100
AcDbSortentsTable
330
44AD
  0
SORTENTSTABLE
  5
4EE9
102
{ACAD_REACTORS
330
4EE8
102
}
330
4EE8
100
AcDbSortentsTable
330
4ED4
  0
SORTENTSTABLE
  5
663A
102
{ACAD_REACTORS
330
6639
102
}
330
6639
100
AcDbSortentsTable
330
661B
  0
XRECORD
  5
6F74
102
{ACAD_REACTORS
330
6F73
102
}
330
6F73
100
AcDbXrecord
280
     1
 70
     1
  0
XRECORD
  5
6F76
102
{ACAD_REACTORS
330
6F73
102
}
330
6F73
100
AcDbXrecord
280
     1
340
14
  0
XRECORD
  5
6F77
102
{ACAD_REACTORS
330
6F73
102
}
330
6F73
100
AcDbXrecord
280
     1
340
14
  0
XRECORD
  5
6F75
102
{ACAD_REACTORS
330
6F73
102
}
330
6F73
100
AcDbXrecord
280
     1
340
14
  0
LAYOUT
  5
22
102
{ACAD_XDICTIONARY
360
229D
102
}
102
{ACAD_REACTORS
330
1A
102
}
330
1A
100
AcDbPlotSettings
  1

  2
RICOH imagio MP 5000 RPCS
  4
A3
  6
AM_VIEW1
 40
5.873749732971191
 41
5.873747825622558
 42
5.873748779296875
 43
5.873748779296875
 44
296.9259948730469
 45
419.9466552734374
 46
-5.923202056233662
 47
-5.939457428964999
 48
0.0
 49
0.0
140
0.0
141
0.0
142
2.0
143
1.0
 70
 11940
 72
     1
 73
     1
 74
     1
  7
IMAGIO.ctb
 75
     0
147
1.920232922602835
148
-222.7540739915765
149
-167.1001025612402
100
AcDbLayout
  1
Model
 70
     1
 71
     0
 10
0.0
 20
0.0
 11
12.0
 21
9.0
 12
0.0
 22
0.0
 32
0.0
 14
0.0
 24
0.0
 34
0.0
 15
0.0
 25
0.0
 35
0.0
146
0.0
 13
0.0
 23
0.0
 33
0.0
 16
1.0
 26
0.0
 36
0.0
 17
0.0
 27
1.0
 37
0.0
 76
     0
330
1F
331
230
1001
ACAD_PSEXT
1000
RICOH imagio MP 5000 RPCS
1000
RICOH imagio MP 5000 RPCS
1000
IP_192.168.1.151
1000
RPCS Driver (Windows 2000/XP/Server 2003/Vista)
1070
     0
  0
LAYOUT
  5
1E
102
{ACAD_XDICTIONARY
360
6F78
102
}
102
{ACAD_REACTORS
330
1A
102
}
330
1A
100
AcDbPlotSettings
  1

  2
MF2730
  4

  6

 40
0.0
 41
0.0
 42
0.0
 43
0.0
 44
0.0
 45
0.0
 46
0.0
 47
0.0
 48
0.0
 49
0.0
140
0.0
141
0.0
142
1.0
143
1.0
 70
   688
 72
     0
 73
     0
 74
     5
  7
IMAGIO.ctb
 75
    16
147
1.0
148
0.0
149
0.0
100
AcDbLayout
  1
ﾚｲｱｳﾄ1
 70
     1
 71
     1
 10
0.0
 20
0.0
 11
420.0
 21
297.0
 12
0.0
 22
0.0
 32
0.0
 14
1.000000000000000E+20
 24
1.000000000000000E+20
 34
1.000000000000000E+20
 15
-1.000000000000000E+20
 25
-1.000000000000000E+20
 35
-1.000000000000000E+20
146
0.0
 13
0.0
 23
0.0
 33
0.0
 16
1.0
 26
0.0
 36
0.0
 17
0.0
 27
1.0
 37
0.0
 76
     0
330
1B
  0
LAYOUT
  5
26
102
{ACAD_XDICTIONARY
360
6F7B
102
}
102
{ACAD_REACTORS
330
1A
102
}
330
1A
100
AcDbPlotSettings
  1

  2
MF2730
  4

  6

 40
0.0
 41
0.0
 42
0.0
 43
0.0
 44
0.0
 45
0.0
 46
0.0
 47
0.0
 48
0.0
 49
0.0
140
0.0
141
0.0
142
1.0
143
1.0
 70
   688
 72
     0
 73
     0
 74
     5
  7
IMAGIO.ctb
 75
    16
147
1.0
148
0.0
149
0.0
100
AcDbLayout
  1
ﾚｲｱｳﾄ2
 70
     1
 71
     2
 10
0.0
 20
0.0
 11
12.0
 21
9.0
 12
0.0
 22
0.0
 32
0.0
 14
0.0
 24
0.0
 34
0.0
 15
0.0
 25
0.0
 35
0.0
146
0.0
 13
0.0
 23
0.0
 33
0.0
 16
1.0
 26
0.0
 36
0.0
 17
0.0
 27
1.0
 37
0.0
 76
     0
330
23
  0
MATERIAL
  5
234
102
{ACAD_XDICTIONARY
360
6F7F
102
}
102
{ACAD_REACTORS
330
232
102
}
330
232
100
AcDbMaterial
  1
ByBlock
 73
     1
 78
     1
172
     1
176
     1
270
     1
274
     1
  0
MATERIAL
  5
233
102
{ACAD_XDICTIONARY
360
6F7D
102
}
102
{ACAD_REACTORS
330
232
102
}
330
232
100
AcDbMaterial
  1
ByLayer
 73
     1
 78
     1
172
     1
176
     1
270
     1
274
     1
  0
MATERIAL
  5
235
102
{ACAD_XDICTIONARY
360
6F81
102
}
102
{ACAD_REACTORS
330
232
102
}
330
232
100
AcDbMaterial
  1
Global
 73
     1
 78
     1
172
     1
176
     1
270
     1
274
     1
  0
MLEADERSTYLE
  5
2103
102
{ACAD_REACTORS
330
2102
102
}
330
2102
100
AcDbMLeaderStyle
170
     2
171
     1
172
     0
 90
        2
 40
0.0
 41
0.0
173
     1
 91
-1056964608
340
14
 92
       -2
290
     1
 42
2.0
291
     1
 43
0.36
  3
Standard
 44
4.0
300

342
11
174
     1
178
     6
175
     1
176
     0
 93
-1056964608
 45
4.0
292
     0
297
     0
 46
4.0
 94
-1056964608
 47
1.0
 49
1.0
140
1.0
293
     1
141
0.0
294
     1
177
     0
142
1.0
295
     0
296
     0
143
0.125
1001
ACAD_MLEADERVER
1070
     2
  0
MLINESTYLE
  5
18
102
{ACAD_REACTORS
330
17
102
}
330
17
100
AcDbMlineStyle
  2
STANDARD
 70
     0
  3

 62
   256
 51
90.0
 52
90.0
 71
     2
 49
0.5
 62
   256
  6
BYLAYER
 49
-0.5
 62
   256
  6
BYLAYER
  0
ACDBPLACEHOLDER
  5
F
102
{ACAD_REACTORS
330
E
102
}
330
E
  0
SCALE
  5
20F1
102
{ACAD_REACTORS
330
20F0
102
}
330
20F0
100
AcDbScale
 70
     0
300
1:1
140
1.0
141
1.0
290
     1
  0
SCALE
  5
20F2
102
{ACAD_REACTORS
330
20F0
102
}
330
20F0
100
AcDbScale
 70
     0
300
1:2
140
1.0
141
2.0
290
     0
  0
SCALE
  5
20F3
102
{ACAD_REACTORS
330
20F0
102
}
330
20F0
100
AcDbScale
 70
     0
300
1:4
140
1.0
141
4.0
290
     0
  0
SCALE
  5
20F4
102
{ACAD_REACTORS
330
20F0
102
}
330
20F0
100
AcDbScale
 70
     0
300
1:5
140
1.0
141
5.0
290
     0
  0
SCALE
  5
20F5
102
{ACAD_REACTORS
330
20F0
102
}
330
20F0
100
AcDbScale
 70
     0
300
1:8
140
1.0
141
8.0
290
     0
  0
SCALE
  5
20F6
102
{ACAD_REACTORS
330
20F0
102
}
330
20F0
100
AcDbScale
 70
     0
300
1:10
140
1.0
141
10.0
290
     0
  0
SCALE
  5
20F7
102
{ACAD_REACTORS
330
20F0
102
}
330
20F0
100
AcDbScale
 70
     0
300
1:16
140
1.0
141
16.0
290
     0
  0
SCALE
  5
20F8
102
{ACAD_REACTORS
330
20F0
102
}
330
20F0
100
AcDbScale
 70
     0
300
1:20
140
1.0
141
20.0
290
     0
  0
SCALE
  5
20F9
102
{ACAD_REACTORS
330
20F0
102
}
330
20F0
100
AcDbScale
 70
     0
300
1:30
140
1.0
141
30.0
290
     0
  0
SCALE
  5
20FA
102
{ACAD_REACTORS
330
20F0
102
}
330
20F0
100
AcDbScale
 70
     0
300
1:40
140
1.0
141
40.0
290
     0
  0
SCALE
  5
20FB
102
{ACAD_REACTORS
330
20F0
102
}
330
20F0
100
AcDbScale
 70
     0
300
1:50
140
1.0
141
50.0
290
     0
  0
SCALE
  5
20FC
102
{ACAD_REACTORS
330
20F0
102
}
330
20F0
100
AcDbScale
 70
     0
300
1:100
140
1.0
141
100.0
290
     0
  0
SCALE
  5
20FD
102
{ACAD_REACTORS
330
20F0
102
}
330
20F0
100
AcDbScale
 70
     0
300
2:1
140
2.0
141
1.0
290
     0
  0
SCALE
  5
20FE
102
{ACAD_REACTORS
330
20F0
102
}
330
20F0
100
AcDbScale
 70
     0
300
4:1
140
4.0
141
1.0
290
     0
  0
SCALE
  5
20FF
102
{ACAD_REACTORS
330
20F0
102
}
330
20F0
100
AcDbScale
 70
     0
300
8:1
140
8.0
141
1.0
290
     0
  0
SCALE
  5
2100
102
{ACAD_REACTORS
330
20F0
102
}
330
20F0
100
AcDbScale
 70
     0
300
10:1
140
10.0
141
1.0
290
     0
  0
SCALE
  5
2101
102
{ACAD_REACTORS
330
20F0
102
}
330
20F0
100
AcDbScale
 70
     0
300
100:1
140
100.0
141
1.0
290
     0
  0
TABLESTYLE
  5
249
102
{ACAD_XDICTIONARY
360
229F
102
}
102
{ACAD_REACTORS
330
248
102
}
330
248
100
AcDbTableStyle
  3
Standard
 70
     0
 71
     0
 40
1.5
 41
1.5
280
     0
281
     0
  7
STANDARD
140
4.5
170
     2
 62
     0
 63
     7
283
     0
274
    -2
284
     1
 64
     0
275
    -2
285
     1
 65
     0
276
    -2
286
     1
 66
     0
277
    -2
287
     1
 67
     0
278
    -2
288
     1
 68
     0
279
    -2
289
     1
 69
     0
  7
STANDARD
140
6.0
170
     5
 62
     0
 63
     7
283
     0
274
    -2
284
     1
 64
     0
275
    -2
285
     1
 65
     0
276
    -2
286
     1
 66
     0
277
    -2
287
     1
 67
     0
278
    -2
288
     1
 68
     0
279
    -2
289
     1
 69
     0
  7
STANDARD
140
4.5
170
     5
 62
     0
 63
     7
283
     0
274
    -2
284
     1
 64
     0
275
    -2
285
     1
 65
     0
276
    -2
286
     1
 66
     0
277
    -2
287
     1
 67
     0
278
    -2
288
     1
 68
     0
279
    -2
289
     1
 69
     0
  0
VISUALSTYLE
  5
23C
102
{ACAD_XDICTIONARY
360
6F8D
102
}
102
{ACAD_REACTORS
330
236
102
}
330
236
100
AcDbVisualStyle
  2
2dWireframe
 70
     4
 71
     0
 72
     2
 73
     0
 90
        0
 40
-0.6
 41
-30.0
 62
     5
 63
     7
 74
     1
 91
        4
 64
     7
 65
   257
 75
     1
175
     1
 42
1.0
 92
        0
 66
   257
 43
1.0
 76
     1
 77
     6
 78
     2
 67
     7
 79
     5
170
     0
171
     0
290
     0
174
     0
 93
        1
 44
0.0
173
     0
291
     0
 45
0.0
1001
ACAD
1000
AcDbSavedByObjectVersion
1070
     0
  0
VISUALSTYLE
  5
23E
102
{ACAD_XDICTIONARY
360
6F91
102
}
102
{ACAD_REACTORS
330
236
102
}
330
236
100
AcDbVisualStyle
  2
3D Hidden
 70
     6
 71
     1
 72
     2
 73
     2
 90
        0
 40
-0.6
 41
-30.0
 62
     5
 63
     7
 74
     2
 91
        2
 64
     7
 65
   257
 75
     2
175
     1
 42
40.0
 92
        0
 66
   257
 43
1.0
 76
     1
 77
     6
 78
     2
 67
     7
 79
     3
170
     0
171
     0
290
     0
174
     0
 93
        1
 44
0.0
173
     0
291
     0
 45
0.0
1001
ACAD
1000
AcDbSavedByObjectVersion
1070
     0
  0
VISUALSTYLE
  5
23D
102
{ACAD_XDICTIONARY
360
6F8F
102
}
102
{ACAD_REACTORS
330
236
102
}
330
236
100
AcDbVisualStyle
  2
3dWireframe
 70
     5
 71
     0
 72
     2
 73
     0
 90
        0
 40
-0.6
 41
-30.0
 62
     5
 63
     7
 74
     1
 91
        4
 64
     7
 65
   257
 75
     1
175
     1
 42
1.0
 92
        0
 66
   257
 43
1.0
 76
     1
 77
     6
 78
     2
 67
     7
 79
     5
170
     0
171
     0
290
     0
174
     0
 93
        1
 44
0.0
173
     0
291
     0
 45
0.0
1001
ACAD
1000
AcDbSavedByObjectVersion
1070
     0
  0
VISUALSTYLE
  5
23B
102
{ACAD_XDICTIONARY
360
6F8B
102
}
102
{ACAD_REACTORS
330
236
102
}
330
236
100
AcDbVisualStyle
  2
Basic
 70
     7
 71
     1
 72
     0
 73
     1
 90
        0
 40
-0.6
 41
-30.0
 62
     5
 63
     7
 74
     0
 91
        4
 64
     7
 65
   257
 75
     1
175
     1
 42
1.0
 92
        8
 66
     7
 43
1.0
 76
     1
 77
     6
 78
     2
 67
     7
 79
     5
170
     0
171
     0
290
     0
174
     0
 93
        1
 44
0.0
173
     0
291
     1
 45
0.0
1001
ACAD
1000
AcDbSavedByObjectVersion
1070
     0
  0
VISUALSTYLE
  5
242
102
{ACAD_XDICTIONARY
360
6F99
102
}
102
{ACAD_REACTORS
330
236
102
}
330
236
100
AcDbVisualStyle
  2
Brighten
 70
    12
 71
     2
 72
     2
 73
     0
 90
        0
 40
-0.6
 41
-30.0
 62
     5
 63
     7
 74
     1
 91
        4
 64
     7
 65
   257
 75
     1
175
     1
 42
1.0
 92
        8
 66
     7
 43
1.0
 76
     1
 77
     6
 78
     2
 67
     7
 79
     5
170
     0
171
     0
290
     0
174
     0
 93
        1
 44
50.0
173
     0
291
     1
 45
0.0
1001
ACAD
1000
AcDbSavedByObjectVersion
1070
     0
  0
VISUALSTYLE
  5
246
102
{ACAD_XDICTIONARY
360
6FA1
102
}
102
{ACAD_REACTORS
330
236
102
}
330
236
100
AcDbVisualStyle
  2
ColorChange
 70
    16
 71
     2
 72
     2
 73
     3
 90
        0
 40
-0.6
 41
-30.0
 62
     5
 63
     8
 74
     1
 91
        4
 64
     7
 65
   257
 75
     1
175
     1
 42
1.0
 92
        8
 66
     8
 43
1.0
 76
     1
 77
     6
 78
     2
 67
     7
 79
     5
170
     0
171
     0
290
     0
174
     0
 93
        1
 44
0.0
173
     0
291
     1
 45
0.0
1001
ACAD
1000
AcDbSavedByObjectVersion
1070
     0
  0
VISUALSTYLE
  5
23F
102
{ACAD_XDICTIONARY
360
6F93
102
}
102
{ACAD_REACTORS
330
236
102
}
330
236
100
AcDbVisualStyle
  2
Conceptual
 70
     9
 71
     3
 72
     2
 73
     0
 90
        0
 40
-0.6
 41
-30.0
 62
     5
 63
     7
 74
     2
 91
        2
 64
     7
 65
   257
 75
     1
175
     1
 42
40.0
 92
        8
 66
     7
 43
1.0
 76
     1
 77
     6
 78
     2
 67
     7
 79
     3
170
     0
171
     0
290
     0
174
     0
 93
        1
 44
0.0
173
     0
291
     0
 45
0.0
1001
ACAD
1000
AcDbSavedByObjectVersion
1070
     0
  0
VISUALSTYLE
  5
241
102
{ACAD_XDICTIONARY
360
6F97
102
}
102
{ACAD_REACTORS
330
236
102
}
330
236
100
AcDbVisualStyle
  2
Dim
 70
    11
 71
     2
 72
     2
 73
     0
 90
        0
 40
-0.6
 41
-30.0
 62
     5
 63
     7
 74
     1
 91
        4
 64
     7
 65
   257
 75
     1
175
     1
 42
1.0
 92
        8
 66
     7
 43
1.0
 76
     1
 77
     6
 78
     2
 67
     7
 79
     5
170
     0
171
     0
290
     0
174
     0
 93
        1
 44
-50.0
173
     0
291
     1
 45
0.0
1001
ACAD
1000
AcDbSavedByObjectVersion
1070
     0
  0
VISUALSTYLE
  5
20EF
102
{ACAD_XDICTIONARY
360
6FB6
102
}
102
{ACAD_REACTORS
330
236
102
}
330
236
100
AcDbVisualStyle
  2
EdgeColorOff
 70
    22
 71
     2
 72
     2
 73
     0
 90
        0
 40
-0.6
 41
-30.0
 62
     5
 63
     7
 74
     1
 91
        4
 64
     7
 65
   257
 75
     1
175
     1
 42
1.0
 92
        8
 66
     7
 43
1.0
 76
     1
 77
     6
 78
     2
 67
     7
 79
     5
170
     0
171
     0
290
     0
174
     0
 93
        1
 44
0.0
173
     0
291
     1
 45
0.0
1001
ACAD
1000
AcDbSavedByObjectVersion
1070
     0
  0
VISUALSTYLE
  5
245
102
{ACAD_XDICTIONARY
360
6F9F
102
}
102
{ACAD_REACTORS
330
236
102
}
330
236
100
AcDbVisualStyle
  2
Facepattern
 70
    15
 71
     2
 72
     2
 73
     0
 90
        0
 40
-0.6
 41
-30.0
 62
     5
 63
     7
 74
     1
 91
        4
 64
     7
 65
   257
 75
     1
175
     1
 42
1.0
 92
        8
 66
     7
 43
1.0
 76
     1
 77
     6
 78
     2
 67
     7
 79
     5
170
     0
171
     0
290
     0
174
     0
 93
        1
 44
0.0
173
     0
291
     1
 45
0.0
1001
ACAD
1000
AcDbSavedByObjectVersion
1070
     0
  0
VISUALSTYLE
  5
237
102
{ACAD_XDICTIONARY
360
6F83
102
}
102
{ACAD_REACTORS
330
236
102
}
330
236
100
AcDbVisualStyle
  2
Flat
 70
     0
 71
     2
 72
     1
 73
     1
 90
        2
 40
-0.6
 41
30.0
 62
     5
 63
     7
 74
     0
 91
        4
 64
     7
 65
   257
 75
     1
175
     1
 42
1.0
 92
        8
 66
     7
 43
1.0
 76
     1
 77
     6
 78
     2
 67
     7
 79
     5
170
     0
171
     0
290
     0
174
     0
 93
       13
 44
0.0
173
     0
291
     1
 45
0.0
1001
ACAD
1000
AcDbSavedByObjectVersion
1070
     0
  0
VISUALSTYLE
  5
238
102
{ACAD_XDICTIONARY
360
6F85
102
}
102
{ACAD_REACTORS
330
236
102
}
330
236
100
AcDbVisualStyle
  2
FlatWithEdges
 70
     1
 71
     2
 72
     1
 73
     1
 90
        2
 40
-0.6
 41
30.0
 62
     5
 63
     7
 74
     1
 91
        4
 64
     7
 65
   257
 75
     1
175
     1
 42
1.0
 92
        0
 66
   257
 43
1.0
 76
     1
 77
     6
 78
     2
 67
     7
 79
     5
170
     0
171
     0
290
     0
174
     0
 93
       13
 44
0.0
173
     0
291
     1
 45
0.0
1001
ACAD
1000
AcDbSavedByObjectVersion
1070
     0
  0
VISUALSTYLE
  5
239
102
{ACAD_XDICTIONARY
360
6F87
102
}
102
{ACAD_REACTORS
330
236
102
}
330
236
100
AcDbVisualStyle
  2
Gouraud
 70
     2
 71
     2
 72
     2
 73
     1
 90
        2
 40
-0.6
 41
30.0
 62
     5
 63
     7
 74
     0
 91
        4
 64
     7
 65
   257
 75
     1
175
     1
 42
1.0
 92
        0
 66
     7
 43
1.0
 76
     1
 77
     6
 78
     2
 67
     7
 79
     5
170
     0
171
     0
290
     0
174
     0
 93
       13
 44
0.0
173
     0
291
     1
 45
0.0
1001
ACAD
1000
AcDbSavedByObjectVersion
1070
     0
  0
VISUALSTYLE
  5
23A
102
{ACAD_XDICTIONARY
360
6F89
102
}
102
{ACAD_REACTORS
330
236
102
}
330
236
100
AcDbVisualStyle
  2
GouraudWithEdges
 70
     3
 71
     2
 72
     2
 73
     1
 90
        2
 40
-0.6
 41
30.0
 62
     5
 63
     7
 74
     1
 91
        4
 64
     7
 65
   257
 75
     1
175
     1
 42
1.0
 92
        0
 66
   257
 43
1.0
 76
     1
 77
     6
 78
     2
 67
     7
 79
     5
170
     0
171
     0
290
     0
174
     0
 93
       13
 44
0.0
173
     0
291
     1
 45
0.0
1001
ACAD
1000
AcDbSavedByObjectVersion
1070
     0
  0
VISUALSTYLE
  5
20E7
102
{ACAD_XDICTIONARY
360
6FA6
102
}
102
{ACAD_REACTORS
330
236
102
}
330
236
100
AcDbVisualStyle
  2
Hidden
 70
     6
 71
     1
 72
     2
 73
     2
 90
        0
 40
-0.6
 41
-30.0
 62
     5
 63
     7
 74
     2
 91
        2
 64
     7
 65
   257
 75
     2
175
     1
 42
40.0
 92
        0
 66
   257
 43
1.0
 76
     1
 77
     6
 78
     2
 67
     7
 79
     3
170
     0
171
     0
290
     0
174
     0
 93
        1
 44
0.0
173
     0
291
     0
 45
0.0
1001
ACAD
1000
AcDbSavedByObjectVersion
1070
     0
  0
VISUALSTYLE
  5
20ED
102
{ACAD_XDICTIONARY
360
6FB2
102
}
102
{ACAD_REACTORS
330
236
102
}
330
236
100
AcDbVisualStyle
  2
JitterOff
 70
    20
 71
     2
 72
     2
 73
     0
 90
        0
 40
-0.6
 41
-30.0
 62
     5
 63
     7
 74
     1
 91
        4
 64
     7
 65
   257
 75
     1
175
     1
 42
1.0
 92
       10
 66
     7
 43
1.0
 76
     1
 77
     6
 78
     2
 67
     7
 79
     5
170
     0
171
     0
290
     0
174
     0
 93
        1
 44
0.0
173
     0
291
     1
 45
0.0
1001
ACAD
1000
AcDbSavedByObjectVersion
1070
     0
  0
VISUALSTYLE
  5
244
102
{ACAD_XDICTIONARY
360
6F9D
102
}
102
{ACAD_REACTORS
330
236
102
}
330
236
100
AcDbVisualStyle
  2
Linepattern
 70
    14
 71
     2
 72
     2
 73
     0
 90
        0
 40
-0.6
 41
-30.0
 62
     5
 63
     7
 74
     1
 91
        4
 64
     7
 65
   257
 75
     7
175
     7
 42
1.0
 92
        8
 66
     7
 43
1.0
 76
     1
 77
     6
 78
     2
 67
     7
 79
     5
170
     0
171
     0
290
     0
174
     0
 93
        1
 44
0.0
173
     0
291
     1
 45
0.0
1001
ACAD
1000
AcDbSavedByObjectVersion
1070
     0
  0
VISUALSTYLE
  5
20EE
102
{ACAD_XDICTIONARY
360
6FB4
102
}
102
{ACAD_REACTORS
330
236
102
}
330
236
100
AcDbVisualStyle
  2
OverhangOff
 70
    21
 71
     2
 72
     2
 73
     0
 90
        0
 40
-0.6
 41
-30.0
 62
     5
 63
     7
 74
     1
 91
        4
 64
     7
 65
   257
 75
     1
175
     1
 42
1.0
 92
        9
 66
     7
 43
1.0
 76
     1
 77
     6
 78
     2
 67
     7
 79
     5
170
     0
171
     0
290
     0
174
     0
 93
        1
 44
0.0
173
     0
291
     1
 45
0.0
1001
ACAD
1000
AcDbSavedByObjectVersion
1070
     0
  0
VISUALSTYLE
  5
240
102
{ACAD_XDICTIONARY
360
6F95
102
}
102
{ACAD_REACTORS
330
236
102
}
330
236
100
AcDbVisualStyle
  2
Realistic
 70
     8
 71
     2
 72
     2
 73
     0
 90
        0
 40
-0.6
 41
-30.0
 62
     5
 63
     7
 74
     1
 91
        0
 64
     7
 65
   257
 75
     1
175
     1
 42
1.0
 92
        8
 66
     8
 43
1.0
 76
     1
 77
     6
 78
     2
 67
     7
 79
     5
170
     0
171
     0
290
     0
174
     0
 93
       13
 44
0.0
173
     0
291
     0
 45
0.0
1001
ACAD
1000
AcDbSavedByObjectVersion
1070
     0
  0
VISUALSTYLE
  5
20EC
102
{ACAD_XDICTIONARY
360
6FB0
102
}
102
{ACAD_REACTORS
330
236
102
}
330
236
100
AcDbVisualStyle
  2
Shaded
 70
    27
 71
     2
 72
     2
 73
     1
 90
        2
 40
-0.6
 41
30.0
 62
     5
 63
     7
 74
     0
 91
        4
 64
     7
 65
   257
 75
     1
175
     1
 42
1.0
 92
        8
 66
   257
 43
1.0
 76
     1
 77
     6
 78
     2
 67
     8
 79
     3
170
     0
171
     0
290
     0
174
     0
 93
        5
 44
0.0
173
     0
291
     0
 45
0.0
1001
ACAD
1000
AcDbSavedByObjectVersion
1070
     0
  0
VISUALSTYLE
  5
20EB
102
{ACAD_XDICTIONARY
360
6FAE
102
}
102
{ACAD_REACTORS
330
236
102
}
330
236
100
AcDbVisualStyle
  2
Shaded with edges
 70
    26
 71
     2
 72
     2
 73
     1
 90
        2
 40
-0.6
 41
30.0
 62
     5
 63
     7
 74
     1
 91
       10
 64
     7
 65
   257
 75
     2
175
     1
 42
1.0
 92
        8
 66
   257
 43
1.0
 76
     1
 77
     6
 78
     2
 67
     7
 79
     3
170
     0
171
     0
290
     0
174
     0
 93
        5
 44
0.0
173
     0
291
     0
 45
0.0
1001
ACAD
1000
AcDbSavedByObjectVersion
1070
     0
  0
VISUALSTYLE
  5
20E8
102
{ACAD_XDICTIONARY
360
6FA8
102
}
102
{ACAD_REACTORS
330
236
102
}
330
236
100
AcDbVisualStyle
  2
Shades of Gray
 70
    23
 71
     2
 72
     2
 73
     3
 90
        0
 40
-0.6
 41
-30.0
 62
     5
 63
     7
 74
     2
 91
        2
 64
     7
 65
     7
 75
     1
175
     1
 42
40.0
 92
        8
 66
     7
 43
1.0
 76
     1
 77
     6
 78
     2
 67
     7
 79
     3
170
     0
171
     0
290
     0
174
     0
 93
        1
 44
0.0
173
     0
291
     0
 45
0.0
1001
ACAD
1000
AcDbSavedByObjectVersion
1070
     0
  0
VISUALSTYLE
  5
20E9
102
{ACAD_XDICTIONARY
360
6FAA
102
}
102
{ACAD_REACTORS
330
236
102
}
330
236
100
AcDbVisualStyle
  2
Sketchy
 70
    24
 71
     1
 72
     2
 73
     2
 90
        0
 40
-0.6
 41
-30.0
 62
     5
 63
     7
 74
     2
 91
        2
 64
     7
 65
     7
 75
     1
175
     1
 42
40.0
 92
       11
 66
     7
 43
1.0
 76
     1
 77
     6
 78
     2
 67
     7
 79
     6
170
     0
171
     0
290
     0
174
     0
 93
        1
 44
0.0
173
     0
291
     0
 45
0.0
1001
ACAD
1000
AcDbSavedByObjectVersion
1070
     0
  0
VISUALSTYLE
  5
243
102
{ACAD_XDICTIONARY
360
6F9B
102
}
102
{ACAD_REACTORS
330
236
102
}
330
236
100
AcDbVisualStyle
  2
Thicken
 70
    13
 71
     2
 72
     2
 73
     0
 90
        0
 40
-0.6
 41
-30.0
 62
     5
 63
     7
 74
     1
 91
        4
 64
     7
 65
   257
 75
     1
175
     1
 42
1.0
 92
       12
 66
     7
 43
1.0
 76
     1
 77
     6
 78
     2
 67
     7
 79
     5
170
     0
171
     0
290
     0
174
     0
 93
        1
 44
0.0
173
     0
291
     1
 45
0.0
1001
ACAD
1000
AcDbSavedByObjectVersion
1070
     0
  0
VISUALSTYLE
  5
20E6
102
{ACAD_XDICTIONARY
360
6FA4
102
}
102
{ACAD_REACTORS
330
236
102
}
330
236
100
AcDbVisualStyle
  2
Wireframe
 70
     5
 71
     0
 72
     2
 73
     0
 90
        0
 40
-0.6
 41
-30.0
 62
     5
 63
     7
 74
     1
 91
        4
 64
     7
 65
   257
 75
     1
175
     1
 42
1.0
 92
        0
 66
   257
 43
1.0
 76
     1
 77
     6
 78
     2
 67
     7
 79
     3
170
     0
171
     0
290
     0
174
     0
 93
        1
 44
0.0
173
     0
291
     0
 45
0.0
1001
ACAD
1000
AcDbSavedByObjectVersion
1070
     0
  0
VISUALSTYLE
  5
20EA
102
{ACAD_XDICTIONARY
360
6FAC
102
}
102
{ACAD_REACTORS
330
236
102
}
330
236
100
AcDbVisualStyle
  2
X-Ray
 70
    25
 71
     2
 72
     2
 73
     1
 90
        1
 40
0.5
 41
-30.0
 62
     5
 63
     7
 74
     1
 91
        0
 64
     7
 65
   257
 75
     1
175
     1
 42
1.0
 92
        8
 66
     7
 43
1.0
 76
     1
 77
     6
 78
     2
 67
     7
 79
     3
170
     0
171
     0
290
     0
174
     0
 93
       13
 44
0.0
173
     0
291
     0
 45
0.0
1001
ACAD
1000
AcDbSavedByObjectVersion
1070
     0
  0
DICTIONARYVAR
  5
22EE
102
{ACAD_REACTORS
330
34
102
}
330
34
100
DictionaryVariables
280
     0
  1
2:1
  0
DICTIONARYVAR
  5
22ED
102
{ACAD_REACTORS
330
34
102
}
330
34
100
DictionaryVariables
280
     0
  1
STANDARD
  0
DICTIONARYVAR
  5
2C0
102
{ACAD_REACTORS
330
34
102
}
330
34
100
DictionaryVariables
280
     0
  1
STANDARD
  0
DICTIONARYVAR
  5
6F6F
102
{ACAD_REACTORS
330
34
102
}
330
34
100
DictionaryVariables
280
     0
  1
2
  0
DICTIONARYVAR
  5
33A2
102
{ACAD_REACTORS
330
34
102
}
330
34
100
DictionaryVariables
280
     0
  1
1
  0
DICTIONARYVAR
  5
33A3
102
{ACAD_REACTORS
330
34
102
}
330
34
100
DictionaryVariables
280
     0
  1
1
  0
DICTIONARYVAR
  5
35
102
{ACAD_REACTORS
330
34
102
}
330
34
100
DictionaryVariables
280
     0
  1
0
  0
DICTIONARYVAR
  5
6F6D
102
{ACAD_REACTORS
330
34
102
}
330
34
100
DictionaryVariables
280
     0
  1
127
  0
DICTIONARYVAR
  5
6F6E
102
{ACAD_REACTORS
330
34
102
}
330
34
100
DictionaryVariables
280
     0
  1
0
  0
DICTIONARY
  5
C4E
102
{ACAD_REACTORS
330
43
102
}
330
43
100
AcDbDictionary
281
     1
  0
DICTIONARY
  5
15F
102
{ACAD_REACTORS
330
43
102
}
330
43
100
AcDbDictionary
281
     1
  0
XRECORD
  5
2A8
102
{ACAD_REACTORS
330
43
102
}
330
43
100
AcDbXrecord
280
     1
 90
-1023410169
  0
DICTIONARY
  5
229D
330
22
100
AcDbDictionary
280
     1
281
     1
  3
ACAD_XREC_ROUNDTRIP
360
6F7A
  3
AcPublish_PlotSettingsOverride
360
33AC
  3
ADSK_XREC_LAYOUTTHUMBNAIL
360
229E
  0
DICTIONARY
  5
6F78
330
1E
100
AcDbDictionary
280
     1
281
     1
  3
ACAD_XREC_ROUNDTRIP
360
6F79
  0
DICTIONARY
  5
6F7B
330
26
100
AcDbDictionary
280
     1
281
     1
  3
ACAD_XREC_ROUNDTRIP
360
6F7C
  0
DICTIONARY
  5
6F7F
330
234
100
AcDbDictionary
280
     1
281
     1
  3
ACAD_XREC_ROUNDTRIP
360
6F80
  0
DICTIONARY
  5
6F7D
330
233
100
AcDbDictionary
280
     1
281
     1
  3
ACAD_XREC_ROUNDTRIP
360
6F7E
  0
DICTIONARY
  5
6F81
330
235
100
AcDbDictionary
280
     1
281
     1
  3
ACAD_XREC_ROUNDTRIP
360
6F82
  0
DICTIONARY
  5
229F
330
249
100
AcDbDictionary
280
     1
281
     1
  3
ACAD_ROUNDTRIP_2008_TABLESTYLE_CELLSTYLEMAP
360
6F70
  3
ACAD_XREC_ROUNDTRIP
360
6FA3
  0
DICTIONARY
  5
6F8D
330
23C
100
AcDbDictionary
280
     1
281
     1
  3
ACAD_XREC_ROUNDTRIP
360
6F8E
  0
DICTIONARY
  5
6F91
330
23E
100
AcDbDictionary
280
     1
281
     1
  3
ACAD_XREC_ROUNDTRIP
360
6F92
  0
DICTIONARY
  5
6F8F
330
23D
100
AcDbDictionary
280
     1
281
     1
  3
ACAD_XREC_ROUNDTRIP
360
6F90
  0
DICTIONARY
  5
6F8B
330
23B
100
AcDbDictionary
280
     1
281
     1
  3
ACAD_XREC_ROUNDTRIP
360
6F8C
  0
DICTIONARY
  5
6F99
330
242
100
AcDbDictionary
280
     1
281
     1
  3
ACAD_XREC_ROUNDTRIP
360
6F9A
  0
DICTIONARY
  5
6FA1
330
246
100
AcDbDictionary
280
     1
281
     1
  3
ACAD_XREC_ROUNDTRIP
360
6FA2
  0
DICTIONARY
  5
6F93
330
23F
100
AcDbDictionary
280
     1
281
     1
  3
ACAD_XREC_ROUNDTRIP
360
6F94
  0
DICTIONARY
  5
6F97
330
241
100
AcDbDictionary
280
     1
281
     1
  3
ACAD_XREC_ROUNDTRIP
360
6F98
  0
DICTIONARY
  5
6FB6
330
20EF
100
AcDbDictionary
280
     1
281
     1
  3
ACAD_XREC_ROUNDTRIP
360
6FB7
  0
DICTIONARY
  5
6F9F
330
245
100
AcDbDictionary
280
     1
281
     1
  3
ACAD_XREC_ROUNDTRIP
360
6FA0
  0
DICTIONARY
  5
6F83
330
237
100
AcDbDictionary
280
     1
281
     1
  3
ACAD_XREC_ROUNDTRIP
360
6F84
  0
DICTIONARY
  5
6F85
330
238
100
AcDbDictionary
280
     1
281
     1
  3
ACAD_XREC_ROUNDTRIP
360
6F86
  0
DICTIONARY
  5
6F87
330
239
100
AcDbDictionary
280
     1
281
     1
  3
ACAD_XREC_ROUNDTRIP
360
6F88
  0
DICTIONARY
  5
6F89
330
23A
100
AcDbDictionary
280
     1
281
     1
  3
ACAD_XREC_ROUNDTRIP
360
6F8A
  0
DICTIONARY
  5
6FA6
330
20E7
100
AcDbDictionary
280
     1
281
     1
  3
ACAD_XREC_ROUNDTRIP
360
6FA7
  0
DICTIONARY
  5
6FB2
330
20ED
100
AcDbDictionary
280
     1
281
     1
  3
ACAD_XREC_ROUNDTRIP
360
6FB3
  0
DICTIONARY
  5
6F9D
330
244
100
AcDbDictionary
280
     1
281
     1
  3
ACAD_XREC_ROUNDTRIP
360
6F9E
  0
DICTIONARY
  5
6FB4
330
20EE
100
AcDbDictionary
280
     1
281
     1
  3
ACAD_XREC_ROUNDTRIP
360
6FB5
  0
DICTIONARY
  5
6F95
330
240
100
AcDbDictionary
280
     1
281
     1
  3
ACAD_XREC_ROUNDTRIP
360
6F96
  0
DICTIONARY
  5
6FB0
330
20EC
100
AcDbDictionary
280
     1
281
     1
  3
ACAD_XREC_ROUNDTRIP
360
6FB1
  0
DICTIONARY
  5
6FAE
330
20EB
100
AcDbDictionary
280
     1
281
     1
  3
ACAD_XREC_ROUNDTRIP
360
6FAF
  0
DICTIONARY
  5
6FA8
330
20E8
100
AcDbDictionary
280
     1
281
     1
  3
ACAD_XREC_ROUNDTRIP
360
6FA9
  0
DICTIONARY
  5
6FAA
330
20E9
100
AcDbDictionary
280
     1
281
     1
  3
ACAD_XREC_ROUNDTRIP
360
6FAB
  0
DICTIONARY
  5
6F9B
330
243
100
AcDbDictionary
280
     1
281
     1
  3
ACAD_XREC_ROUNDTRIP
360
6F9C
  0
DICTIONARY
  5
6FA4
330
20E6
100
AcDbDictionary
280
     1
281
     1
  3
ACAD_XREC_ROUNDTRIP
360
6FA5
  0
DICTIONARY
  5
6FAC
330
20EA
100
AcDbDictionary
280
     1
281
     1
  3
ACAD_XREC_ROUNDTRIP
360
6FAD
  0
XRECORD
  5
6F7A
102
{ACAD_REACTORS
330
229D
102
}
330
229D
100
AcDbXrecord
280
     1
102
SHADEPLOT
 70
     0
102
SHADEPLOTRESLEVEL
 70
     2
102
SHADEPLOTCUSTOMDPI
 70
   300
  0
PLOTSETTINGS
  5
33AC
102
{ACAD_XDICTIONARY
360
6FB8
102
}
102
{ACAD_REACTORS
330
229D
102
}
330
229D
100
AcDbPlotSettings
  1

  2
DWG To PDF.pc3
  4
ISO_full_bleed_A3_(420.00_x_297.00_MM)
  6
AM_VIEW1
 40
0.7937499880790711
 41
0.7937499880790711
 42
0.79376220703125
 43
0.79376220703125
 44
420.0
 45
297.0
 46
-0.8344098196567131
 47
-0.8073496384350846
 48
0.0
 49
0.0
140
0.0
141
0.0
142
2.0
143
1.0
 70
 11940
 72
     1
 73
     0
 74
     1
  7
IMAGIO.ctb
 75
     0
147
1.920232922602835
148
-222.7604684694589
149
-167.1046239092381
1001
ACAD_PSEXT
1000
DWG To PDF.pc3
1000
DWG To PDF
1000
ファイル
1000

1070
     0
  0
XRECORD
  5
229E
102
{ACAD_REACTORS
330
229D
102
}
330
229D
100
AcDbXrecord
280
     1
310
28000000000100008C0000000100080000000000008C0000000000000000000000010000000000000000000000000000FFFFFF000000000000000000000000000000000000000000000000000000000000000000330000006600000099000000CC000000FF00000000330000333300006633000099330000CC330000FF3300
310
0000660000336600006666000099660000CC660000FF66000000990000339900006699000099990000CC990000FF99000000CC000033CC000066CC000099CC0000CCCC0000FFCC000000FF000033FF000066FF000099FF0000CCFF0000FFFF000000003300330033006600330099003300CC003300FF003300003333003333
310
33006633330099333300CC333300FF33330000663300336633006666330099663300CC663300FF66330000993300339933006699330099993300CC993300FF99330000CC330033CC330066CC330099CC3300CCCC3300FFCC330000FF330033FF330066FF330099FF3300CCFF3300FFFF330000006600330066006600660099
310
006600CC006600FF00660000336600333366006633660099336600CC336600FF33660000666600336666006666660099666600CC666600FF66660000996600339966006699660099996600CC996600FF99660000CC660033CC660066CC660099CC6600CCCC6600FFCC660000FF660033FF660066FF660099FF6600CCFF6600
310
FFFF660000009900330099006600990099009900CC009900FF00990000339900333399006633990099339900CC339900FF33990000669900336699006666990099669900CC669900FF66990000999900339999006699990099999900CC999900FF99990000CC990033CC990066CC990099CC9900CCCC9900FFCC990000FF99
310
0033FF990066FF990099FF9900CCFF9900FFFF99000000CC003300CC006600CC009900CC00CC00CC00FF00CC000033CC003333CC006633CC009933CC00CC33CC00FF33CC000066CC003366CC006666CC009966CC00CC66CC00FF66CC000099CC003399CC006699CC009999CC00CC99CC00FF99CC0000CCCC0033CCCC0066CC
310
CC0099CCCC00CCCCCC00FFCCCC0000FFCC0033FFCC0066FFCC0099FFCC00CCFFCC00FFFFCC000000FF003300FF006600FF009900FF00CC00FF00FF00FF000033FF003333FF006633FF009933FF00CC33FF00FF33FF000066FF003366FF006666FF009966FF00CC66FF00FF66FF000099FF003399FF006699FF009999FF00CC
310
99FF00FF99FF0000CCFF0033CCFF0066CCFF0099CCFF00CCCCFF00FFCCFF0000FFFF0033FFFF0066FFFF0099FFFF00CCFFFF00FFFFFF00000000000D0D0D001A1A1A00282828003535350043434300505050005D5D5D006B6B6B00787878008686860093939300A1A1A100AEAEAE00BBBBBB00C9C9C900D6D6D600E4E4E400
310
F1F1F100FFFFFF00000000000000000000000000000000000000000000000000000000000000000000000000000000000000000000000000000000000000000000000000000000000000000000F5F5F5F5F5F5F5F5F5F5F5000000000000000000000000000000000000000000000000000000000000000000000000000000
310
00000000000000000000000000000000000000000000000000000000000000000000000000000000000000000000000000000000000000000000000000000000000000000000000000000000000000000000000000000000000000000000000000000000000000000000000000000000000000000000000000000000000000
310
00000000000000000000F5F5F5F5F5F5F5F5F5F5F500000000000000000000000000000000000000000000000000000000000000000000000000000000000000000000000000000000000000000000F50000000000000000000000000000000000000000000000000000000000000000000000000000000000000000000000
310
00000000000000000000000000000000000000000000000000000000000000000000000000000000000000000000000000000000000000000000000000000000000000000000000000000000000000000000000000000000000000000000000000000000000000000000000000000000000000000000000000000000000000
310
00000000000000000000000000000000000000000000F500000000000000000000000000000000000000000000000000000000000000000000000000000000000000000000000000000000000000000000F5000000000000000000000000000000000000000000000000000000000000000000000000000000000000000000
310
00000000000000000000000000000000000000000000000000000000000000000000000000000000000000000000000000000000000000000000000000000000000000000000000000000000000000000000000000000000000000000000000000000000000000000000000000000000000000000000000000000000000000
310
000000000000000000000000000000000000000000000000F500000000000000000000000000000000000000000000000000000000000000000000000000000000000000000000000000000000000000000000F500000000000000000000000000000000000000000000000000000000000000000000000000000000000000
310
00000000000000000000000000000000000000000000000000000000000000000000000000000000000000000000000000000000000000000000000000000000000000000000000000000000000000000000000000000000000000000000000000000000000000000000000000000000000000000000000000000000000000
310
0000000000000000000000000000000000000000000000000000F500000000000000000000000000000000000000000000000000000000000000000000000000000000000000000000000000000000000000000000F50000000000000000000000000000000000000000000000000000000000000000000000000000000000
310
00000000000000000000000000000000000000000000000000000000000000000000000000000000000000000000000000000000000000000000000000000000000000000000000000000000000000000000000000000000000000000000000000000000000000000000000000000000000000000000000000000000000000
310
00000000000000000000000000000000000000000000000000000000F500000000000000000000000000000000000000000000000000000000000000000000000000000000000000000000000000000000000000000000F5000000000000000000000000000000000000000000000000000000000000000000000000000000
310
00000000000000000000000000000000000000000000000000000000000000000000000000000000000000000000000000000000000000000000000000000000000000000000000000000000000000000000000000000000000000000000000000000000000000000000000000000000000000000000000000000000000000
310
000000000000000000000000000000000000000000000000000000000000F500000000000000000000000000000000000000000000000000000000000000000000000000000000000000000000000000000000000000000000F50000000000CECECECECECECECECECECECECECECECECECECECECECECECECECECECECECECECE
310
CECECECECECECECECECECECECECECECECECECECECECECECECECECECECECECECECECECECECECECECECECECECECECECECECECECECECECECECECECECECECECECECECECECECECECECECECECECECECECECECECECECECECECECECECECECECECECECECECECECECECECECFCFCFCFCFCFCFCFCFCFCFCFCFCFCFCFCFCFCFCFCFCFCF0FCF
310
CFCFCFCFCFCFCFCFCFCFCFCFCFCFCFCFCFCFCFCFCFCFCFCFCFCFCF0000000000F500000000000000000000000000000000000000000000000000000000000000000000000000000000000000000000000000000000000000000000F50000000000CE0000000000000000000000000000000000000000000000000000000000
310
0000000000000000000000000000000000000000000000000000000000000000000000000000000000000000000000000000000000000000000000000000000000000000000000000000000000000000000000000000000000000000000000000000000000000000CFF5F5F5BEBE0000F5F5F5F5F5F5F5F5F5F5F5F5F50000
310
0F00000000F5F500F500F5F5F5F5F500000000000000000000000000CF0000000000F500000000000000000000000000000000000000000000000000000000000000000000000000000000000000000000000000000000000000000000F50000000000CE000000000000000000000000000000000000000000000000000000
310
00000000000000000000000000000000000000000000000000000000000000000000000000000000000000000000000000000000000000000000000000000000000000000000000000000000000000000000000000000000000000000000000000000000000000000000F5F5F5F5BEBEF5F500F5F50000F5F5F5F5F5F5F5F5
310
F5F5F500000000F5F5F5F5F500F5F5F5F500000000000000000000000000CF0000000000F500000000000000000000000000000000000000000000000000000000000000000000000000000000000000000000000000000000000000000000F50000000000CE00000000000000000000000000000000000000000000000000
310
000000000000000000000000000000000000000000000000000000000000000000000000000000000000000000000000000000000000000000000000000000000000000000000000000000000000000000000000000000000000000000000000000000000000000000000000CFF5F5F5BEBE00F500F5F50000F5F5F5F5F5F5
310
F5F5F5F50FDCDCDCDCF5F5F5F500F5F5F5F5F500000000000000000000000000CF0000000000F500000000000000000000000000000000000000000000000000000000000000000000000000000000000000000000000000000000000000000000F50000000000CE0000000000000000000000000000000000000000000000
310
0000000000000000000000000000000000000000000000000000000000000000000000000000000000000000000000000000000000000000000000000000000000000000000000000000000000000000000000000000000000000000000000000000000000000000000000000000CF00F5BEF50000F5F5F5F5F5F5F5F5F5F5
310
F5F5F5F5F5F5F5DCDCDCDCDC0F0F0F0F0F0F0F0F0F0F0F0F0F0F0F0F0F0F0F0F0F0F0F0000000000F500000000000000000000000000000000000000000000000000000000000000000000000000000000000000000000000000000000000000000000000000000000CE000000000000000000000000000000000000000000
310
00000000000000000000000000000000000000000000000000000000000000000000000000000000000000000000000000000000000000000000000000000000000000000000000000000000000000000000000000000000000000000000000000000000000000000000000000000000CFBEF5BEF500F5F5F5F5F50000F5F5
310
F5F5F5F5F5F5F5F5F5000000000000000000000000000000000000000000000000000000CF00000000000000000000000000000000000000000000000000000000000000000000000000000000000000000000000000000000000000000000000000000000000000000000CE00000000000000000000000000000000000000
310
000000000000000000000000000000000000000000000000000000000000000000000000000000000000000000000000000000000000000000000000000000000000000000000000000000000000000000000000000000000000000000000000000000000000000000000000000000000000CFBEBEF50000F5F5F5F5F5F500
310
F5F5F5F5F5F5F5F5F5F50F00000000F5F5F5F5F5F5F5F5F5F5F50000F5F5F5F5F5F5F5F50000CF00000000000000000000000000000000000000000000000000000000000000000000000000000000000000000000000000000000000000000000000000000000000000000000CE0000000000000000000000000000000000
310
0000000000000000000000000000000000000000000000000000000000000000000000000000000000000000000000000000000000000000000000000000000000000000000000000000000000000000000000000000000000000000000000000000000000000000000000000000000000000000CFBEBEF500000000000000
310
0000F5F5F500F500F500F5F50FDCDCDCDCF5F5F5F5F5F5F5F5F5F5F5F500F5F5F5F5F5F5F5F50000CF00000000000000000000000000000000000000000000000000000000000000000000000000000000000000000000000000000000000000000000000000000000000000000000CE000000000000000000000000000000
310
00000000000000000000000000000000000000000000000000000000000000000000000000000000000000000000000000000000000000000000000000000000000000000000000000000000000000000000000000000000000000000000000000000000000000000000000000000000000000000000CF0000000000000000
310
00000000000000000000000000000FDCDCDCDC0000000000000000000000000000000000000000000000CF00000000000000000000000000000000000000000000000000000000000000000000000000000000000000000000000000000000000000000000000000000000000000000000CE00000000000000000000000000
310
0000000000000000000000000000000000000000000000000000000000000000000000000000000000000000000000000000000000000000000000000000000000000000000000000000000000000000000000000000000000000000000000000000000000000000000000000000000000000000000000000F0F0F0F0F0FDC
310
DCDCDC0F0F0F0F0F0F0FDCDCDCDCDCDC0F0F0F0F0F0F0F0F0F0F0F0F0F0F0F0F0F0F0F0F0F0F0F0F0F0F0F0F0F00000000000000000000000000000000000000000000000000000000000000000000000000000000000000000000000000000000000000000000000000000000000000000000CE0000000000000000000000
310
0000000000000000000000000000000000000000000000000000000000000000000000000000000000000000000000000000000000000000000000000000000000000000000000000000000000000000000000000000000000000000000000000000000000000000000000000000000000000000000000000000CFDCDCDC00
310
00DCDCDCDC0000DCDCDCDC00DCDCDCDCDCDC0FDCDC00DC0000000000000000000000000000000000000000000000CF00000000000000000000000000000000000000000000000000000000000000000000000000000000000000000000000000000000000000000000000000000000000000000000CE000000000000000000
310
00000000000000000000000000000000000000000000000000000000000000000000000000000000000000000000000000000000000000000000000000000000000000000000000000000000000000000000000000000000000000000000000000000000000000000000000000000000000000000000000000000000DCDCDC
310
DC0000DC0000000000DCDCDCDC00DCDC000000000FDCDCDCDCDC00000000000000000000000000000000000000000000CF00000000000000000000000000000000000000000000000000000000000000000000000000000000000000000000000000000000000000000000000000000000000000000000CE00000000000000
310
0000000000000000000000000000000000000000000000000000000000000000000000000000000000000000000000000000000000000000000000000000000000000000000000000000000000000000000000000000000000000000000000000000000000000000000000000000000000000000000000000000000000000F
310
DCDCDC0F0FDCDCDCDC0F0FDCDC0F0F0FDCDCDCDCDC0F0FDCDC0FDC0F0F0F0F0F0F0F0F0F0F0F0F0F0F0F0F0F0F0F0F0F0F0F0F00000000000000000000000000000000000000000000000000000000000000000000000000000000000000000000000000000000000000000000000000000000000000000000CE0000000000
310
00000000000000000000000000000000000000000000000000000000000000000000000000000000000000000000000000000000000000000000000000000000000000000000000000000000000000000000000000000000000000000000000000000000000000000000000000000000000000000000000000000000000000
310
00CFDCDCDC0000DCDCDCDC0000DCDCDCDC00DCDC00DCDC000FDCDCDCDCDC00000000000000000000000000000000000000000000CF00000000000000000000000000000000000000000000000000000000000000000000000000000000000000000000000000000000000000000000000000000000000000000000CE000000
310
00000000000000000000000000000000000000000000000000000000000000000000000000000000000000000000000000000000000000000000000000000000000000000000000000000000000000000000000000000000000000000000000000000000002828000000000000000000000000000000000028280000000000
310
000000DCDCDCDC0000DCDCDCDC0000DCDCDCDC0000DC00DCDC000FDCDCDCDC0000000000000000000000000000000000000000000000CF00000000000000000000000000000000000000000000000000000000000000000000000000000000000000000000000000000000000000000000000000000000000000000000CE00
310
0000000000000000000000000000000000000000000000000000000000000000000000000000000000000000000000000000000000000000000000000000000000000000000000000000000000000000000000000000000000000000000000000000000000000028282828282828DCDCDCDC28DCDC28282828282828000000
310
00000000000FDCDCDC0F0F0F0F0F0F0F0FDCDCDCDC0F0F0F0F0F0F0F0FDCDCDCDCDC0F0F0F0F0F0F0F0F0F0F0F0F0F0F0F0F0F0F0F0F0F0F0F00000000000000000000000000000000000000000000000000000000000000000000000000000000000000000000000000000000000000000000000000000000000000000000
310
CE000000000000000000000000000000000000000000000000000000000000000000000000000000000000000000000000000000000000000000000000000000000000000000000000000000000000000000000000000000000000000000000000000000000000000028000000000000DCDCDCDC00DCDC0000000000002800
310
00000000000000CF000000000000000000000000000FDCDCDCDCDCDCDCDC0F00DCDCDCDCDCDCDC00DCDCDCDCDCDC0000000FDCDCDCDCDCDCDCDCDC0000000000000000000000000000000000000000000000000000000000000000000000000000000000000000000000000000000000000000000000000000000000000000
310
0000CE000000000000000000000000000000000000000000000000000000000000000000000000000000000000000000000000000000000000000000000000000000000000000000000000000000000000000000000000000000000000000000000000000000000000000028000000000000DCDCDCDC00DCDC000000000000
310
280000000000000000CF000000000000000000000000000FDCDCDCDCDCDCDCDC0F00DCDCDC00DCDCDC00DCDCDCDCDCDC0000000FDCDCDCDCDCDCDCDCDC000000000000000000000000000000000000000000000000000000000000000000000000000000000000000000000000000000000000000000000000000000000000
310
00000000CE0000000000000000000000000000000000000000000000000000000000000000000000000000000000000000000000000000000000000000000000000000000000000000000000000000000000000000000000000000000000000000000000000000000000000000280000000000000000000000000000000000
310
0000280000000000000000F5CFCFCFCFCFCFCFCFCFCFCFCFCFF5CFCFCFCFCFCFCFCF0FCFCFCFCFCFCFCFCFCF0FCFCFCFCFCFCFCFCF0FCFCFCFCFCFCFCFCFCF00000000000000000000000000000000000000000000000000000000000000000000000000000000000000000000000000000000000000000000000000000000
310
000000000000CE0000000000000000000000000000000000000000000000000000000000000000000000000000000000000000000000000000000000000000000000000000000000000000000000000000000000000000000000000000000000000000000000000000000000000000280000000000000000002D0000000000
310
00000000280000000000000000F50000F5F5F5F5F5F5F5F5000000F5000000000000F5F500F5F5F5F5F500000000000000000000000000000000000000000000CE0000000000000000000000000000000000000000000000000000000000000000000000000000000000000000000000000000000000000000000000000000
310
0000000000000000CE00000000000000000000000000000000000000000000000000000000000000F5F5F5F5F5F5F5F5F500000000000000000000000000000000000000000000F5F5F5F5F5F5F5F500000000000000000000000000000000000000000000000000000000000000000000280000000000000000002D000000
310
000000000000280000000000000000F50000F5F5F5F5F5F5F5F5000000F5000000000000F5F500F5F5F5F5F500000000000000000000000000000000000000000000CE000000000000000000000000000000000000000000000000000000000000000000000000000000000000000000000000000000000000000000000000
310
00000000000000000000CE00000000000000000000000000000000000000000000000000000000000000F50000000000000000F5000000000000000000000000000000000000000000F500000000000000F50000000000000000000000000000000000000000000000000000000000000000002800000000000000F5F52DF5
310
F500000000000000280000000000000000F500000000000000000000000000F5000000000000000000000000000000000000000000000000000000000000000000000000CE00000000000000000000000000000000000000000000000000000000000000000000000000000000000000000000000000000000000000000000
310
000000000000000000000000CE00000000000000000000000000000000000000000000000000000000F5F5F50000000000000000F5F50000000000000000000000000000000000000000F50000000000000000F5F5F500000000000000000000000000000000000000000000000000000000000000280000000000F5F50000
310
2DF500F5F50000000000280000000000000000F5F5F5F5F5F5F5F5F5F5F5F5F5F5F5F5F5F5F5F5F5F5F5F5F5F5F5F5F5F5F5F5F5F5F5F5F5F5F5F5F5F5F5F5F5F5F5F5F5F5F5F50000000000000000000000000000000000000000000000000000000000000000000000000000000000000000000000000000000000000000
310
0000000000000000000000000000CE0000000000000000DCDCDCDCDCDCDC28DCDC2828000000F5F5F5F5F50000F5000000000000000000F50000000000000000000000000000000000000000F50000000000000000F50000F5F5F5F5F500000000002828DCDCDCDCDCDCDCDCDC000000000000000000002800000000F500F5
310
F5F52D00F5F500F500000000280000000000000000000000000000000000000000000000000000000000000000000000000000000000000000000000000000000000000000000000CE000000000000000000000000000000000000000000000000000000000000000000000000000000000000000000000000000000000000
310
00000000000000000000000000000000CE0000000000000000DCDCDCDCDCDCDCDCDCDC2800F5F5F500000000000000F5F50000000000000000F50000000000000000002D00000000000000000000F50000000000000000F500000000000000F5F5F500000028DCDCDCDCDCDCDCDCDC00000000000000000000280000F5F5F5
310
F500F5F52DF5F500F5F5F5F50000280000000000000000000000000000000000000000000000000000000000000000000000000000000000000000000000000000000000000000000000CE00000000000000000000000000000000000000000000000000000000000000000000000000000000000000000000000000000000
310
000000000000000000000000000000000000CE0000000000000000DCDCDCDCDCDCDC00DCDC2800F5000000000000000000F5F500000000000000F5BEF5BEF5BEBEF5BEF5BE2DF5BEF5BEBEF5BEBEF5BEF50000000000000000F5000000000000000000F500000028DCDCDCDCDCDCDCDCDC0000000000000000000028F5F5F5
310
F500F5F5F5F52DF5F5F5F500F5F5F5F5280000000000000000000000000000000000000000000000000000000000000000000000000000000000000000000000000000000000000000000000CE0000000000000000000000000000000000000000000000000000000000000000000000000000000000000000000000000000
310
0000000000000000000000000000000000000000CE0000000000000000000000000000000000280000F5000000000000000000F5F5F5F5F5F5F5F5F5F5BEBE00BE00BEBE00BE002DBE00BE00BEBE00BEBE00BEF5F5F5F5F5F5F5F5F5000000000000000000F500000028280000000000000000000000000000000000002800
310
00F500F500F500002D0000F5F5F50000F500280000000000000000000000000000000000000000000000000000000000000000000000000000000000000000000000000000000000000000000000CE000000000000000000000000000000000000000000000000000000000000000000000000000000000000000000000000
310
00000000000000000000000000000000000000000000CE000000000000000000000000000000002800000028000000000000000000F5F500000000000000F5F5BEBE00BEBE00BE00BE2D00BE00BEBE00BE00BEBEF5F5000000000000F5F5000000000000000000280000000028000000000000000000000000000000000000
310
F500F50000F5F500F5F52DF5F50000F5F500F500F50000000000000000000000000000000000000000000000000000000000000000000000000000000000000000000000000000000000000000000000CE00000000000000000000000000000000000000000000000000000000000000000000000000000000000000000000
310
000000000000000000000000000000000000000000000000CE0000000000000000000000000000000028000000F5000000000000000000F50000000000000000F5BEBEF5BEF5BEBEF5BEF52DBEF5BEF5BEBEF5BEF5BEBE0000000000000000F5000000000000000000F5000000002800000000000000000000000000000000
310
0000F500F500F50000F5F5F52DF5F5F50000F5F500F5F50000000000000000000000000000000000000000000000000000000000000000000000000000000000000000000000000000000000000000000000CE0000000000000000000000000000000000000000000000000000000000000000000000000000000000000000
310
0000000000000000000000000000000000000000000000000000CE0000000000000000000000000000000028000000F5000000000000000000F50000000000000000F5F500000000000000C3C32DC3C30000000000000000F50000000000000000F5000000000000000000F500000000280000000000000000000000000000
310
00000000F5F50000F500F5F5F5002D0000F5F50000F500F5F50000000000000000000000000000000000000000000000000000000000000000000000000000000000000000000000000000000000000000000000CE000000000000000000000000000000000000000000000000000000000000000000000000000000000000
310
00000000000000000000000000000000000000000000000000000000CE000000000000000000000000000000DC28000000F5000000000000000000F50000000000000000F5F500000000000000C3C32D0000C300000000000000F50000000000000000F5000000000000000000F50000DCDC28000000000000000000000000
310
000000000000F5F500F50000F5F500002D000000F5F500F500F5F50000000000000000000000000000000000000000000000000000000000000000000000000000000000000000000000000000000000000000000000CE00000000000000000000000000000000000000000000000000000000000000000000000000000000
310
000000000000000000000000000000000000000000000000000000000000CE0000000000000000000000000000DCDCDC000000F5000000000000000000F5000000000000000000F50000000000C3C3C3C32DC3C3C3C3C30000000000F50000000000000000F5000000000000000000F50000DCDCDC00000000000000000000
310
0000000000000000F5F500F500F5F5F500002D000000F5F500F5F500F50000000000000000000000000000000000000000000000000000000000000000000000000000000000000000000000000000000000000000000000CE0000000000000000000000000000000000000000000000000000000000000000000000000000
310
0000000000000000000000000000000000000000000000000000000000000000CE0000000000000000000000000000DCDCDC00002DF52D2D2D2D2D2D2D2D2D2D2D2D2D2D2D2D2D2D2D2D2D2D2D2D2DC32D2D2D2D2D2D2D2D2D2D2D2D2D2D2D2D2D2D2D2D2D2D2D2D2D2D2D2D2D2D2D2D2DF52D2DDCDCDC0000000000000000
310
0000000000000000002D2D2D2DF52D2D2D2D2D2D2D2D2D2D2D2D2DF5F52D2D2D28282828282800000000000000000000000000000000000000000000000000000000000000000000000000000000000000000000000000000000CE000000000000000000000000000000000000000000000000000000000000000000000000
310
00000000000000000000000000000000000000000000000000000000000000000000CE0000000000000000000000000000DCDCDC000000F5000000000000F5000000000000000000000000000000000000C30000C32D00000000C30000000000000000000000000000000000F5F50000000000F50000DCDCDC000000000000
310
000000000000000000000000F5F500F50000F5F500002D000000F5F500F5F500F50000000000282800000000000000000000000000000000000000000000000000000000000000000000000000000000000000000000000000000000CE00000000000000000000000000000000000000000000000000000000000000000000
310
000000000000000000000000000000000000000000000000000000000000000000000000CE0000000000000000000000000000000028000000F5000000000000F5000000000000000000000000000000000000C30000C32D00000000C30000000000000000000000000000000000F5F50000000000F5000000002800000000
310
0000000000000000000000000000F5F500F50000F5F500002D0000F5F50000F500F5F50000000000280000000000000000000000000000000000000000000000000000000000000000000000000000000000000000000000000000000000CE0000000000000000000000000000000000000000000000000000000000000000
310
0000000000000000000000000000000000000000000000000000000000000000000000000000CE0000000000000000000000000000000028280000F5000000000000BEF5BEBEF5BEF5BEBEF5BEF5BEBEF5BEF5BEBEF50000002DC3C3C3C3BEF5BEF5BEBEF5BEF5BEBEF5BEBEF5BEF5BEBEF50000000000F500000000282800
310
00000000000000000000000000000000F5F50000F500F5F5F5F52DF5F5F5F500F5F500F5F50000000000280000000000000000000000000000000000000000000000000000000000000000000000000000000000000000000000000000000000CE000000000000000000000000000000000000000000000000000000000000
310
00000000000000000000000000000000000000000000000000000000000000000000000000000000CE0000000000000000000000000000000028282828F5BEF5BEF5BEBEF5BE00BEBE00BE00BEBE00BE00BEBE00BE00BEBE0000002D00000000F5BE00BE00BEBE00BE00BEBE00BEBE00BE00F5BEF5BEBEF5BEF52828282828
310
280000000000000000000000000000000000F500F500F5F50000F5F52DF5F5F50000F5F5F500F50000000000280000000000000000000000000000000000000000000000000000000000000000000000000000000000000000000000000000000000CE00000000000000000000000000000000000000000000000000000000
310
000000000000000000000000000000000000000000000000000000000000000000000000000000000000CE0000000000000000000000000000000000000000F5BEBE00BEBE0000BEBEBE00BE00BE00BEBE00BE00BEBE00BE00BE0000002D00000000BE00BE00BE00BEBE00BE00BEBEBE00BE00F5BE00BEBE00BE00BE000000
310
0000000000000000000000000000000000000000F500F50000F5000000002D00000000F5F500F500F50000000000280000000000000000000000000000000000000000000000000000000000000000000000000000000000000000000000000000000000CE0000000000000000000000000000000000000000000000000000
310
0000000000000000000000000000000000000000000000000000000000000000000000000000000000000000CE0000000000000000000000000000000000000000BEBE0000BEBE00BEBEBEBEBEBEBEF5BEBEF5BEF5BEF5BEBE00BEF50000002D00000000BEBE2DBEF5BEBEF5BEF5BEBEF5BEBEF5BEBE00BEBE00BE00BEBE00
310
0000000000000000000000000000000000000000000000F5F5F50000F5F5F5002D00F5F5F50000F5F5F5000000000000280000000000000000000000000000000000000000000000000000000000000000000000000000000000000000000000000000000000CE000000000000000000000000000000000000000000000000
310
00000000000000000000000000000000000000000000000000000000000000000000000000000000000000000000CE0000000000000000000000000000000000000000BEF5F5BEBEBEBEBEBE00BE28BEBEBEBEBEBEBEBE280000F5BE00BE0000002D00000000F5BEBE2D000028BEBEBEBEBEBEBEBEBEBE00BE00BEBE00BEBE
310
F50000000000000000000000000000000000000000000000000000F5F50000F5F5F52DF5F5F50000F5F50000000000000000280000000000000000000000000000000000000000000000000000000000000000000000000000000000000000000000000000000000CE00000000000000000000000000000000000000000000
310
000000000000000000000000000000000000000000000000000000000000000000000000000000000000000000000000CE00000000000000000000000000000000000000000000BEBEBEF5BEF5BEBE00BEBE00BE00BEBE0000BE000000BEBEF50000002D00000000BE00BE280000BEBE00BEBE00BE00BE00BEBEF5BEBEF5BE
310
000000000000000000000000000000000000000000000000000000000000F5F5F50000002D00000000F500F50000000000000000280000000000000000000000000000000000000000000000000000000000000000000000000000000000000000000000000000000000CE0000000000000000000000000000000000000000
310
0000000000000000000000000000000000000000000000000000000000000000000000000000000000000000000000000000CE000000000000000000000000000000000000000000000000000000BEBEF5BE00BEBE00BEBE0000BEBE000000F5BEBE0000002D00000000F5BEF5002800BEBEBE00BEBE00BE00BEBEF5BE2D28
310
2800000000000000000000000000000000000000000000000000000000000000F500F5F5F5F52DF5F5F5F50000F50000000000000000280000000000000000000000000000000000000000000000000000000000000000000000000000000000000000000000000000000000CE000000000000000000000000000000000000
310
00000000000000000000000000000000000000000000000000000000000000000000000000000000000000000000000000000000CE00000000000000000000000000000000000000000000000000000000000000BEBE00BEBE00BEBEBEF5000000BE00BE0000002D00000000BE00BE002800BEF500BEBE00BE00BEF5000000
310
002828000000000000000000000000000000000000000000000000000000000000F5F5F5F5F5F5F52DF5F5F5F5F5F5F5000000000000DC00DC0000000000000000000000000000000000000000000000000000000000000000000000000000000000000000000000000000000000CE00000000000000000000000000000000
310
000000000000000000000000000000000000000000000000000000000000000000000000000000000000000000000000000000000000CE00000000000000000000000000000000000000000000000000000000000000BEF5BEBE28BEF5BEF50000F5BE00BEF50000002D00000000BEBE28BE002800F5BEBEF5BEF5BEF50000
310
00000000280000000000000000000000000000000000000000000000000000000000F5F5F5F5F5F5F5F5F5F5F5F5F5F5F5F5F50000000000DCDCDC0000000000000000000000000000000000000000000000000000000000000000000000000000000000000000000000000000000000CE0000000000000000000000000000
310
0000000000000000000000000000000000000000000000000000000000000000000000000000000000000000000000000000000000000000CE000000000000000000000000000000000000000000000000000000000000000000002800000000000000BE28BE00BE0000002D00000000F5BEBEF50028000000000028000000
310
000000000000002800000000000000000000000000000000000000000000000000000000F5280000000000002D00000000000028F50000000000DCDCDC0000000000000000000000000000000000000000000000000000000000000000000000000000000000000000000000000000000000CE000000000000000000000000
310
00000000000000000000000000000000000000000000000000000000000000000000000000000000000000000000000000000000000000000000CE000000000000000000000000000000000000000000000000000000000000000000002800000000000000F5BE00BEF50000002D00000000BE00BEBE000028000000002800
310
0000000000000000002800000000000000000000000000000000000000000000000000000000F5280000000000002D00000000000028F500000000000000280000000000000000000000000000000000000000000000000000000000000000000000000000000000000000000000000000000000CE00000000000000000000
310
000000000000000000000000000000000000000000000000000000000000000000000000000000000000000000000000000000000000000000000000CE000000000000000000000000000000000000000000000000000000000000000000002800000000000000BE28BEBEBE0000002D00000000F5BE28BE00002800000000
310
28000000000000000000000028000000000000000000000000000000000000000000000000000000F5280000000000002D00000000000028F500000000000000280000000000000000000000000000000000000000000000000000000000000000000000000000000000000000000000000000000000CE0000000000000000
310
0000000000000000000000000000000000000000000000000000000000000000000000000000000000000000000000000000000000000000000000000000CE000000000000000000000000000000000000000000000000000000000000000000002800000000000000BEBE0000BE0000002D00000000BE00BEF50000002800
310
000000280000000000000000000028000000000000000000000000000000000000000000000000000000F5280000000000002D00000000000028F500000000000000280000000000000000000000000000000000000000000000000000000000000000000000000000000000000000000000000000000000CE000000000000
310
00000000000000000000000000000000000000000000000000000000000000000000000000000000000000000000000000000000000000000000000000000000CE000000000000000000000000000000000000000000000000000000000000000000280000000000000000F5BEBEBEF50000002D00000000BEBE28BE000000
310
2800000000280000000000000000000000280000000000000000000000000000000000000000000000000000F5280000000000002D00000000000028F500000000000000280000000000000000000000000000000000000000000000000000000000000000000000000000000000000000000000000000000000CE00000000
310
000000000000000000000000000000000000000000000000000000000000000000000000000000000000000000000000000000000000000000000000000000000000CE000000000000000000000000000000000000000000000028282828282828282828280000000000000028BE28BEBEBE2828282D28282828F5BEBE2828
310
00000028000000282828282828282828282800280000000000000000000000000000000000000000000000000028282828282828282828282828282828282828000000000000280000000000000000000000000000000000000000000000000000000000000000000000000000000000000000000000000000000000CE0000
310
0000000000000000000000000000000000000000000000000000000000000000000000000000000000000000000000000000000000000000000000000000000000000000CE0000000000000000000000000000000000000000000000DCDCDC00DCDCDCDCDCDCDC000000000000000028BE0000BE0000002D00000000BE00BE
310
BE000000000028000000DCDCDC00DCDCDCDCDCDC00002800000000000000000000000000000000000000000000000000F5280000000000002D00000000000028F500000000000000280000000000000000000000000000000000000000000000000000000000000000000000000000000000000000000000000000000000CE
310
00000000000000000000000000000000000000000000000000000000000000000000000000000000000000000000000000000000000000000000000000000000000000000000CE0000000000000000000000000000000000000000000000DCDCDCDCDCDCDCDCDCDCDC0000000000000000BE28BEBEF50000002D00000000F5
310
BE28BE000000000028000000DCDCDCDCDC00DCDCDCDC00002800000000000000000000000000000000000000000000000000F5280000000000002D00000000000028F5000000000000002800000000000000000000000000000000000000000000000000000000000000000000000000000000000000000000000000000000
310
00CE00000000000000000000000000000000000000000000000000000000000000000000000000000000000000000000000000000000000000000000000000000000000000000000CE00000000000000000000000000000000000000000000000000000000000000000000000000000000000028BE0000BE0000002D000000
310
00BE00BEF50000000000002800000000000000000000000000002800000000000000000000000000000000000000000000000000F5280000000000002D00000000000028F500000000000000280000000000000000000000000000000000000000000000000000000000000000000000000000000000000000000000000000
310
000000CE00000000000000000000000000000000000000000000000000000000000000000000000000000000000000000000000000000000000000000000000000000000000000000000CE00000000000000000000000000000000000000000000000000000000000000000000000000000000002800F5BEBEF50000002D00
310
000000BEBEF5BE0000000000002800000000000000000000000000000028000000000000000000000000000000000000000000000000F5F5F5F5F5F5F5F5F5F5F5F5F5F5F5F5F50000000000000028000000000000000000000000000000000000000000000000000000000000000000000000000000000000000000000000
310
0000000000CE00000000000000000000000000000000000000000000000000000000000000000000000000000000000000000000000000000000000000000000000000000000000000000000CE0000000000000000000000000000000000000000000000000000000000000000002828282828282828280028BE00BE000000
310
2D00000000F5BEBEF5000000000000002800000000000000000000000000002800000000000000000000000000000000000000000000000000F50000000000002D00000000000028F5000000000000002828000000000000000000000000000000000000000000000000000000000000000000000000000000000000000000
310
00000000000000CE00000000000000000000000000000000000000000000000000000000000000000000000000000000000000000000000000000000000000000000000000000000000000000000CE00000000000000000000000000000000000000000000000000000000000000000000DCDC00DCDCDCDC000028F5BEF5F5
310
F5F52DF5F5F5F5F5F5BE0000000000000000280000000000000000000000000000002800000000000000000000000000000000000000000000000028F5F5F5F5F5F5F5F5F5F5F5F5F5F52828282828282828282800000000000000000000000000000000000000000000000000000000000000000000000000000000000000
310
000000000000000000CE00000000000000000000000000000000000000000000000000000000000000000000000000000000000000000000000000000000000000000000000000000000000000000000CE00000000000000000000000000000000000000000000000000000000000000000000DCDCDCDCDCDCDC0000000000
310
280000002D0000000028000000000000000000000028000000000000000000000000000028000000000000000000000000000000000000000000000000000000000000002D00000000000000000000000000000000000000000000000000000000000000000000000000000000000000000000000000000000000000000000
310
0000000000000000000000CE00000000000000000000000000000000000000000000000000000000000000000000000000000000000000000000000000000000000000000000000000000000000000000000CE0000000000000000000000000000000000000000000000000000000000000000000000000000000000000000
310
0000280000000000000000280000000000000000000000280000F50000000000000000000000002800F500000000000000000000000000000000000000000000000000000000000000000000000000000000000000000000000000000000000000000000000000000000000000000000000000000000000000000000000000
310
00000000000000000000000000CE00000000000000000000000000000000000000000000000000000000000000000000000000000000000000000000000000000000000000000000000000000000000000000000CE000000000000000000000000000000000000000000000000000000000000000000000000000000000000
310
0000000028282828282828282828000000000000000000000000F5F500F5F500000000000000000000F5F500F500000000000000000000000000000000000000000000000000000000000000000000000000000000000000000000000000000000000000000000000000000000000000000000000000000000000000000000
310
000000000000000000000000000000CE00000000000000000000000000000000000000000000000000000000000000000000000000000000000000000000000000000000000000000000000000000000000000000000CE00000000000000000000000000000000000000000000000000000000000000000000000000000000
310
000000000000282800DCDCDCDC0028280000000000000000000000F50000000000F50000000000000000F500000000F5F5000000000000000000000000000000000000000000000000000000000000000000000000000000000000000000000000000000000000000000000000000000000000000000000000000000000000
310
0000000000000000000000000000000000CE00000000000000000000000000000000000000000000000000000000000000000000000000000000000000000000000000000000000000000000000000000000000000000000CE0000000000000000000000000000000000000000000000000000000000000000000000000000
310
0000000000000000000000DCDCDCDC00000000000000000000000000F500000000000000F5000000000000F500000000000000F5000000000000000000000000000000000000000000000000000000000000000000000000000000000000000000000000000000000000000000000000000000000000000000000000000000
310
00000000000000000000000000000000000000CE00000000000000000000000000000000000000000000000000000000000000000000000000000000000000000000000000000000000000000000000000000000000000000000CE000000000000000000000000000000000000000000000000000000000000000000000000
310
000000000000000000000000000000000000000000000000000000000000F5000000F5000000F5000000000000F50000F5F5000000F500000000000000000000000000000000000000000000000000000000000000000000000000000000000000000000000000000000000000000000000000000000000000000000000000
310
000000000000000000000000000000000000000000CE00000000000000000000000000000000000000000000000000000000000000000000000000000000000000000000000000000000000000000000000000000000000000000000CE00000000000000000000000000000000000000000000000000000000000000000000
310
0000000000000000000000000000000000000000000000000000000000000000F5000000F5000000F50000000000F5000000F5F5000000F50000000000000000000000000000000000000000000000000000000000000000000000000000000000000000000000000000000000000000000000000000000000000000000000
310
0000000000000000000000000000000000000000000000CE00000000000000000000000000000000000000000000000000000000000000000000000000000000000000000000000000000000000000000000000000000000000000000000CE0000000000000000000000000000000000000000000000000000000000000000
310
00000000000000000000000000000000000000000000000000000000000000000000F500000000000000F5000000000000F500000000000000F5000000000000000000000000000000000000000000000000000000000000000000000000000000000000000000000000000000000000000000000000000000000000000000
310
00000000000000000000000000000000000000000000000000CE00000000000000000000000000000000000000000000000000000000000000000000000000000000000000000000000000000000000000000000000000000000000000000000CE000000000000000000000000000000000000000000000000000000000000
310
00000000000000000000000000000000000000000000000000000000000000000000000000F50000000000F50000000000000000F50000000000F50000000000000000000000000000000000000000000000000000000000000000000000000000000000000000000000000000000000000000000000000000000000000000
310
000000000000000000000000000000000000000000000000000000CE00000000000000000000000000000000000000000000000000000000000000000000000000000000000000000000000000000000000000000000000000000000000000000000CE00000000000000000000000000000000000000000000000000000000
310
00000000000000000000000000000000000000000000000000000000000000000000000000000000F5000000F500000000000000000000F50000F5F500000000000000000000000000000000000000000000000000000000000000000000000000000000000000000000000000000000000000000000000000000000000000
310
0000000000000000000000000000000000000000000000000000000000CE00000000000000000000000000000000000000000000000000000000000000000000000000000000000000000000000000000000000000000000000000000000000000000000CE0000000000000000000000000000000000000000000000000000
310
00000000000000000000000000000000000000000000000000000000000000000000000000000000000000F5F5F5000000000000000000000000F5F500000000000000000000000000000000000000000000000000000000000000000000000000000000000000000000000000000000000000000000000000000000000000
310
00000000000000000000000000000000000000000000000000000000000000CE00000000000000000000000000000000000000000000000000000000000000000000000000000000000000000000000000000000000000000000000000000000000000000000CE000000000000000000000000000000000000000000000000
310
00000000000000000000000000000000000000000000000000000000000000000000000000000000000000000000000000000000000000000000000000000000000000000000000000000000000000000000000000000000000000000000000000000000000000000000000000000000000000000000000000000000000000
310
000000000000000000000000000000000000000000000000000000000000000000CE00000000000000000000000000000000000000000000000000000000000000000000000000000000000000000000000000000000000000000000000000000000000000000000CE00000000000000000000000000000000000000000000
310
00000000000000000000000000000000000000000000000000000000000000000000000000000000000000000000000000000000000000000000000000000000000000000000000000000000000000000000000000000000000000000000000000000000000000000000000000000000000000000000000000000000000000
310
0000000000000000000000000000000000000000000000000000000000000000000000CE00000000000000000000000000000000000000000000000000000000000000000000000000000000000000000000000000000000000000000000000000000000000000000000CE0000000000000000000000000000000000000000
310
00000000000000000000000000000000000000000000000000000000000000000000000000000000000000000000000000000000000000000000000000000000000000000000000000000000000000000000000000000000000000000000000000000000000000000000000000000000000000000000000000000000000000
310
00000000000000000000000000000000000000000000000000000000000000000000000000CE00000000000000000000000000000000000000000000000000000000000000000000000000000000000000000000000000000000000000000000000000000000000000000000CE000000000000000000000000000000000000
310
00000000000000000000000000000000000000000000000000000000000000000000000000000000000000000000000000000000000000000000000000000000000000000000000000000000000000000000000000000000000000000000000000000000000000000000000000000000000000000000000000000000000000
310
000000000000000000000000000000000000000000000000000000000000000000000000000000CE00000000000000000000000000000000000000000000000000000000000000000000000000000000000000000000000000000000000000000000000000000000000000000000CE00000000000000000000000000000000
310
00000000000000000000000000000000000000000000000000000000000000000000000000000000000000000000000000000000000000000000000000000000000000000000000000000000000000000000000000000000000000000000000000000000000000000000000000000000000000000000000000000000000000
310
0000000000000000000000000000000000000000000000000000000000000000000000000000000000CE00000000000000000000000000000000000000000000000000000000000000000000000000000000000000000000000000000000000000000000000000000000000000000000CE0000000000000000000000000000
310
00000000000000000000000000000000000000000000000000000000000000000000000000000000000000000000000000000000000000000000000000000000000000000000000000000000000000000000000000000000000000000000000000000000000000000000000000000000000000000000000000000000000000
310
00000000000000000000000000000000000000000000000000000000000000000000000000000000000000CE00000000000000000000000000000000000000000000000000000000000000000000000000000000000000000000000000000000000000000000000000000000000000000000CE000000000000000000000000
310
00000000000000000000000000000000000000000000000000000000000000000000000000000000000000000000000000000000000000000000000000000000000000000000000000000000000000000000000000000000000000000000000000000000000000000000000000000000000000000000000000000000000000
310
000000000000000000000000000000000000000000000000000000000000000000000000000000000000000000CE00000000000000000000000000000000000000000000000000000000000000000000000000000000000000000000000000000000000000000000000000000000000000000000CE00000000000000000000
310
00000000000000000000000000000000000000000000000000000000000000000000000000000000000000000000000000000000000000000000000000000000000000000000000000000000000000000000000000000000000000000000000000000000000000000000000000000000000000000000000000000000000000
310
0000000000000000000000000000000000000000000000000000000000000000000000000000000000000000000000CE00000000000000000000000000000000000000000000000000000000000000000000000000000000000000000000000000000000000000000000000000000000000000000000CE0000000000000000
310
00000000000000000000000000000000000000000000000000000000000000000000000000000000000000000000000000000000000000000000000000000000000000000000000000000000000000000000000000000000000000000000000000000000000000000000000000000000000000000000000000000000000000
310
00000000000000000000000000000000000000000000000000000000000000000000000000000000000000000000000000CE00000000000000000000000000000000000000000000000000000000000000000000000000000000000000000000000000000000000000000000000000000000000000000000CE000000000000
310
00000000000000000000000000000000000000000000000000000000000000000000000000000000000000000000000000000000000000000000000000000000000000000000000000000000000000000000000000000000000000000000000000000000000000000000000000000000000000000000000000000000000000
310
000000000000000000000000000000000000000000000000000000000000000000000000000000000000000000000000000000CE00000000000000000000000000000000000000000000000000000000000000000000000000000000000000000000000000000000000000000000000000000000000000000000CE00000000
310
00000000000000000000000000000000000000000000000000000000000000000000000000000000000000000000000000000000000000000000000000000000000000000000000000000000000000000000000000000000000000000000000000000000000000000000000000000000000000000000000000000000000000
310
0000000000000000000000000000000000000000000000000000000000000000000000000000000000000000000000000000000000CE00000000000000000000000000000000000000000000000000000000000000000000000000000000000000000000000000000000000000000000000000000000000000000000CE0000
310
00000000000000000000000000000000000000000000000000000000000000000000000000000000000000000000000000000000000000000000000000000000000000000000000000000000000000000000000000000000000000000000000000000000000000000000000000000000000000000000000000000000000000
310
00000000000000000000000000000000000000000000000000000000000000000000000000000000000000000000000000000000000000CE00000000000000000000000000000000000000000000000000000000000000000000000000000000000000000000000000000000000000000000000000000000000000000000CE
310
00000000000000000000000000000000000000000000000000000000000000000000000000000000000000000000000000000000000000000000000000000000000000000000000000000000000000000000000000000000000000000000000000000000000000000000000000000000000000000000000000000000000000
310
000000000000000000000000000000000000000000000000000000000000000000000000000000000000000000000000000000000000000000CE000000000000000000000000000000000000000000000000000000000000000000000000000000000000000000000000000000000000000000000000000000000000000000
310
00CE0000000000000000000000000000000000000000000000000000000000000000000000000000000000000000000000000000000000000000000000000000000000000000000000000000000000000000000000000000000000000000000000000000000000000000000000000000000000000000000000000000000000
310
0000000000000000000000000000000000000000000000000000000000000000000000000000000000000000000000000000000000000000000000CE00000000000000000000000000000000000000000000000000000000000000000000000000000000000000000000000000000000000000000000000000000000000000
310
000000CE000000000000000000000000000000000000000000000000000000000000000000000000000000000000000000000000000000000000000000000000000000000000000000000000000000000000000000000000000000000000000000000000000000000000000000000000000000000000000000000000000000
310
00000000000000000000000000000000000000000000000000000000000000000000000000000000000000000000000000000000000000000000000000CE0000000000000000000000000000000000000000000000000000000000000000000000000000000000000000000000000000000000000000000000000000000000
310
0000000000CE00000000000000000000000000000000000000000000000000000000000000000000000000000000000000000000000000000000000000000000000000000000000000000000000000000000000000000000000000000000000000000000000000000000000000000000000000000000000000000000000000
310
000000000000000000000000000000000000000000000000000000000000000000000000000000000000000000000000000000000000000000000000000000CE000000000000000000000000000000000000000000000000000000000000000000000000000000000000000000000000000000000000000000000000000000
310
00000000000000CE0000000000000000000000000000000000000000000000000000000000000000000000000000000000000000000000000000000000000000000000000000000000000000000000000000000000000000000000000000000000000000000000000000000000000000000000000000000000000000000000
310
0000000000000000000000000000000000000000000000000000000000000000000000000000000000000000000000000000000000000000000000000000000000CE00000000000000000000000000000000000000000000000000000000000000000000000000000000000000000000000000000000000000000000000000
310
000000000000000000CE00000000000000000000000000000028282828282828282828282828282828F5F5F5F5F5F5F5F5F5F50000000000000000002D00000000000000000000F5F5F5F5F5F5F5F5F5F5F5F50000000000000000000000000000000000000000000000000000000000000000000000000000000000000000
310
00000000000000000000000000000000000000000000000000000000000000000000000000000000000000000000000000000000000000000000000000000000000000CE0000000000000000000000000000000000000000000000000000000000000000000000000000000000000000000000000000000000000000000000
310
0000000000000000000000CE0000000000000000000000000000002828000000000000F5F5F5F5F50000F5F500000000000000F5F50000000000000000002D00000000000000000000F5F500000000000000F50000F5F5F5F5F500000000000000000000000000000000000000000000000000000000000000000000000000
310
000000000000000000000000000000000000000000000000000000000000000000000000000000000000000000000000000000000000000000000000000000000000000000CE000000000000000000000000000000000000000000000000000000000000000000000000000000000000000000000000000000000000000000
310
00000000000000000000000000CE0000000000000000000000000000002800000000F5F5F500000000000000F50000000000000000F5F500000000000000F5F52DF5F50000000000000000F50000000000000000F500000000000000F5F5F50000000000000000000000000000000000000000000000000000000000000000
310
0000000000000000000000000000000000000000000000000000000000000000000000000000000000000000000000000000000000000000000000000000000000000000000000CE00000000000000000000000000000000000000000000000000000000000000000000000000000000000000000000000000000000000000
310
000000000000000000000000000000CE0000000000000000000000000000002800000000F5000000000000000000F50000000000000000F5F5F5F5F5F5F5F5F5F5F52DF5F5F5F5F5F5F5F5F5F5F50000000000000000F5000000000000000000F5000000000000000000000000000000000000000000000000000000000000
310
00000000000000000000000000000000000000000000000000000000000000000000000000000000000000000000000000000000000000000000000000000000000000000000000000CE0000000000000000000000000000000000000000000000000000000000000000000000000000000000000000000000000000000000
310
0000000000000000000000000000000000CE0000000000000000000000000000002800000000F5000000000000000000F5000000000000000000F50000F500F5F5F500002D0000F5F5F5F5F50000F5F50000000000000000F5000000000000000000F500000000000000000000000000000000000000000000000000000000
310
000000000000000000000000000000000000000000000000000000000000000000000000000000000000000000000000000000000000000000000000000000000000000000000000000000CE000000000000000000000000000000000000000000000000000000000000000000000000000000000000000000000000000000
310
00000000000000000000000000000000000000CE0000000000000000000000000000002800000000F5000000000000000000F5000000000000000000F50000F5F528F5F5F5F52DF5F5F500F528F50000F5F50000000000000000F5000000000000000000F50000000000000000000000000000000000000000000000000000
310
0000000000000000000000000000000000000000000000000000000000000000000000000000000000000000000000000000000000000000000000000000000000000000000000000000000000CE00000000000000000000000000000000000000000000000000000000000000000000000000000000000000000000000000
310
000000000000000000000000000000000000000000CE00000000000000000000000000DCDCDC00000000F5000000000000000000F5000000000000000000F50000F5F5F5F5F5F5002D0000F5F500F528F500F5F50000000000000000F5000000000000000000F5000000000000000000000000000000000000000000000000
310
00000000000000000000000000000000000000000000000000000000000000000000000000000000000000000000000000000000000000000000000000000000000000000000000000000000000000CE0000000000000000000000000000000000000000000000000000000000000000000000000000000000000000000000
310
0000000000000000000000000000000000000000000000CE00000000000000000000000000DCDCDC00000000F5000000000000000000F50000000000000000F5F50000F5F500F50000002D000000F5F5F528F500F5F50000000000000000F5000000000000000000F500000000000000000000000000000000000000000000
310
000000000000000000000000000000000000000000000000000000000000000000000000000000000000000000000000000000000000000000000000000000000000000000000000000000000000000000CE000000000000000000000000000000000000000000000000000000000000000000000000000000000000000000
310
00000000000000000000000000000000000000000000000000CE00000000000000000000000000DCDCDC00000000F5000000000000000000F5F500000000000000F5F50000F5F5F5F50000002D00000000F500F5F500F5F5F500000000000000F5000000000000000000F50000000000000000000000000000000000000000
310
0000000000000000000000000000000000000000000000000000000000000000000000000000000000000000000000000000000000000000000000000000000000000000000000000000000000000000000000CE00000000000000000000000000000000000000000000000000000000000000000000000000000000000000
310
000000000000000000000000000000000000000000000000000000CE00000000000000000000000000DC00DC0000002D2D2D2D2D2D2D2D2D2D2D2D2D2D2D2D2D2D2D2D2D2D2DF528F5F5F52D2D2D2D2D2D2D2DF52DF5F52D2D2D2D2D2D2D2D2D2D2D2D2D2D2D2D2D2D2D2D2D2D2D2D00000000000000000000000000000000
310
00000000000000000000000000000000000000000000000000000000000000000000000000000000000000000000000000000000000000000000000000000000000000000000000000000000000000000000000000CE0000000000000000000000000000000000000000000000000000000000000000000000000000000000
310
0000000000000000000000000000000000000000000000000000000000CE00000000000000000000000000DCDCDC00000000F5000000000000000000F5F500000000000000F5F5000028F5F5F50000002D00000000F500F5F500F5F5F5000000000000F5F5000000000000000000F500000000000000000000000000000000
310
000000000000000000000000000000000000000000000000000000000000000000000000000000000000000000000000000000000000000000000000000000000000000000000000000000000000000000000000000000CE000000000000000000000000000000000000000000000000000000000000000000000000000000
310
00000000000000000000000000000000000000000000000000000000000000CE00000000000000000000000000DC00DC00000000F5000000000000000000F50000000000000000F5F50000F5F5F5F50000002D00000000F5F528F500F5F50000000000000000F5000000000000000000F50000000000000000000000000000
310
0000000000000000000000000000000000000000000000000000000000000000000000000000000000000000000000000000000000000000000000000000000000000000000000000000000000000000000000000000000000CE00000000000000000000000000000000000000000000000000000000000000000000000000
310
000000000000000000000000000000000000000000000000000000000000000000CE00000000000000000000000000DCDCDC00000000F5000000000000000000F50000000000000000F5F50000F528F5F50000002D000000F500F528F500F5F50000000000000000F5000000000000000000F5000000000000000000000000
310
00000000000000000000000000000000000000000000000000000000000000000000000000000000000000000000000000000000000000000000000000000000000000000000000000000000000000000000000000000000000000CE0000000000000000000000000000000000000000000000000000000000000000000000
310
0000000000000000000000000000000000000000000000000000000000000000000000CE00000000000000000000000000DCDCDC00000000F5000000000000000000F5000000000000000000F50000F5F5F500F500002D0000F5F500F5F50000F5F50000000000000000F5000000000000000000F500000000000000000000
310
000000000000000000000000000000000000000000000000000000000000000000000000000000000000000000000000000000000000000000000000000000000000000000000000000000000000000000000000000000000000000000CE000000000000000000000000000000000000000000000000000000000000000000
310
00000000000000000000000000000000000000000000000000000000000000000000000000CE0000000000000000000000000000002800000000F5000000000000000000F5000000000000000000F50000F5F5F5F5F5F5F52DF5F5F500F500F50000F5F50000000000000000F5000000000000000000F50000000000000000
310
0000000000000000000000000000000000000000000000000000000000000000000000000000000000000000000000000000000000000000000000000000000000000000000000000000000000000000000000000000000000000000000000CE00000000000000000000000000000000000000000000000000000000000000
310
000000000000000000000000000000000000000000000000000000000000000000000000000000CE0000000000000000000000000000002800000000F5000000000000000000F5000000000000000000F50000F500F5F50000002DF50000F500F5F50000F5F50000000000000000F5000000000000000000F5000000000000
310
00000000000000000000000000000000000000000000000000000000000000000000000000000000000000000000000000000000000000000000000000000000000000000000000000000000000000000000000000000000000000000000000000CE0000000000000000000000000000000000000000000000000000000000
310
0000000000000000000000000000000000000000000000000000000000000000000000000000000000CE000000000000000000000000000000280000000028000000000000000000F50000000000000000F5F5F5F5F5F5F5F5F5F5F52DF5F5F5F5F5F5F5F5F5F5F50000000000000000F50000000000000000002800000000
310
000000000000000000000000000000000000000000000000000000000000000000000000000000000000000000000000000000000000000000000000000000000000000000000000000000000000000000000000000000000000000000000000000000CE000000000000000000000000000000000000000000000000000000
310
00000000000000000000000000000000000000000000000000000000000000000000000000000000000000CE000000000000000000000000000000280000000028F5F500000000000000F50000000000000000F5F5000000000000F5F5F52DF5F5F500000000000000F50000000000000000F500000000000000F5F5280000
310
0000000000000000000000000000000000000000000000000000000000000000000000000000000000000000000000000000000000000000000000000000000000000000000000000000000000000000000000000000000000000000000000000000000000CE00000000000000000000000000000000000000000000000000
310
000000000000000000000000000000000000000000000000000000000000000000000000000000000000000000CE0000000000000000000000000000002828000000280000F5F5F5F5F50000F5F500000000000000F5F50000000000000000002D00000000000000000000F5F500000000000000F50000F5F5F5F5F5000028
310
00000000000000000000000000000000000000000000000000000000000000000000000000000000000000000000000000000000000000000000000000000000000000000000000000000000000000000000000000000000000000000000000000000000000000CE0000000000000000000000000000000000000000000000
310
0000000000000000000000000000000000000000000000000000000000000000000000000000000000000000000000CE00000000000000000000000000000028282828282828282828282828282828F5F5F5F5F5F5F5F5F5F50000000000000000002D00000000000000000000F5F5F5F5F5F5F5F5F5F5F5F5000000000000
310
002800000000000000000000000000000000000000000000000000000000000000000000000000000000000000000000000000000000000000000000000000000000000000000000000000000000000000000000000000000000000000000000000000000000000000CE000000000000000000000000000000000000000000
310
00000000000000000000000000000000000000000000000000000000000000000000000000000000000000000000000000CE0000000000000000000000000000000000000000280000000000000000000000000000000000000000000000000000000000280000000000000000000000000000000000000000000000000000
310
0000002800000000000000000000000000000000000000000000000000000000000000000000000000000000000000000000000000000000000000000000000000000000000000000000000000000000000000000000000000000000000000000000000000000000000000CE00000000000000000000000000000000000000
310
000000000000000000000000000000000000000000000000000000000000000000000000000000000000000000000000000000CE000000000000000000000000000000000000000028000000000000000000000000000000000000000000000000000000000028000000000000000000000000000000000000000000000000
310
00000000002800000000000000000000000000000000000000000000000000000000000000000000000000000000000000000000000000000000000000000000000000000000000000000000000000000000000000000000000000000000000000000000000000000000000000CE0000000000000000000000000000000000
310
0000000000000000000000000000000000000000000000000000000000000000000000000000000000000000000000000000000000CE00000000000000000000000000000000000000002800000000000000000000000000000000000000000000000000000000002800000000000000000000000000000000000000000000
310
000000000000002800000000000000000000000000000000000000000000000000000000000000000000000000000000000000000000000000000000000000000000000000000000000000000000000000000000000000000000000000000000000000000000000000000000000000CE000000000000000000000000000000
310
00000000000000000000000000000000000000000000000000000000000000000000000000000000000000000000000000000000000000CE0000000000000000000000000000000000000000280000000000000000000000000000000000000000000000000000000000280000000000000000000000000000000000000000
310
0000000000000000002800000000000000000000000000000000000000000000000000000000000000000000000000000000000000000000000000000000000000000000000000000000000000000000000000000000000000000000000000000000000000000000000000000000000000CE00000000000000000000000000
310
000000000000000000000000000000000000000000000000000000000000000000000000000000000000000000000000000000000000000000CE000000000000000000000000000000000000000028000000000000000000000000000000000000000000000000000000000028000000000000000000000000000000000000
310
00000000000000000000002800000000000000000000000000000000000000000000000000000000000000000000000000000000000000000000000000000000000000000000000000000000000000000000000000000000000000000000000000000000000000000000000000000000000000CE0000000000000000000000
310
0000000000000000000000000000000000000000000000000000000000000000000000000000000000000000000000000000000000000000000000CE00000000000000000000000000000000000000002828282828282828282828282828282828282828282828282828282828282828282828282828282828282828282828
310
282828282828282828282828282800000000000000000000000000000000000000000000000000000000000000000000000000000000000000000000000000000000000000000000000000000000000000000000000000000000000000000000000000000000000000000000000000000000000000CE000000000000000000
310
00000000000000000000000000000000000000000000000000000000000000000000000000000000000000000000000000000000000000000000000000CE00000000000000000000000000000000000000002800000000000000000000000000DCDCDC000000000000000000000000002800000000000000000000000000DC
310
DCDC000000000000000000000000002800000000000000000000000000000000000000000000000000000000000000000000000000000000000000000000000000000000000000000000000000000000000000000000000000000000000000000000000000000000000000000000000000000000000000CE00000000000000
310
000000000000000000000000000000000000000000000000000000000000000000000000000000000000000000000000000000000000000000000000000000CE00000000000000000000000000000000000000002800000000000000000000000000DCDCDC0000000000000000000000000000000000000000000000000000
310
00DCDCDC000000000000000000000000002800000000000000000000000000000000000000000000000000000000000000000000000000000000000000000000000000000000000000000000000000000000000000000000000000000000000000000000000000000000000000000000000000000000000000CE0000000000
310
0000000000000000000000000000000000000000000000000000000000000000000000000000000000000000000000000000000000000000000000000000000000CE00000000000000000000000000000000000000002800000000000000000000000000000000000000000000000000000000000000000000000000000000
310
000000000000000000000000000000000000002800000000000000000000000000000000000000000000000000000000000000000000000000000000000000000000000000000000000000000000000000000000000000000000000000000000000000000000000000000000000000000000000000000000000000CE000000
310
00000000000000000000000000000000000000000000000000000000000000000000000000000000000000000000000000000000000000000000000000000000000000CE0000000000000000000000000000000000000000282828282828282828282828282828282828282828282828282828282828282828282828282828
310
2828282828282828282828282828282828282828282800000000000000000000000000000000000000000000000000000000000000000000000000000000000000000000000000000000000000000000000000000000000000000000000000000000000000000000000000000000000000000000000000000000000000CE00
310
000000000000000000000000000000000000000000000000000000000000000000000000000000000000000000000000000000000000000000000000000000000000000000CE00000000000000000000000000000000000000000000000000000000000000000000000000000000000000000000000000DCDCDC0000000000
310
00000000000000000000000000000000000000000000000000000000000000000000000000000000000000000000000000000000000000000000000000000000000000000000000000000000000000000000000000000000000000000000000000000000000000000000000000000000000000000000000000000000000000
310
CE00000000000000000000000000000000000000000000000000000000000000000000000000000000000000000000000000000000000000000000000000000000000000000000CE0000000000000000000000000000000000000000000000000000000000000000000000000000000000000000000000000000DCDC000000
310
00000000000000000000000000000000000000000000000000000000000000000000000000000000000000000000000000000000000000000000000000000000000000000000000000000000000000000000000000000000000000000000000000000000000000000000000000000000000000000000000000000000000000
310
0000CE00000000000000000000000000000000000000000000000000000000000000000000000000000000000000000000000000000000000000000000000000000000000000000000CE0000000000000000000000000000000000000000000000000000000000000000000000000000000000000000000000000000000000
310
00000000000000000000000000000000000000000000000000000000000000000000000000000000000000000000000000000000000000000000000000000000000000000000000000000000000000000000000000000000000000000000000000000000000000000000000000000000000000000000000000000000000000
310
00000000CE00000000000000000000000000000000000000000000000000000000000000000000000000000000000000000000000000000000000000000000000000000000000000000000CE000000000000000000000000000000000000000000000000000000000000000000000000000000000000000000000000000000
310
000000000000000000000000000000000000000000000000000000000000000000000000000000000000000000F5F5F5F5F5F5F5F5F5F5F5F5F5F5F5F5F5F5F5F5F5F5F5F5F5F5F5F5F5F5F5F5F5F5F5F5F5F5F5F5F5F5F5F5F5F5F5F5F5F5F5F5F5F5F5F5F5F5F5F5F5F5F5F5F5F5F5F5F5F5F5F5F5F5F5F5F5F5F5F5F5F5
310
F5F5F5F5F5F5F500000000000000000000000000000000000000000000000000000000000000000000000000000000000000000000000000000000000000000000000000000000000000000000CE00000000000000000000000000000000000000000000000000000000000000000000000000000000000000000000000000
310
0000000000000000000000000000000000000000000000000000000000000000000000000000000000000000000000F500DC00BE00DCDC00DCDCDCDCDCDCDCDCDCDCDCDCDCDCDC00000000000000000000000000DCDCDCDCDCDCDCDCDC0000000000000000000000000000BEDCDCDCDCDCDCDCDC0000000000BE0000000000
310
0000000000000000F500000000000000000000000000000000000000000000000000000000000000000000000000000000000000000000000000000000000000000000000000000000000000000000CE0000000000000000000000000000000000000000000000000000000000000000000000000000000000000000000000
310
00000000000000000000000000000000000000000000000000000000000000000000000000000000000000000000000000F5BEDCBEBEBEDCDCBEBEBEBEBEBEBEBEDCDCDCBEDCDCDCDCBEBEBEBEBEBEBEBEBEBEBEBEBEBEDCDCDCDCDCDCDCBEBEBEBEBEBEBEBEBEBEBEBEBEBEBEBEDCDCDCDCDCDCDCDCBEBEBEBEBEBEBEBEBE
310
BEBEBEBEBEBEBEBEBEBEF500000000000000000000000000000000000000000000000000000000000000000000000000000000000000000000000000000000000000000000000000000000000000000000CE000000000000000000000000000000000000000000000000000000000000000000000000000000000000000000
310
000000000000000000000000000000000000000000000000000000000000000000000000000000000000000000000000000000F500DC00BE0000DC00DCDCDCDCDCDCDCDCDCDCDCDCDCDCDCDC00DCDCDCDCDCDCDC00000000DCDCDCDCDCDCDCDC000000000000000000000000000000BEDCDCDCDCDCDCDCDCDC00000000BE00
310
000000000000000000000000F500000000000000000000000000000000000000000000000000000000000000000000000000000000000000000000000000000000000000000000000000000000000000000000CE00000000000000000000000000000000000000000000000000000000000000000000000000000000000000
310
0000000000000000000000000000000000000000000000000000000000000000000000000000000000000000000000000000000000F500DC00BE00DCDC00BEDCDCDCDCDCDCDCDCDCDCDCDCDCDCDCDCDCDC00DCDCDCDC00000000DCDCDCDCDCDCDCDC000000000000000000000000000000BEDCDCDCDCDCDCDCDCDCDC000000
310
BE00000000000000000000000000F500000000000000000000000000000000000000000000000000000000000000000000000000000000000000000000000000000000000000000000000000000000000000000000CE0000000000000000000000000000000000000000000000000000000000000000000000000000000000
310
00000000000000000000000000000000000000000000000000000000000000000000000000000000000000000000000000000000000000F5BEBEBEBEBEBEBEBEBEBEBEBEBEBEBEBEBEBEBEBEBEBEBEBEBEBEBEBEBEBEBEBEBEBEBEBEBEBEBEBEBEBEBEBEBEBEBEBEBEBEBEBEBEBEBEBEBEBEBEBEBEBEBEBEBEBEBEBEBEBEBE
310
BEBEBEBEBEBEBEBEBEBEBEBEBEBEBEBEF500000000000000000000000000000000000000000000000000000000000000000000000000000000000000000000000000000000000000000000000000000000F50000000000CE000000000000000000000000000000000000000000000000000000000000000000000000000000
310
000000000000000000000000000000000000000000000000000000000000000000000000000000000000000000000000000000000000000000F5DCDCDCBEDCDCDCDCBE0000000000000000000000DCDCDCDC000000000000000000000000BE000000000000000000DCDCDCDC000000000000000000BE0000000000DCDCDCDC
310
00000000BE0000000000DCDCDCDC00000000F50000000000F500000000000000000000000000000000000000000000000000000000000000000000000000000000000000000000000000000000000000000000F50000000000CE00000000000000000000000000000000000000000000000000000000000000000000000000
310
0000000000000000000000000000000000000000000000000000000000000000000000000000000000000000000000000000000000000000000000F5DCDCDCBEDCDCDCDCBE000000000000000000000000DCDCDCDC0000000000000000000000BE000000000000000000DCDCDCDC000000000000000000BE0000000000DCDC
310
DCDC00000000BE0000000000DCDCDCDC00000000F50000000000F500000000000000000000000000000000000000000000000000000000000000000000000000000000000000000000000000000000000000000000F50000000000CE0000000000000000000000000000000000000000000000000000000000000000000000
310
00000000000000000000000000000000000000000000000000000000000000000000000000000000000000000000000000000000000000000000000000F5BEBEBEBEBEBEBEBEBEBEBEBEBEBEBEBEBEBEBEBEBEBEBEBEBEBEBEBEBEBEBEBEBEBEBEBEBEBEBEBEBEBEBEBEBEBEBEBEBEBEBEBEBEBEBEBEBEBEBEBEBEBEBEBEBE
310
BEBEBEBEBEBEBEBEBEBEBEBEBEBEBEBEBEBEBEBEBEBEF50000000000F500000000000000000000000000000000000000000000000000000000000000000000000000000000000000000000000000000000000000000000F50000000000CE000000000000000000000000000000000000000000000000000000000000000000
310
000000000000000000000000000000000000000000000000000000000000000000000000000000000000000000000000000000000000000000000000000000F5000000000000000000000000000000000000000000000000000000000000000000000000000000DCDCDCDCDCDCDCDCDC000000000000000000000000000000
310
000000000000000000000000000000000000000000000000F50000000000F500000000000000000000000000000000000000000000000000000000000000000000000000000000000000000000000000000000000000000000F50000000000CECECECECECECECECECECECECECECECECECECECECECECECECECECECECECECECE
310
CECECECECECECECECECECECECECECECECECECECECECECECECECECECECECECECECECECECECECECECECECECECECECECECECECECECECECECECECECECECECECECECECEF5F5F5F5F5F5F5F5F5F5F5F5F5F5F5F5F5F5F5F5F5F5F5F5F5F5F5F5F5F5F5F5F5F5F5F5F5F5F5F5F5F5F5F5F5F5F5F5F5F5F5F5F5F5F5F5F5F5F5F5F5F5
310
F5F5F5F5F5F5F5F5F5F5F5F5F5F5F5F5F5F5F5F5F5F5F5F5F5F5F50000000000F500000000000000000000000000000000000000000000000000000000000000000000000000000000000000000000000000000000000000000000F50000000000000000000000000000000000000000000000000000000000000000000000
310
00000000000000000000000000000000000000000000000000000000000000000000000000000000000000000000000000000000000000000000000000000000000000000000000000000000000000000000000000000000000000000000000000000000000000000000000000000000000000000000000000000000000000
310
00000000000000000000000000000000000000000000000000000000000000000000F500000000000000000000000000000000000000000000000000000000000000000000000000000000000000000000000000000000000000000000F5000000000000000000000000000000000000000000000000000000000000000000
310
00000000000000000000000000000000000000000000000000000000000000000000000000000000000000000000000000000000000000000000000000000000000000000000000000000000000000000000000000000000000000000000000000000000000000000000000000000000000000000000000000000000000000
310
000000000000000000000000000000000000000000000000000000000000000000000000F500000000000000000000000000000000000000000000000000000000000000000000000000000000000000000000000000000000000000000000F500000000000000000000000000000000000000000000000000000000000000
310
00000000000000000000000000000000000000000000000000000000000000000000000000000000000000000000000000000000000000000000000000000000000000000000000000000000000000000000000000000000000000000000000000000000000000000000000000000000000000000000000000000000000000
310
0000000000000000000000000000000000000000000000000000000000000000000000000000F500000000000000000000000000000000000000000000000000000000000000000000000000000000000000000000000000000000000000000000F50000000000000000000000000000000000000000000000000000000000
310
00000000000000000000000000000000000000000000000000000000000000000000000000000000000000000000000000000000000000000000000000000000000000000000000000000000000000000000000000000000000000000000000000000000000000000000000000000000000000000000000000000000000000
310
00000000000000000000000000000000000000000000000000000000000000000000000000000000F500000000000000000000000000000000000000000000000000000000000000000000000000000000000000000000000000000000000000000000F5000000000000000000000000000000000000000000000000000000
310
00000000000000000000000000000000000000000000000000000000000000000000000000000000000000000000000000000000000000000000000000000000000000000000000000000000000000000000000000000000000000000000000000000000000000000000000000000000000000000000000000000000000000
310
000000000000000000000000000000000000000000000000000000000000000000000000000000000000F500000000000000000000000000000000000000000000000000000000000000000000000000000000000000000000000000000000000000000000F5F5F5F5F5F5F5F5F5F5F5000000000000000000000000000000
310
00000000000000000000000000000000000000000000000000000000000000000000000000000000000000000000000000000000000000000000000000000000000000000000000000000000000000000000000000000000000000000000000000000000000000000000000000000000000000000000000000000000000000
310
00000000000000000000000000000000000000000000000000000000000000000000F5F5F5F5F5F5F5F5F5F5F50000000000000000000000000000000000000000000000000000000000
  0
XRECORD
  5
6F79
102
{ACAD_REACTORS
330
6F78
102
}
330
6F78
100
AcDbXrecord
280
     1
102
SHADEPLOT
 70
     0
102
SHADEPLOTRESLEVEL
 70
     2
102
SHADEPLOTCUSTOMDPI
 70
   300
  0
XRECORD
  5
6F7C
102
{ACAD_REACTORS
330
6F7B
102
}
330
6F7B
100
AcDbXrecord
280
     1
102
SHADEPLOT
 70
     0
102
SHADEPLOTRESLEVEL
 70
     2
102
SHADEPLOTCUSTOMDPI
 70
   300
  0
XRECORD
  5
6F80
102
{ACAD_REACTORS
330
6F7F
102
}
330
6F7F
100
AcDbXrecord
280
     1
102
MATERIAL
148
0.0
149
0.0
149
0.0
 93
        0
 94
       63
282
     0
 72
     1
 77
     1
171
     1
175
     1
179
     1
273
     0
  0
XRECORD
  5
6F7E
102
{ACAD_REACTORS
330
6F7D
102
}
330
6F7D
100
AcDbXrecord
280
     1
102
MATERIAL
148
0.0
149
0.0
149
0.0
 93
        0
 94
       63
282
     0
 72
     1
 77
     1
171
     1
175
     1
179
     1
273
     0
  0
XRECORD
  5
6F82
102
{ACAD_REACTORS
330
6F81
102
}
330
6F81
100
AcDbXrecord
280
     1
102
MATERIAL
148
0.0
149
0.0
149
0.0
 93
        0
 94
       63
282
     0
 72
     1
 77
     1
171
     1
175
     1
179
     1
273
     0
  0
CELLSTYLEMAP
  5
6F70
102
{ACAD_REACTORS
330
229F
102
}
330
229F
100
AcDbCellStyleMap
 90
        3
300
CELLSTYLE
  1
TABLEFORMAT_BEGIN
 90
        5
170
     1
 91
        0
 92
    32768
 62
   257
 93
        1
300
CONTENTFORMAT
  1
CONTENTFORMAT_BEGIN
 90
        0
 91
        0
 92
      512
 93
        0
300

 40
0.0
140
1.0
 94
        5
 62
     0
340
11
144
6.0
309
CONTENTFORMAT_END
171
     1
301
MARGIN
  1
CELLMARGIN_BEGIN
 40
1.5
 40
1.5
 40
1.5
 40
1.5
 40
0.18
 40
0.18
309
CELLMARGIN_END
 94
        6
 95
        1
302
GRIDFORMAT
  1
GRIDFORMAT_BEGIN
 90
        0
 91
        1
 62
     0
 92
       -2
340
0
 93
        0
 40
0.045
309
GRIDFORMAT_END
 95
        2
302
GRIDFORMAT
  1
GRIDFORMAT_BEGIN
 90
        0
 91
        1
 62
     0
 92
       -2
340
0
 93
        0
 40
0.045
309
GRIDFORMAT_END
 95
        4
302
GRIDFORMAT
  1
GRIDFORMAT_BEGIN
 90
        0
 91
        1
 62
     0
 92
       -2
340
0
 93
        0
 40
0.045
309
GRIDFORMAT_END
 95
        8
302
GRIDFORMAT
  1
GRIDFORMAT_BEGIN
 90
        0
 91
        1
 62
     0
 92
       -2
340
0
 93
        0
 40
0.045
309
GRIDFORMAT_END
 95
       16
302
GRIDFORMAT
  1
GRIDFORMAT_BEGIN
 90
        0
 91
        1
 62
     0
 92
       -2
340
0
 93
        0
 40
0.045
309
GRIDFORMAT_END
 95
       32
302
GRIDFORMAT
  1
GRIDFORMAT_BEGIN
 90
        0
 91
        1
 62
     0
 92
       -2
340
0
 93
        0
 40
0.045
309
GRIDFORMAT_END
309
TABLEFORMAT_END
  1
CELLSTYLE_BEGIN
 90
        1
 91
        1
300
_TITLE
309
CELLSTYLE_END
300
CELLSTYLE
  1
TABLEFORMAT_BEGIN
 90
        5
170
     1
 91
        0
 92
        0
 62
   257
 93
        1
300
CONTENTFORMAT
  1
CONTENTFORMAT_BEGIN
 90
        0
 91
        0
 92
      512
 93
        0
300

 40
0.0
140
1.0
 94
        5
 62
     0
340
11
144
4.5
309
CONTENTFORMAT_END
171
     1
301
MARGIN
  1
CELLMARGIN_BEGIN
 40
1.5
 40
1.5
 40
1.5
 40
1.5
 40
0.18
 40
0.18
309
CELLMARGIN_END
 94
        6
 95
        1
302
GRIDFORMAT
  1
GRIDFORMAT_BEGIN
 90
        0
 91
        1
 62
     0
 92
       -2
340
0
 93
        0
 40
0.045
309
GRIDFORMAT_END
 95
        2
302
GRIDFORMAT
  1
GRIDFORMAT_BEGIN
 90
        0
 91
        1
 62
     0
 92
       -2
340
0
 93
        0
 40
0.045
309
GRIDFORMAT_END
 95
        4
302
GRIDFORMAT
  1
GRIDFORMAT_BEGIN
 90
        0
 91
        1
 62
     0
 92
       -2
340
0
 93
        0
 40
0.045
309
GRIDFORMAT_END
 95
        8
302
GRIDFORMAT
  1
GRIDFORMAT_BEGIN
 90
        0
 91
        1
 62
     0
 92
       -2
340
0
 93
        0
 40
0.045
309
GRIDFORMAT_END
 95
       16
302
GRIDFORMAT
  1
GRIDFORMAT_BEGIN
 90
        0
 91
        1
 62
     0
 92
       -2
340
0
 93
        0
 40
0.045
309
GRIDFORMAT_END
 95
       32
302
GRIDFORMAT
  1
GRIDFORMAT_BEGIN
 90
        0
 91
        1
 62
     0
 92
       -2
340
0
 93
        0
 40
0.045
309
GRIDFORMAT_END
309
TABLEFORMAT_END
  1
CELLSTYLE_BEGIN
 90
        2
 91
        1
300
_HEADER
309
CELLSTYLE_END
300
CELLSTYLE
  1
TABLEFORMAT_BEGIN
 90
        5
170
     1
 91
        0
 92
        0
 62
   257
 93
        1
300
CONTENTFORMAT
  1
CONTENTFORMAT_BEGIN
 90
        0
 91
        0
 92
      512
 93
        0
300

 40
0.0
140
1.0
 94
        2
 62
     0
340
11
144
4.5
309
CONTENTFORMAT_END
171
     1
301
MARGIN
  1
CELLMARGIN_BEGIN
 40
1.5
 40
1.5
 40
1.5
 40
1.5
 40
0.18
 40
0.18
309
CELLMARGIN_END
 94
        6
 95
        1
302
GRIDFORMAT
  1
GRIDFORMAT_BEGIN
 90
        0
 91
        1
 62
     0
 92
       -2
340
0
 93
        0
 40
0.045
309
GRIDFORMAT_END
 95
        2
302
GRIDFORMAT
  1
GRIDFORMAT_BEGIN
 90
        0
 91
        1
 62
     0
 92
       -2
340
0
 93
        0
 40
0.045
309
GRIDFORMAT_END
 95
        4
302
GRIDFORMAT
  1
GRIDFORMAT_BEGIN
 90
        0
 91
        1
 62
     0
 92
       -2
340
0
 93
        0
 40
0.045
309
GRIDFORMAT_END
 95
        8
302
GRIDFORMAT
  1
GRIDFORMAT_BEGIN
 90
        0
 91
        1
 62
     0
 92
       -2
340
0
 93
        0
 40
0.045
309
GRIDFORMAT_END
 95
       16
302
GRIDFORMAT
  1
GRIDFORMAT_BEGIN
 90
        0
 91
        1
 62
     0
 92
       -2
340
0
 93
        0
 40
0.045
309
GRIDFORMAT_END
 95
       32
302
GRIDFORMAT
  1
GRIDFORMAT_BEGIN
 90
        0
 91
        1
 62
     0
 92
       -2
340
0
 93
        0
 40
0.045
309
GRIDFORMAT_END
309
TABLEFORMAT_END
  1
CELLSTYLE_BEGIN
 90
        3
 91
        2
300
_DATA
309
CELLSTYLE_END
  0
XRECORD
  5
6FA3
102
{ACAD_REACTORS
330
229F
102
}
330
229F
100
AcDbXrecord
280
     1
102
ACAD_ROUNDTRIP_PRE2007_TABLESTYLE
 90
      512
 91
        0
  1

 92
      512
 93
        0
  2

 94
      512
 95
        0
  3

  0
XRECORD
  5
6F8E
102
{ACAD_REACTORS
330
6F8D
102
}
330
6F8D
100
AcDbXrecord
280
     1
102
RTVSPropertyOp0
 70
     1
102
RTVSPropertyOp1
 70
     1
102
RTVSPropertyOp2
 70
     1
102
RTVSPropertyOp3
 70
     1
102
RTVSPropertyOp4
 70
     1
102
RTVSPropertyOp5
 70
     1
102
RTVSPropertyOp6
 70
     1
102
RTVSPropertyOp7
 70
     1
102
RTVSPropertyOp8
 70
     1
102
RTVSPropertyOp9
 70
     1
102
RTVSPropertyOp10
 70
     1
102
RTVSPropertyOp11
 70
     1
102
RTVSPropertyOp12
 70
     1
102
RTVSPropertyOp13
 70
     1
102
RTVSPropertyOp14
 70
     1
102
RTVSPropertyOp15
 70
     1
102
RTVSPropertyOp16
 70
     1
102
RTVSPropertyOp17
 70
     1
102
RTVSPropertyOp18
 70
     1
102
RTVSPropertyOp19
 70
     1
102
RTVSPropertyOp20
 70
     1
102
RTVSPropertyOp21
 70
     1
102
RTVSPropertyOp22
 70
     1
102
RTVSPropertyOp23
 70
     1
102
RTVSPropertyOp24
 70
     1
102
RTVSPropertyOp25
 70
     1
102
RTVSPropertyOp26
 70
     1
102
RTVSPropertyOp27
 70
     1
102
RTVSPropertyOp28
 70
     1
102
RTVSPropertyOp29
 70
     1
102
RTVSPropertyOp30
 70
     1
102
RTVSPropertyOp31
 70
     1
102
RTVSPropertyOp32
 70
     1
  0
XRECORD
  5
6F92
102
{ACAD_REACTORS
330
6F91
102
}
330
6F91
100
AcDbXrecord
280
     1
102
RTVSPropertyOp0
 70
     1
102
RTVSPropertyOp1
 70
     1
102
RTVSPropertyOp2
 70
     1
102
RTVSPropertyOp3
 70
     1
102
RTVSPropertyOp4
 70
     1
102
RTVSPropertyOp5
 70
     1
102
RTVSPropertyOp6
 70
     1
102
RTVSPropertyOp7
 70
     1
102
RTVSPropertyOp8
 70
     1
102
RTVSPropertyOp9
 70
     1
102
RTVSPropertyOp10
 70
     1
102
RTVSPropertyOp11
 70
     1
102
RTVSPropertyOp12
 70
     1
102
RTVSPropertyOp13
 70
     1
102
RTVSPropertyOp14
 70
     1
102
RTVSPropertyOp15
 70
     1
102
RTVSPropertyOp16
 70
     1
102
RTVSPropertyOp17
 70
     1
102
RTVSPropertyOp18
 70
     1
102
RTVSPropertyOp19
 70
     1
102
RTVSPropertyOp20
 70
     1
102
RTVSPropertyOp21
 70
     1
102
RTVSPropertyOp22
 70
     1
102
RTVSPropertyOp23
 70
     1
102
RTVSPropertyOp24
 70
     1
102
RTVSPropertyOp25
 70
     1
102
RTVSPropertyOp26
 70
     1
102
RTVSPropertyOp27
 70
     1
102
RTVSPropertyOp28
 70
     1
102
RTVSPropertyOp29
 70
     1
102
RTVSPropertyOp30
 70
     1
102
RTVSPropertyOp31
 70
     1
102
RTVSPropertyOp32
 70
     1
  0
XRECORD
  5
6F90
102
{ACAD_REACTORS
330
6F8F
102
}
330
6F8F
100
AcDbXrecord
280
     1
102
RTVSPropertyOp0
 70
     1
102
RTVSPropertyOp1
 70
     1
102
RTVSPropertyOp2
 70
     1
102
RTVSPropertyOp3
 70
     1
102
RTVSPropertyOp4
 70
     1
102
RTVSPropertyOp5
 70
     1
102
RTVSPropertyOp6
 70
     1
102
RTVSPropertyOp7
 70
     1
102
RTVSPropertyOp8
 70
     1
102
RTVSPropertyOp9
 70
     1
102
RTVSPropertyOp10
 70
     1
102
RTVSPropertyOp11
 70
     1
102
RTVSPropertyOp12
 70
     1
102
RTVSPropertyOp13
 70
     1
102
RTVSPropertyOp14
 70
     1
102
RTVSPropertyOp15
 70
     1
102
RTVSPropertyOp16
 70
     1
102
RTVSPropertyOp17
 70
     1
102
RTVSPropertyOp18
 70
     1
102
RTVSPropertyOp19
 70
     1
102
RTVSPropertyOp20
 70
     1
102
RTVSPropertyOp21
 70
     1
102
RTVSPropertyOp22
 70
     1
102
RTVSPropertyOp23
 70
     1
102
RTVSPropertyOp24
 70
     1
102
RTVSPropertyOp25
 70
     1
102
RTVSPropertyOp26
 70
     1
102
RTVSPropertyOp27
 70
     1
102
RTVSPropertyOp28
 70
     1
102
RTVSPropertyOp29
 70
     1
102
RTVSPropertyOp30
 70
     1
102
RTVSPropertyOp31
 70
     1
102
RTVSPropertyOp32
 70
     1
  0
XRECORD
  5
6F8C
102
{ACAD_REACTORS
330
6F8B
102
}
330
6F8B
100
AcDbXrecord
280
     1
102
RTVSPropertyOp0
 70
     1
102
RTVSPropertyOp1
 70
     1
102
RTVSPropertyOp2
 70
     1
102
RTVSPropertyOp3
 70
     1
102
RTVSPropertyOp4
 70
     1
102
RTVSPropertyOp5
 70
     1
102
RTVSPropertyOp6
 70
     1
102
RTVSPropertyOp7
 70
     1
102
RTVSPropertyOp8
 70
     1
102
RTVSPropertyOp9
 70
     1
102
RTVSPropertyOp10
 70
     1
102
RTVSPropertyOp11
 70
     1
102
RTVSPropertyOp12
 70
     1
102
RTVSPropertyOp13
 70
     1
102
RTVSPropertyOp14
 70
     1
102
RTVSPropertyOp15
 70
     1
102
RTVSPropertyOp16
 70
     1
102
RTVSPropertyOp17
 70
     1
102
RTVSPropertyOp18
 70
     1
102
RTVSPropertyOp19
 70
     1
102
RTVSPropertyOp20
 70
     1
102
RTVSPropertyOp21
 70
     1
102
RTVSPropertyOp22
 70
     1
102
RTVSPropertyOp23
 70
     1
102
RTVSPropertyOp24
 70
     1
102
RTVSPropertyOp25
 70
     1
102
RTVSPropertyOp26
 70
     1
102
RTVSPropertyOp27
 70
     1
102
RTVSPropertyOp28
 70
     1
102
RTVSPropertyOp29
 70
     1
102
RTVSPropertyOp30
 70
     1
102
RTVSPropertyOp31
 70
     1
102
RTVSPropertyOp32
 70
     1
  0
XRECORD
  5
6F9A
102
{ACAD_REACTORS
330
6F99
102
}
330
6F99
100
AcDbXrecord
280
     1
102
RTVSPropertyOp0
 70
     1
102
RTVSPropertyOp1
 70
     1
102
RTVSPropertyOp2
 70
     1
102
RTVSPropertyOp3
 70
     1
102
RTVSPropertyOp4
 70
     1
102
RTVSPropertyOp5
 70
     1
102
RTVSPropertyOp6
 70
     1
102
RTVSPropertyOp7
 70
     1
102
RTVSPropertyOp8
 70
     1
102
RTVSPropertyOp9
 70
     1
102
RTVSPropertyOp10
 70
     1
102
RTVSPropertyOp11
 70
     1
102
RTVSPropertyOp12
 70
     1
102
RTVSPropertyOp13
 70
     1
102
RTVSPropertyOp14
 70
     1
102
RTVSPropertyOp15
 70
     1
102
RTVSPropertyOp16
 70
     1
102
RTVSPropertyOp17
 70
     1
102
RTVSPropertyOp18
 70
     1
102
RTVSPropertyOp19
 70
     1
102
RTVSPropertyOp20
 70
     1
102
RTVSPropertyOp21
 70
     1
102
RTVSPropertyOp22
 70
     1
102
RTVSPropertyOp23
 70
     1
102
RTVSPropertyOp24
 70
     1
102
RTVSPropertyOp25
 70
     1
102
RTVSPropertyOp26
 70
     1
102
RTVSPropertyOp27
 70
     1
102
RTVSPropertyOp28
 70
     1
102
RTVSPropertyOp29
 70
     1
102
RTVSPropertyOp30
 70
     1
102
RTVSPropertyOp31
 70
     1
102
RTVSPropertyOp32
 70
     1
  0
XRECORD
  5
6FA2
102
{ACAD_REACTORS
330
6FA1
102
}
330
6FA1
100
AcDbXrecord
280
     1
102
RTVSPropertyOp0
 70
     1
102
RTVSPropertyOp1
 70
     1
102
RTVSPropertyOp2
 70
     1
102
RTVSPropertyOp3
 70
     1
102
RTVSPropertyOp4
 70
     1
102
RTVSPropertyOp5
 70
     1
102
RTVSPropertyOp6
 70
     1
102
RTVSPropertyOp7
 70
     1
102
RTVSPropertyOp8
 70
     1
102
RTVSPropertyOp9
 70
     1
102
RTVSPropertyOp10
 70
     1
102
RTVSPropertyOp11
 70
     1
102
RTVSPropertyOp12
 70
     1
102
RTVSPropertyOp13
 70
     1
102
RTVSPropertyOp14
 70
     1
102
RTVSPropertyOp15
 70
     1
102
RTVSPropertyOp16
 70
     1
102
RTVSPropertyOp17
 70
     1
102
RTVSPropertyOp18
 70
     1
102
RTVSPropertyOp19
 70
     1
102
RTVSPropertyOp20
 70
     1
102
RTVSPropertyOp21
 70
     1
102
RTVSPropertyOp22
 70
     1
102
RTVSPropertyOp23
 70
     1
102
RTVSPropertyOp24
 70
     1
102
RTVSPropertyOp25
 70
     1
102
RTVSPropertyOp26
 70
     1
102
RTVSPropertyOp27
 70
     1
102
RTVSPropertyOp28
 70
     1
102
RTVSPropertyOp29
 70
     1
102
RTVSPropertyOp30
 70
     1
102
RTVSPropertyOp31
 70
     1
102
RTVSPropertyOp32
 70
     1
  0
XRECORD
  5
6F94
102
{ACAD_REACTORS
330
6F93
102
}
330
6F93
100
AcDbXrecord
280
     1
102
RTVSPropertyOp0
 70
     1
102
RTVSPropertyOp1
 70
     1
102
RTVSPropertyOp2
 70
     1
102
RTVSPropertyOp3
 70
     1
102
RTVSPropertyOp4
 70
     1
102
RTVSPropertyOp5
 70
     1
102
RTVSPropertyOp6
 70
     1
102
RTVSPropertyOp7
 70
     1
102
RTVSPropertyOp8
 70
     1
102
RTVSPropertyOp9
 70
     1
102
RTVSPropertyOp10
 70
     1
102
RTVSPropertyOp11
 70
     1
102
RTVSPropertyOp12
 70
     1
102
RTVSPropertyOp13
 70
     1
102
RTVSPropertyOp14
 70
     1
102
RTVSPropertyOp15
 70
     1
102
RTVSPropertyOp16
 70
     1
102
RTVSPropertyOp17
 70
     1
102
RTVSPropertyOp18
 70
     1
102
RTVSPropertyOp19
 70
     1
102
RTVSPropertyOp20
 70
     1
102
RTVSPropertyOp21
 70
     1
102
RTVSPropertyOp22
 70
     1
102
RTVSPropertyOp23
 70
     1
102
RTVSPropertyOp24
 70
     1
102
RTVSPropertyOp25
 70
     1
102
RTVSPropertyOp26
 70
     1
102
RTVSPropertyOp27
 70
     1
102
RTVSPropertyOp28
 70
     1
102
RTVSPropertyOp29
 70
     1
102
RTVSPropertyOp30
 70
     1
102
RTVSPropertyOp31
 70
     1
102
RTVSPropertyOp32
 70
     1
  0
XRECORD
  5
6F98
102
{ACAD_REACTORS
330
6F97
102
}
330
6F97
100
AcDbXrecord
280
     1
102
RTVSPropertyOp0
 70
     1
102
RTVSPropertyOp1
 70
     1
102
RTVSPropertyOp2
 70
     1
102
RTVSPropertyOp3
 70
     1
102
RTVSPropertyOp4
 70
     1
102
RTVSPropertyOp5
 70
     1
102
RTVSPropertyOp6
 70
     1
102
RTVSPropertyOp7
 70
     1
102
RTVSPropertyOp8
 70
     1
102
RTVSPropertyOp9
 70
     1
102
RTVSPropertyOp10
 70
     1
102
RTVSPropertyOp11
 70
     1
102
RTVSPropertyOp12
 70
     1
102
RTVSPropertyOp13
 70
     1
102
RTVSPropertyOp14
 70
     1
102
RTVSPropertyOp15
 70
     1
102
RTVSPropertyOp16
 70
     1
102
RTVSPropertyOp17
 70
     1
102
RTVSPropertyOp18
 70
     1
102
RTVSPropertyOp19
 70
     1
102
RTVSPropertyOp20
 70
     1
102
RTVSPropertyOp21
 70
     1
102
RTVSPropertyOp22
 70
     1
102
RTVSPropertyOp23
 70
     1
102
RTVSPropertyOp24
 70
     1
102
RTVSPropertyOp25
 70
     1
102
RTVSPropertyOp26
 70
     1
102
RTVSPropertyOp27
 70
     1
102
RTVSPropertyOp28
 70
     1
102
RTVSPropertyOp29
 70
     1
102
RTVSPropertyOp30
 70
     1
102
RTVSPropertyOp31
 70
     1
102
RTVSPropertyOp32
 70
     1
  0
XRECORD
  5
6FB7
102
{ACAD_REACTORS
330
6FB6
102
}
330
6FB6
100
AcDbXrecord
280
     1
102
RTVSPropertyOp0
 70
     0
102
RTVSPropertyOp1
 70
     0
102
RTVSPropertyOp2
 70
     0
102
RTVSPropertyOp3
 70
     0
102
RTVSPropertyOp4
 70
     0
102
RTVSPropertyOp5
 70
     0
102
RTVSPropertyOp6
 70
     0
102
RTVSPropertyOp7
 70
     0
102
RTVSPropertyOp8
 70
     0
102
RTVSPropertyOp9
 70
     0
102
RTVSPropertyOp10
 70
     0
102
RTVSPropertyOp11
 70
     0
102
RTVSPropertyOp12
 70
     0
102
RTVSPropertyOp13
 70
     0
102
RTVSPropertyOp14
 70
     2
102
RTVSPropertyOp15
 70
     0
102
RTVSPropertyOp16
 70
     0
102
RTVSPropertyOp17
 70
     0
102
RTVSPropertyOp18
 70
     0
102
RTVSPropertyOp19
 70
     0
102
RTVSPropertyOp20
 70
     0
102
RTVSPropertyOp21
 70
     0
102
RTVSPropertyOp22
 70
     0
102
RTVSPropertyOp23
 70
     0
102
RTVSPropertyOp24
 70
     0
102
RTVSPropertyOp25
 70
     0
102
RTVSPropertyOp26
 70
     0
102
RTVSPropertyOp27
 70
     0
102
RTVSPropertyOp28
 70
     0
102
RTVSPropertyOp29
 70
     0
102
RTVSPropertyOp30
 70
     0
102
RTVSPropertyOp31
 70
     0
102
RTVSPropertyOp32
 70
     0
  0
XRECORD
  5
6FA0
102
{ACAD_REACTORS
330
6F9F
102
}
330
6F9F
100
AcDbXrecord
280
     1
102
RTVSPropertyOp0
 70
     1
102
RTVSPropertyOp1
 70
     1
102
RTVSPropertyOp2
 70
     1
102
RTVSPropertyOp3
 70
     1
102
RTVSPropertyOp4
 70
     1
102
RTVSPropertyOp5
 70
     1
102
RTVSPropertyOp6
 70
     1
102
RTVSPropertyOp7
 70
     1
102
RTVSPropertyOp8
 70
     1
102
RTVSPropertyOp9
 70
     1
102
RTVSPropertyOp10
 70
     1
102
RTVSPropertyOp11
 70
     1
102
RTVSPropertyOp12
 70
     1
102
RTVSPropertyOp13
 70
     1
102
RTVSPropertyOp14
 70
     1
102
RTVSPropertyOp15
 70
     1
102
RTVSPropertyOp16
 70
     1
102
RTVSPropertyOp17
 70
     1
102
RTVSPropertyOp18
 70
     1
102
RTVSPropertyOp19
 70
     1
102
RTVSPropertyOp20
 70
     1
102
RTVSPropertyOp21
 70
     1
102
RTVSPropertyOp22
 70
     1
102
RTVSPropertyOp23
 70
     1
102
RTVSPropertyOp24
 70
     1
102
RTVSPropertyOp25
 70
     1
102
RTVSPropertyOp26
 70
     1
102
RTVSPropertyOp27
 70
     1
102
RTVSPropertyOp28
 70
     1
102
RTVSPropertyOp29
 70
     1
102
RTVSPropertyOp30
 70
     1
102
RTVSPropertyOp31
 70
     1
102
RTVSPropertyOp32
 70
     1
  0
XRECORD
  5
6F84
102
{ACAD_REACTORS
330
6F83
102
}
330
6F83
100
AcDbXrecord
280
     1
102
RTVSPropertyOp0
 70
     1
102
RTVSPropertyOp1
 70
     1
102
RTVSPropertyOp2
 70
     1
102
RTVSPropertyOp3
 70
     1
102
RTVSPropertyOp4
 70
     1
102
RTVSPropertyOp5
 70
     1
102
RTVSPropertyOp6
 70
     1
102
RTVSPropertyOp7
 70
     1
102
RTVSPropertyOp8
 70
     1
102
RTVSPropertyOp9
 70
     1
102
RTVSPropertyOp10
 70
     1
102
RTVSPropertyOp11
 70
     1
102
RTVSPropertyOp12
 70
     1
102
RTVSPropertyOp13
 70
     1
102
RTVSPropertyOp14
 70
     1
102
RTVSPropertyOp15
 70
     1
102
RTVSPropertyOp16
 70
     1
102
RTVSPropertyOp17
 70
     1
102
RTVSPropertyOp18
 70
     1
102
RTVSPropertyOp19
 70
     1
102
RTVSPropertyOp20
 70
     1
102
RTVSPropertyOp21
 70
     1
102
RTVSPropertyOp22
 70
     1
102
RTVSPropertyOp23
 70
     1
102
RTVSPropertyOp24
 70
     1
102
RTVSPropertyOp25
 70
     1
102
RTVSPropertyOp26
 70
     1
102
RTVSPropertyOp27
 70
     1
102
RTVSPropertyOp28
 70
     1
102
RTVSPropertyOp29
 70
     1
102
RTVSPropertyOp30
 70
     1
102
RTVSPropertyOp31
 70
     1
102
RTVSPropertyOp32
 70
     1
  0
XRECORD
  5
6F86
102
{ACAD_REACTORS
330
6F85
102
}
330
6F85
100
AcDbXrecord
280
     1
102
RTVSPropertyOp0
 70
     1
102
RTVSPropertyOp1
 70
     1
102
RTVSPropertyOp2
 70
     1
102
RTVSPropertyOp3
 70
     1
102
RTVSPropertyOp4
 70
     1
102
RTVSPropertyOp5
 70
     1
102
RTVSPropertyOp6
 70
     1
102
RTVSPropertyOp7
 70
     1
102
RTVSPropertyOp8
 70
     1
102
RTVSPropertyOp9
 70
     1
102
RTVSPropertyOp10
 70
     1
102
RTVSPropertyOp11
 70
     1
102
RTVSPropertyOp12
 70
     1
102
RTVSPropertyOp13
 70
     1
102
RTVSPropertyOp14
 70
     1
102
RTVSPropertyOp15
 70
     1
102
RTVSPropertyOp16
 70
     1
102
RTVSPropertyOp17
 70
     1
102
RTVSPropertyOp18
 70
     1
102
RTVSPropertyOp19
 70
     1
102
RTVSPropertyOp20
 70
     1
102
RTVSPropertyOp21
 70
     1
102
RTVSPropertyOp22
 70
     1
102
RTVSPropertyOp23
 70
     1
102
RTVSPropertyOp24
 70
     1
102
RTVSPropertyOp25
 70
     1
102
RTVSPropertyOp26
 70
     1
102
RTVSPropertyOp27
 70
     1
102
RTVSPropertyOp28
 70
     1
102
RTVSPropertyOp29
 70
     1
102
RTVSPropertyOp30
 70
     1
102
RTVSPropertyOp31
 70
     1
102
RTVSPropertyOp32
 70
     1
  0
XRECORD
  5
6F88
102
{ACAD_REACTORS
330
6F87
102
}
330
6F87
100
AcDbXrecord
280
     1
102
RTVSPropertyOp0
 70
     1
102
RTVSPropertyOp1
 70
     1
102
RTVSPropertyOp2
 70
     1
102
RTVSPropertyOp3
 70
     1
102
RTVSPropertyOp4
 70
     1
102
RTVSPropertyOp5
 70
     1
102
RTVSPropertyOp6
 70
     1
102
RTVSPropertyOp7
 70
     1
102
RTVSPropertyOp8
 70
     1
102
RTVSPropertyOp9
 70
     1
102
RTVSPropertyOp10
 70
     1
102
RTVSPropertyOp11
 70
     1
102
RTVSPropertyOp12
 70
     1
102
RTVSPropertyOp13
 70
     1
102
RTVSPropertyOp14
 70
     1
102
RTVSPropertyOp15
 70
     1
102
RTVSPropertyOp16
 70
     1
102
RTVSPropertyOp17
 70
     1
102
RTVSPropertyOp18
 70
     1
102
RTVSPropertyOp19
 70
     1
102
RTVSPropertyOp20
 70
     1
102
RTVSPropertyOp21
 70
     1
102
RTVSPropertyOp22
 70
     1
102
RTVSPropertyOp23
 70
     1
102
RTVSPropertyOp24
 70
     1
102
RTVSPropertyOp25
 70
     1
102
RTVSPropertyOp26
 70
     1
102
RTVSPropertyOp27
 70
     1
102
RTVSPropertyOp28
 70
     1
102
RTVSPropertyOp29
 70
     1
102
RTVSPropertyOp30
 70
     1
102
RTVSPropertyOp31
 70
     1
102
RTVSPropertyOp32
 70
     1
  0
XRECORD
  5
6F8A
102
{ACAD_REACTORS
330
6F89
102
}
330
6F89
100
AcDbXrecord
280
     1
102
RTVSPropertyOp0
 70
     1
102
RTVSPropertyOp1
 70
     1
102
RTVSPropertyOp2
 70
     1
102
RTVSPropertyOp3
 70
     1
102
RTVSPropertyOp4
 70
     1
102
RTVSPropertyOp5
 70
     1
102
RTVSPropertyOp6
 70
     1
102
RTVSPropertyOp7
 70
     1
102
RTVSPropertyOp8
 70
     1
102
RTVSPropertyOp9
 70
     1
102
RTVSPropertyOp10
 70
     1
102
RTVSPropertyOp11
 70
     1
102
RTVSPropertyOp12
 70
     1
102
RTVSPropertyOp13
 70
     1
102
RTVSPropertyOp14
 70
     1
102
RTVSPropertyOp15
 70
     1
102
RTVSPropertyOp16
 70
     1
102
RTVSPropertyOp17
 70
     1
102
RTVSPropertyOp18
 70
     1
102
RTVSPropertyOp19
 70
     1
102
RTVSPropertyOp20
 70
     1
102
RTVSPropertyOp21
 70
     1
102
RTVSPropertyOp22
 70
     1
102
RTVSPropertyOp23
 70
     1
102
RTVSPropertyOp24
 70
     1
102
RTVSPropertyOp25
 70
     1
102
RTVSPropertyOp26
 70
     1
102
RTVSPropertyOp27
 70
     1
102
RTVSPropertyOp28
 70
     1
102
RTVSPropertyOp29
 70
     1
102
RTVSPropertyOp30
 70
     1
102
RTVSPropertyOp31
 70
     1
102
RTVSPropertyOp32
 70
     1
  0
XRECORD
  5
6FA7
102
{ACAD_REACTORS
330
6FA6
102
}
330
6FA6
100
AcDbXrecord
280
     1
102
RTVSPropertyOp0
 70
     1
102
RTVSPropertyOp1
 70
     1
102
RTVSPropertyOp2
 70
     1
102
RTVSPropertyOp3
 70
     1
102
RTVSPropertyOp4
 70
     1
102
RTVSPropertyOp5
 70
     1
102
RTVSPropertyOp6
 70
     1
102
RTVSPropertyOp7
 70
     1
102
RTVSPropertyOp8
 70
     1
102
RTVSPropertyOp9
 70
     1
102
RTVSPropertyOp10
 70
     1
102
RTVSPropertyOp11
 70
     1
102
RTVSPropertyOp12
 70
     1
102
RTVSPropertyOp13
 70
     1
102
RTVSPropertyOp14
 70
     1
102
RTVSPropertyOp15
 70
     1
102
RTVSPropertyOp16
 70
     1
102
RTVSPropertyOp17
 70
     1
102
RTVSPropertyOp18
 70
     1
102
RTVSPropertyOp19
 70
     1
102
RTVSPropertyOp20
 70
     1
102
RTVSPropertyOp21
 70
     1
102
RTVSPropertyOp22
 70
     1
102
RTVSPropertyOp23
 70
     1
102
RTVSPropertyOp24
 70
     1
102
RTVSPropertyOp25
 70
     1
102
RTVSPropertyOp26
 70
     1
102
RTVSPropertyOp27
 70
     1
102
RTVSPropertyOp28
 70
     1
102
RTVSPropertyOp29
 70
     1
102
RTVSPropertyOp30
 70
     1
102
RTVSPropertyOp31
 70
     1
102
RTVSPropertyOp32
 70
     1
  0
XRECORD
  5
6FB3
102
{ACAD_REACTORS
330
6FB2
102
}
330
6FB2
100
AcDbXrecord
280
     1
102
RTVSPropertyOp0
 70
     0
102
RTVSPropertyOp1
 70
     0
102
RTVSPropertyOp2
 70
     0
102
RTVSPropertyOp3
 70
     0
102
RTVSPropertyOp4
 70
     0
102
RTVSPropertyOp5
 70
     0
102
RTVSPropertyOp6
 70
     0
102
RTVSPropertyOp7
 70
     0
102
RTVSPropertyOp8
 70
     0
102
RTVSPropertyOp9
 70
     0
102
RTVSPropertyOp10
 70
     0
102
RTVSPropertyOp11
 70
     0
102
RTVSPropertyOp12
 70
     0
102
RTVSPropertyOp13
 70
     0
102
RTVSPropertyOp14
 70
     2
102
RTVSPropertyOp15
 70
     0
102
RTVSPropertyOp16
 70
     0
102
RTVSPropertyOp17
 70
     0
102
RTVSPropertyOp18
 70
     0
102
RTVSPropertyOp19
 70
     0
102
RTVSPropertyOp20
 70
     0
102
RTVSPropertyOp21
 70
     0
102
RTVSPropertyOp22
 70
     0
102
RTVSPropertyOp23
 70
     0
102
RTVSPropertyOp24
 70
     0
102
RTVSPropertyOp25
 70
     0
102
RTVSPropertyOp26
 70
     0
102
RTVSPropertyOp27
 70
     0
102
RTVSPropertyOp28
 70
     0
102
RTVSPropertyOp29
 70
     0
102
RTVSPropertyOp30
 70
     0
102
RTVSPropertyOp31
 70
     0
102
RTVSPropertyOp32
 70
     0
  0
XRECORD
  5
6F9E
102
{ACAD_REACTORS
330
6F9D
102
}
330
6F9D
100
AcDbXrecord
280
     1
102
RTVSPropertyOp0
 70
     1
102
RTVSPropertyOp1
 70
     1
102
RTVSPropertyOp2
 70
     1
102
RTVSPropertyOp3
 70
     1
102
RTVSPropertyOp4
 70
     1
102
RTVSPropertyOp5
 70
     1
102
RTVSPropertyOp6
 70
     1
102
RTVSPropertyOp7
 70
     1
102
RTVSPropertyOp8
 70
     1
102
RTVSPropertyOp9
 70
     1
102
RTVSPropertyOp10
 70
     1
102
RTVSPropertyOp11
 70
     1
102
RTVSPropertyOp12
 70
     1
102
RTVSPropertyOp13
 70
     1
102
RTVSPropertyOp14
 70
     1
102
RTVSPropertyOp15
 70
     1
102
RTVSPropertyOp16
 70
     1
102
RTVSPropertyOp17
 70
     1
102
RTVSPropertyOp18
 70
     1
102
RTVSPropertyOp19
 70
     1
102
RTVSPropertyOp20
 70
     1
102
RTVSPropertyOp21
 70
     1
102
RTVSPropertyOp22
 70
     1
102
RTVSPropertyOp23
 70
     1
102
RTVSPropertyOp24
 70
     1
102
RTVSPropertyOp25
 70
     1
102
RTVSPropertyOp26
 70
     1
102
RTVSPropertyOp27
 70
     1
102
RTVSPropertyOp28
 70
     1
102
RTVSPropertyOp29
 70
     1
102
RTVSPropertyOp30
 70
     1
102
RTVSPropertyOp31
 70
     1
102
RTVSPropertyOp32
 70
     1
  0
XRECORD
  5
6FB5
102
{ACAD_REACTORS
330
6FB4
102
}
330
6FB4
100
AcDbXrecord
280
     1
102
RTVSPropertyOp0
 70
     0
102
RTVSPropertyOp1
 70
     0
102
RTVSPropertyOp2
 70
     0
102
RTVSPropertyOp3
 70
     0
102
RTVSPropertyOp4
 70
     0
102
RTVSPropertyOp5
 70
     0
102
RTVSPropertyOp6
 70
     0
102
RTVSPropertyOp7
 70
     0
102
RTVSPropertyOp8
 70
     0
102
RTVSPropertyOp9
 70
     0
102
RTVSPropertyOp10
 70
     0
102
RTVSPropertyOp11
 70
     0
102
RTVSPropertyOp12
 70
     0
102
RTVSPropertyOp13
 70
     0
102
RTVSPropertyOp14
 70
     2
102
RTVSPropertyOp15
 70
     0
102
RTVSPropertyOp16
 70
     0
102
RTVSPropertyOp17
 70
     0
102
RTVSPropertyOp18
 70
     0
102
RTVSPropertyOp19
 70
     0
102
RTVSPropertyOp20
 70
     0
102
RTVSPropertyOp21
 70
     0
102
RTVSPropertyOp22
 70
     0
102
RTVSPropertyOp23
 70
     0
102
RTVSPropertyOp24
 70
     0
102
RTVSPropertyOp25
 70
     0
102
RTVSPropertyOp26
 70
     0
102
RTVSPropertyOp27
 70
     0
102
RTVSPropertyOp28
 70
     0
102
RTVSPropertyOp29
 70
     0
102
RTVSPropertyOp30
 70
     0
102
RTVSPropertyOp31
 70
     0
102
RTVSPropertyOp32
 70
     0
  0
XRECORD
  5
6F96
102
{ACAD_REACTORS
330
6F95
102
}
330
6F95
100
AcDbXrecord
280
     1
102
RTVSPropertyOp0
 70
     1
102
RTVSPropertyOp1
 70
     1
102
RTVSPropertyOp2
 70
     1
102
RTVSPropertyOp3
 70
     1
102
RTVSPropertyOp4
 70
     1
102
RTVSPropertyOp5
 70
     1
102
RTVSPropertyOp6
 70
     1
102
RTVSPropertyOp7
 70
     1
102
RTVSPropertyOp8
 70
     1
102
RTVSPropertyOp9
 70
     1
102
RTVSPropertyOp10
 70
     1
102
RTVSPropertyOp11
 70
     1
102
RTVSPropertyOp12
 70
     1
102
RTVSPropertyOp13
 70
     1
102
RTVSPropertyOp14
 70
     1
102
RTVSPropertyOp15
 70
     1
102
RTVSPropertyOp16
 70
     1
102
RTVSPropertyOp17
 70
     1
102
RTVSPropertyOp18
 70
     1
102
RTVSPropertyOp19
 70
     1
102
RTVSPropertyOp20
 70
     1
102
RTVSPropertyOp21
 70
     1
102
RTVSPropertyOp22
 70
     1
102
RTVSPropertyOp23
 70
     1
102
RTVSPropertyOp24
 70
     1
102
RTVSPropertyOp25
 70
     1
102
RTVSPropertyOp26
 70
     1
102
RTVSPropertyOp27
 70
     1
102
RTVSPropertyOp28
 70
     1
102
RTVSPropertyOp29
 70
     1
102
RTVSPropertyOp30
 70
     1
102
RTVSPropertyOp31
 70
     1
102
RTVSPropertyOp32
 70
     1
  0
XRECORD
  5
6FB1
102
{ACAD_REACTORS
330
6FB0
102
}
330
6FB0
100
AcDbXrecord
280
     1
102
RTVSPropertyOp0
 70
     1
102
RTVSPropertyOp1
 70
     1
102
RTVSPropertyOp2
 70
     1
102
RTVSPropertyOp3
 70
     1
102
RTVSPropertyOp4
 70
     1
102
RTVSPropertyOp5
 70
     1
102
RTVSPropertyOp6
 70
     1
102
RTVSPropertyOp7
 70
     1
102
RTVSPropertyOp8
 70
     1
102
RTVSPropertyOp9
 70
     1
102
RTVSPropertyOp10
 70
     1
102
RTVSPropertyOp11
 70
     1
102
RTVSPropertyOp12
 70
     1
102
RTVSPropertyOp13
 70
     1
102
RTVSPropertyOp14
 70
     1
102
RTVSPropertyOp15
 70
     1
102
RTVSPropertyOp16
 70
     1
102
RTVSPropertyOp17
 70
     1
102
RTVSPropertyOp18
 70
     1
102
RTVSPropertyOp19
 70
     1
102
RTVSPropertyOp20
 70
     1
102
RTVSPropertyOp21
 70
     1
102
RTVSPropertyOp22
 70
     1
102
RTVSPropertyOp23
 70
     1
102
RTVSPropertyOp24
 70
     1
102
RTVSPropertyOp25
 70
     1
102
RTVSPropertyOp26
 70
     1
102
RTVSPropertyOp27
 70
     1
102
RTVSPropertyOp28
 70
     1
102
RTVSPropertyOp29
 70
     1
102
RTVSPropertyOp30
 70
     1
102
RTVSPropertyOp31
 70
     1
102
RTVSPropertyOp32
 70
     1
  0
XRECORD
  5
6FAF
102
{ACAD_REACTORS
330
6FAE
102
}
330
6FAE
100
AcDbXrecord
280
     1
102
RTVSPropertyOp0
 70
     1
102
RTVSPropertyOp1
 70
     1
102
RTVSPropertyOp2
 70
     1
102
RTVSPropertyOp3
 70
     1
102
RTVSPropertyOp4
 70
     1
102
RTVSPropertyOp5
 70
     1
102
RTVSPropertyOp6
 70
     1
102
RTVSPropertyOp7
 70
     1
102
RTVSPropertyOp8
 70
     1
102
RTVSPropertyOp9
 70
     1
102
RTVSPropertyOp10
 70
     1
102
RTVSPropertyOp11
 70
     1
102
RTVSPropertyOp12
 70
     1
102
RTVSPropertyOp13
 70
     1
102
RTVSPropertyOp14
 70
     1
102
RTVSPropertyOp15
 70
     1
102
RTVSPropertyOp16
 70
     1
102
RTVSPropertyOp17
 70
     1
102
RTVSPropertyOp18
 70
     1
102
RTVSPropertyOp19
 70
     1
102
RTVSPropertyOp20
 70
     1
102
RTVSPropertyOp21
 70
     1
102
RTVSPropertyOp22
 70
     1
102
RTVSPropertyOp23
 70
     1
102
RTVSPropertyOp24
 70
     1
102
RTVSPropertyOp25
 70
     1
102
RTVSPropertyOp26
 70
     1
102
RTVSPropertyOp27
 70
     1
102
RTVSPropertyOp28
 70
     1
102
RTVSPropertyOp29
 70
     1
102
RTVSPropertyOp30
 70
     1
102
RTVSPropertyOp31
 70
     1
102
RTVSPropertyOp32
 70
     1
  0
XRECORD
  5
6FA9
102
{ACAD_REACTORS
330
6FA8
102
}
330
6FA8
100
AcDbXrecord
280
     1
102
RTVSPropertyOp0
 70
     1
102
RTVSPropertyOp1
 70
     1
102
RTVSPropertyOp2
 70
     1
102
RTVSPropertyOp3
 70
     1
102
RTVSPropertyOp4
 70
     1
102
RTVSPropertyOp5
 70
     1
102
RTVSPropertyOp6
 70
     1
102
RTVSPropertyOp7
 70
     1
102
RTVSPropertyOp8
 70
     1
102
RTVSPropertyOp9
 70
     1
102
RTVSPropertyOp10
 70
     1
102
RTVSPropertyOp11
 70
     1
102
RTVSPropertyOp12
 70
     1
102
RTVSPropertyOp13
 70
     1
102
RTVSPropertyOp14
 70
     1
102
RTVSPropertyOp15
 70
     1
102
RTVSPropertyOp16
 70
     1
102
RTVSPropertyOp17
 70
     1
102
RTVSPropertyOp18
 70
     1
102
RTVSPropertyOp19
 70
     1
102
RTVSPropertyOp20
 70
     1
102
RTVSPropertyOp21
 70
     1
102
RTVSPropertyOp22
 70
     1
102
RTVSPropertyOp23
 70
     1
102
RTVSPropertyOp24
 70
     1
102
RTVSPropertyOp25
 70
     1
102
RTVSPropertyOp26
 70
     1
102
RTVSPropertyOp27
 70
     1
102
RTVSPropertyOp28
 70
     1
102
RTVSPropertyOp29
 70
     1
102
RTVSPropertyOp30
 70
     1
102
RTVSPropertyOp31
 70
     1
102
RTVSPropertyOp32
 70
     1
  0
XRECORD
  5
6FAB
102
{ACAD_REACTORS
330
6FAA
102
}
330
6FAA
100
AcDbXrecord
280
     1
102
RTVSPropertyOp0
 70
     1
102
RTVSPropertyOp1
 70
     1
102
RTVSPropertyOp2
 70
     1
102
RTVSPropertyOp3
 70
     1
102
RTVSPropertyOp4
 70
     1
102
RTVSPropertyOp5
 70
     1
102
RTVSPropertyOp6
 70
     1
102
RTVSPropertyOp7
 70
     1
102
RTVSPropertyOp8
 70
     1
102
RTVSPropertyOp9
 70
     1
102
RTVSPropertyOp10
 70
     1
102
RTVSPropertyOp11
 70
     1
102
RTVSPropertyOp12
 70
     1
102
RTVSPropertyOp13
 70
     1
102
RTVSPropertyOp14
 70
     1
102
RTVSPropertyOp15
 70
     1
102
RTVSPropertyOp16
 70
     1
102
RTVSPropertyOp17
 70
     1
102
RTVSPropertyOp18
 70
     1
102
RTVSPropertyOp19
 70
     1
102
RTVSPropertyOp20
 70
     1
102
RTVSPropertyOp21
 70
     1
102
RTVSPropertyOp22
 70
     1
102
RTVSPropertyOp23
 70
     1
102
RTVSPropertyOp24
 70
     1
102
RTVSPropertyOp25
 70
     1
102
RTVSPropertyOp26
 70
     1
102
RTVSPropertyOp27
 70
     1
102
RTVSPropertyOp28
 70
     1
102
RTVSPropertyOp29
 70
     1
102
RTVSPropertyOp30
 70
     1
102
RTVSPropertyOp31
 70
     1
102
RTVSPropertyOp32
 70
     1
  0
XRECORD
  5
6F9C
102
{ACAD_REACTORS
330
6F9B
102
}
330
6F9B
100
AcDbXrecord
280
     1
102
RTVSPropertyOp0
 70
     1
102
RTVSPropertyOp1
 70
     1
102
RTVSPropertyOp2
 70
     1
102
RTVSPropertyOp3
 70
     1
102
RTVSPropertyOp4
 70
     1
102
RTVSPropertyOp5
 70
     1
102
RTVSPropertyOp6
 70
     1
102
RTVSPropertyOp7
 70
     1
102
RTVSPropertyOp8
 70
     1
102
RTVSPropertyOp9
 70
     1
102
RTVSPropertyOp10
 70
     1
102
RTVSPropertyOp11
 70
     1
102
RTVSPropertyOp12
 70
     1
102
RTVSPropertyOp13
 70
     1
102
RTVSPropertyOp14
 70
     1
102
RTVSPropertyOp15
 70
     1
102
RTVSPropertyOp16
 70
     1
102
RTVSPropertyOp17
 70
     1
102
RTVSPropertyOp18
 70
     1
102
RTVSPropertyOp19
 70
     1
102
RTVSPropertyOp20
 70
     1
102
RTVSPropertyOp21
 70
     1
102
RTVSPropertyOp22
 70
     1
102
RTVSPropertyOp23
 70
     1
102
RTVSPropertyOp24
 70
     1
102
RTVSPropertyOp25
 70
     1
102
RTVSPropertyOp26
 70
     1
102
RTVSPropertyOp27
 70
     1
102
RTVSPropertyOp28
 70
     1
102
RTVSPropertyOp29
 70
     1
102
RTVSPropertyOp30
 70
     1
102
RTVSPropertyOp31
 70
     1
102
RTVSPropertyOp32
 70
     1
  0
XRECORD
  5
6FA5
102
{ACAD_REACTORS
330
6FA4
102
}
330
6FA4
100
AcDbXrecord
280
     1
102
RTVSPropertyOp0
 70
     1
102
RTVSPropertyOp1
 70
     1
102
RTVSPropertyOp2
 70
     1
102
RTVSPropertyOp3
 70
     1
102
RTVSPropertyOp4
 70
     1
102
RTVSPropertyOp5
 70
     1
102
RTVSPropertyOp6
 70
     1
102
RTVSPropertyOp7
 70
     1
102
RTVSPropertyOp8
 70
     1
102
RTVSPropertyOp9
 70
     1
102
RTVSPropertyOp10
 70
     1
102
RTVSPropertyOp11
 70
     1
102
RTVSPropertyOp12
 70
     1
102
RTVSPropertyOp13
 70
     1
102
RTVSPropertyOp14
 70
     1
102
RTVSPropertyOp15
 70
     1
102
RTVSPropertyOp16
 70
     1
102
RTVSPropertyOp17
 70
     1
102
RTVSPropertyOp18
 70
     1
102
RTVSPropertyOp19
 70
     1
102
RTVSPropertyOp20
 70
     1
102
RTVSPropertyOp21
 70
     1
102
RTVSPropertyOp22
 70
     1
102
RTVSPropertyOp23
 70
     1
102
RTVSPropertyOp24
 70
     1
102
RTVSPropertyOp25
 70
     1
102
RTVSPropertyOp26
 70
     1
102
RTVSPropertyOp27
 70
     1
102
RTVSPropertyOp28
 70
     1
102
RTVSPropertyOp29
 70
     1
102
RTVSPropertyOp30
 70
     1
102
RTVSPropertyOp31
 70
     1
102
RTVSPropertyOp32
 70
     1
  0
XRECORD
  5
6FAD
102
{ACAD_REACTORS
330
6FAC
102
}
330
6FAC
100
AcDbXrecord
280
     1
102
RTVSPropertyOp0
 70
     1
102
RTVSPropertyOp1
 70
     1
102
RTVSPropertyOp2
 70
     1
102
RTVSPropertyOp3
 70
     1
102
RTVSPropertyOp4
 70
     1
102
RTVSPropertyOp5
 70
     1
102
RTVSPropertyOp6
 70
     1
102
RTVSPropertyOp7
 70
     1
102
RTVSPropertyOp8
 70
     1
102
RTVSPropertyOp9
 70
     1
102
RTVSPropertyOp10
 70
     1
102
RTVSPropertyOp11
 70
     1
102
RTVSPropertyOp12
 70
     1
102
RTVSPropertyOp13
 70
     1
102
RTVSPropertyOp14
 70
     1
102
RTVSPropertyOp15
 70
     1
102
RTVSPropertyOp16
 70
     1
102
RTVSPropertyOp17
 70
     1
102
RTVSPropertyOp18
 70
     1
102
RTVSPropertyOp19
 70
     1
102
RTVSPropertyOp20
 70
     1
102
RTVSPropertyOp21
 70
     1
102
RTVSPropertyOp22
 70
     1
102
RTVSPropertyOp23
 70
     1
102
RTVSPropertyOp24
 70
     1
102
RTVSPropertyOp25
 70
     1
102
RTVSPropertyOp26
 70
     1
102
RTVSPropertyOp27
 70
     1
102
RTVSPropertyOp28
 70
     1
102
RTVSPropertyOp29
 70
     1
102
RTVSPropertyOp30
 70
     1
102
RTVSPropertyOp31
 70
     1
102
RTVSPropertyOp32
 70
     1
  0
DICTIONARY
  5
6FB8
330
33AC
100
AcDbDictionary
280
     1
281
     1
  3
ACAD_XREC_ROUNDTRIP
360
6FB9
  0
XRECORD
  5
6FB9
102
{ACAD_REACTORS
330
6FB8
102
}
330
6FB8
100
AcDbXrecord
280
     1
102
SHADEPLOT
 70
     0
102
SHADEPLOTRESLEVEL
 70
     2
102
SHADEPLOTCUSTOMDPI
 70
   300
  0
ENDSEC
  0
EOF
