  0
SECTION
  2
HEADER
  9
$ACADVER
  1
AC1015
  9
$ACADMAINTVER
 70
     6
  9
$DWGCODEPAGE
  3
DOS932
  9
$INSBASE
 10
0.0
 20
0.0
 30
0.0
  9
$EXTMIN
 10
0.0
 20
0.0
 30
0.0
  9
$EXTMAX
 10
297.0
 20
210.0
 30
0.0
  9
$LIMMIN
 10
0.0
 20
0.0
  9
$LIMMAX
 10
297.0
 20
210.0
  9
$ORTHOMODE
 70
     0
  9
$REGENMODE
 70
     1
  9
$FILLMODE
 70
     1
  9
$QTEXTMODE
 70
     0
  9
$MIRRTEXT
 70
     1
  9
$LTSCALE
 40
1.0
  9
$ATTMODE
 70
     1
  9
$TEXTSIZE
 40
3.5277777778
  9
$TRACEWID
 40
1.0
  9
$TEXTSTYLE
  7
Standard
  9
$CLAYER
  8
0
  9
$CELTYPE
  6
ByLayer
  9
$CECOLOR
 62
   256
  9
$CELTSCALE
 40
1.0
  9
$DISPSILH
 70
     0
  9
$DIMSCALE
 40
1.0
  9
$DIMASZ
 40
2.728515625
  9
$DIMEXO
 40
1.0
  9
$DIMDLI
 40
3.75
  9
$DIMRND
 40
0.0
  9
$DIMDLE
 40
0.0
  9
$DIMEXE
 40
1.0
  9
$DIMTP
 40
0.0
  9
$DIMTM
 40
0.0
  9
$DIMTXT
 40
3.5277777778
  9
$DIMCEN
 40
2.5
  9
$DIMTSZ
 40
0.0
  9
$DIMTOL
 70
     0
  9
$DIMLIM
 70
     0
  9
$DIMTIH
 70
     1
  9
$DIMTOH
 70
     1
  9
$DIMSE1
 70
     0
  9
$DIMSE2
 70
     0
  9
$DIMTAD
 70
     1
  9
$DIMZIN
 70
     0
  9
$DIMBLK
  1

  9
$DIMASO
 70
     1
  9
$DIMSHO
 70
     1
  9
$DIMPOST
  1

  9
$DIMAPOST
  1

  9
$DIMALT
 70
     0
  9
$DIMALTD
 70
     3
  9
$DIMALTF
 40
0.0393700787
  9
$DIMLFAC
 40
1.0
  9
$DIMTOFL
 70
     1
  9
$DIMTVP
 40
0.0
  9
$DIMTIX
 70
     0
  9
$DIMSOXD
 70
     0
  9
$DIMSAH
 70
     0
  9
$DIMBLK1
  1

  9
$DIMBLK2
  1

  9
$DIMSTYLE
  2
ISO-25
  9
$DIMCLRD
 70
     0
  9
$DIMCLRE
 70
     0
  9
$DIMCLRT
 70
     0
  9
$DIMTFAC
 40
1.0
  9
$DIMGAP
 40
1.524
  9
$DIMJUST
 70
     0
  9
$DIMSD1
 70
     0
  9
$DIMSD2
 70
     0
  9
$DIMTOLJ
 70
     0
  9
$DIMTZIN
 70
     0
  9
$DIMALTZ
 70
     0
  9
$DIMALTTZ
 70
     0
  9
$DIMUPT
 70
     0
  9
$DIMDEC
 70
     2
  9
$DIMTDEC
 70
     2
  9
$DIMALTU
 70
     2
  9
$DIMALTTD
 70
     3
  9
$DIMTXSTY
  7
Standard
  9
$DIMAUNIT
 70
     0
  9
$DIMADEC
 70
     2
  9
$DIMALTRND
 40
0.0
  9
$DIMAZIN
 70
     0
  9
$DIMDSEP
 70
    44
  9
$DIMATFIT
 70
     3
  9
$DIMFRAC
 70
     0
  9
$DIMLDRBLK
  1

  9
$DIMLUNIT
 70
     2
  9
$DIMLWD
 70
    -2
  9
$DIMLWE
 70
    -2
  9
$DIMTMOVE
 70
     0
  9
$LUNITS
 70
     2
  9
$LUPREC
 70
     2
  9
$SKETCHINC
 40
1.0
  9
$FILLETRAD
 40
0.0
  9
$AUNITS
 70
     0
  9
$AUPREC
 70
     2
  9
$MENU
  1
.
  9
$ELEVATION
 40
0.0
  9
$PELEVATION
 40
0.0
  9
$THICKNESS
 40
0.0
  9
$LIMCHECK
 70
     0
  9
$CHAMFERA
 40
0.0
  9
$CHAMFERB
 40
0.0
  9
$CHAMFERC
 40
0.0
  9
$CHAMFERD
 40
0.0
  9
$SKPOLY
 70
     0
  9
$TDCREATE
 40
2460406.683676366
  9
$TDUCREATE
 40
2460406.308676366
  9
$TDUPDATE
 40
2460406.683676898
  9
$TDUUPDATE
 40
2460406.308676898
  9
$TDINDWG
 40
0.0000000116
  9
$TDUSRTIMER
 40
0.0000000116
  9
$USRTIMER
 70
     1
  9
$ANGBASE
 50
0.0
  9
$ANGDIR
 70
     0
  9
$PDMODE
 70
     0
  9
$PDSIZE
 40
-1.0
  9
$PLINEWID
 40
0.0
  9
$SPLFRAME
 70
     0
  9
$SPLINETYPE
 70
     6
  9
$SPLINESEGS
 70
     8
  9
$HANDSEED
  5
158
  9
$SURFTAB1
 70
     6
  9
$SURFTAB2
 70
     6
  9
$SURFTYPE
 70
     6
  9
$SURFU
 70
     6
  9
$SURFV
 70
     6
  9
$UCSBASE
  2

  9
$UCSNAME
  2

  9
$UCSORG
 10
0.0
 20
0.0
 30
0.0
  9
$UCSXDIR
 10
1.0
 20
0.0
 30
0.0
  9
$UCSYDIR
 10
0.0
 20
1.0
 30
0.0
  9
$UCSORTHOREF
  2

  9
$UCSORTHOVIEW
 70
     0
  9
$UCSORGTOP
 10
0.0
 20
0.0
 30
0.0
  9
$UCSORGBOTTOM
 10
0.0
 20
0.0
 30
0.0
  9
$UCSORGLEFT
 10
0.0
 20
0.0
 30
0.0
  9
$UCSORGRIGHT
 10
0.0
 20
0.0
 30
0.0
  9
$UCSORGFRONT
 10
0.0
 20
0.0
 30
0.0
  9
$UCSORGBACK
 10
0.0
 20
0.0
 30
0.0
  9
$PUCSBASE
  2

  9
$PUCSNAME
  2

  9
$PUCSORG
 10
0.0
 20
0.0
 30
0.0
  9
$PUCSXDIR
 10
1.0
 20
0.0
 30
0.0
  9
$PUCSYDIR
 10
0.0
 20
1.0
 30
0.0
  9
$PUCSORTHOREF
  2

  9
$PUCSORTHOVIEW
 70
     0
  9
$PUCSORGTOP
 10
0.0
 20
0.0
 30
0.0
  9
$PUCSORGBOTTOM
 10
0.0
 20
0.0
 30
0.0
  9
$PUCSORGLEFT
 10
0.0
 20
0.0
 30
0.0
  9
$PUCSORGRIGHT
 10
0.0
 20
0.0
 30
0.0
  9
$PUCSORGFRONT
 10
0.0
 20
0.0
 30
0.0
  9
$PUCSORGBACK
 10
0.0
 20
0.0
 30
0.0
  9
$USERI1
 70
     0
  9
$USERI2
 70
     0
  9
$USERI3
 70
     0
  9
$USERI4
 70
     0
  9
$USERI5
 70
     0
  9
$USERR1
 40
0.0
  9
$USERR2
 40
0.0
  9
$USERR3
 40
0.0
  9
$USERR4
 40
0.0
  9
$USERR5
 40
0.0
  9
$WORLDVIEW
 70
     1
  9
$SHADEDGE
 70
     3
  9
$SHADEDIF
 70
    70
  9
$TILEMODE
 70
     1
  9
$MAXACTVP
 70
    64
  9
$PINSBASE
 10
0.0
 20
0.0
 30
0.0
  9
$PLIMCHECK
 70
     0
  9
$PEXTMIN
 10
1.0000000000E+20
 20
1.0000000000E+20
 30
1.0000000000E+20
  9
$PEXTMAX
 10
-1.0000000000E+20
 20
-1.0000000000E+20
 30
-1.0000000000E+20
  9
$PLIMMIN
 10
0.0
 20
0.0
  9
$PLIMMAX
 10
420.0
 20
297.0
  9
$UNITMODE
 70
     0
  9
$VISRETAIN
 70
     1
  9
$PLINEGEN
 70
     0
  9
$PSLTSCALE
 70
     1
  9
$TREEDEPTH
 70
  3020
  9
$CMLSTYLE
  2
Standard
  9
$CMLJUST
 70
     0
  9
$CMLSCALE
 40
20.0
  9
$PROXYGRAPHICS
 70
     1
  9
$MEASUREMENT
 70
     1
  9
$CELWEIGHT
370
    -1
  9
$ENDCAPS
280
     0
  9
$JOINSTYLE
280
     0
  9
$LWDISPLAY
290
     1
  9
$INSUNITS
 70
     4
  9
$HYPERLINKBASE
  1

  9
$STYLESHEET
  1

  9
$XEDIT
290
     1
  9
$CEPSNTYPE
380
     0
  9
$PSTYLEMODE
290
     1
  9
$FINGERPRINTGUID
  2
{e4c9ea92-199b-44e2-abde-9f8d1ba38e26}
  9
$VERSIONGUID
  2
{FAEB1C32-E019-11D5-929B-00C0DF256EC4}
  9
$EXTNAMES
290
     1
  9
$PSVPSCALE
 40
0.0
  9
$OLESTARTUP
290
     0
  0
ENDSEC
  0
SECTION
  2
CLASSES
  0
CLASS
  1
ACDBDICTIONARYWDFLT
  2
AcDbDictionaryWithDefault
  3
ObjectDBX Classes
 90
        0
280
     0
281
     0
  0
CLASS
  1
VISUALSTYLE
  2
AcDbVisualStyle
  3
ObjectDBX Classes
 90
     4095
280
     0
281
     0
  0
CLASS
  1
MATERIAL
  2
AcDbMaterial
  3
ObjectDBX Classes
 90
     1153
280
     0
281
     0
  0
CLASS
  1
SCALE
  2
AcDbScale
  3
ObjectDBX Classes
 90
     1153
280
     0
281
     0
  0
CLASS
  1
TABLESTYLE
  2
AcDbTableStyle
  3
ObjectDBX Classes
 90
     4095
280
     0
281
     0
  0
CLASS
  1
MLEADERSTYLE
  2
AcDbMLeaderStyle
  3
ACDB_MLEADERSTYLE_CLASS
 90
     4095
280
     0
281
     0
  0
CLASS
  1
SUN
  2
AcDbSun
  3
SCENEOE
 90
     1153
280
     0
281
     0
  0
CLASS
  1
ACDBPLACEHOLDER
  2
AcDbPlaceHolder
  3
ObjectDBX Classes
 90
        0
280
     0
281
     0
  0
CLASS
  1
LAYOUT
  2
AcDbLayout
  3
ObjectDBX Classes
 90
        0
280
     0
281
     0
  0
ENDSEC
  0
SECTION
  2
TABLES
  0
TABLE
  2
VPORT
  5
8
330
0
100
AcDbSymbolTable
 70
     1
  0
VPORT
  5
29
330
8
100
AcDbSymbolTableRecord
100
AcDbViewportTableRecord
  2
*Active
 70
     0
 10
0.0
 20
0.0
 11
1.0
 21
1.0
 12
148.5
 22
105.0
 13
0.0
 23
0.0
 14
10.0
 24
10.0
 15
10.0
 25
10.0
 16
0.0
 26
0.0
 36
1.0
 17
0.0
 27
0.0
 37
0.0
 40
210.0
 41
1.4142857143
 42
50.0
 43
0.0
 44
0.0
 50
0.0
 51
0.0
 71
     0
 72
  2000
 73
     1
 74
     3
 75
     0
 76
     0
 77
     0
 78
     0
281
     0
 65
     1
110
0.0
120
0.0
130
0.0
111
1.0
121
0.0
131
0.0
112
0.0
122
1.0
132
0.0
 79
     0
146
0.0
  0
ENDTAB
  0
TABLE
  2
LTYPE
  5
5
330
0
100
AcDbSymbolTable
 70
     6
  0
LTYPE
  5
14
330
5
100
AcDbSymbolTableRecord
100
AcDbLinetypeTableRecord
  2
ByBlock
 70
     0
  3

 72
    65
 73
     0
 40
0.0
  0
LTYPE
  5
15
330
5
100
AcDbSymbolTableRecord
100
AcDbLinetypeTableRecord
  2
ByLayer
 70
     0
  3

 72
    65
 73
     0
 40
0.0
  0
LTYPE
  5
16
330
5
100
AcDbSymbolTableRecord
100
AcDbLinetypeTableRecord
  2
Continuous
 70
     0
  3
Solid line
 72
    65
 73
     0
 40
0.0
  0
LTYPE
  5
5E
330
5
100
AcDbSymbolTableRecord
100
AcDbLinetypeTableRecord
  2
HIDDEN
 70
     0
  3
Hidden __ __ __ __ __ __ __ __ __ __ __ __ __ __
 72
    65
 73
     2
 40
1.905
 49
1.27
 74
     0
 49
-0.635
 74
     0
  0
LTYPE
  5
5F
330
5
100
AcDbSymbolTableRecord
100
AcDbLinetypeTableRecord
  2
PHANTOM
 70
     0
  3
Phantom ______  __  __  ______  __  __  ______
 72
    65
 73
     6
 40
12.7
 49
6.35
 74
     0
 49
-1.27
 74
     0
 49
1.27
 74
     0
 49
-1.27
 74
     0
 49
1.27
 74
     0
 49
-1.27
 74
     0
  0
LTYPE
  5
60
330
5
100
AcDbSymbolTableRecord
100
AcDbLinetypeTableRecord
  2
CENTER
 70
     0
  3
Center ____ _ ____ _ ____ _ ____ _ ____ _ ____
 72
    65
 73
     4
 40
10.16
 49
6.35
 74
     0
 49
-1.27
 74
     0
 49
1.27
 74
     0
 49
-1.27
 74
     0
  0
LTYPE
  5
61
330
5
100
AcDbSymbolTableRecord
100
AcDbLinetypeTableRecord
  2
CENTERX2
 70
     0
  3
Center (2x) ________  __  ________  __  _____
 72
    65
 73
     4
 40
20.32
 49
12.7
 74
     0
 49
-2.54
 74
     0
 49
2.54
 74
     0
 49
-2.54
 74
     0
  0
LTYPE
  5
62
330
5
100
AcDbSymbolTableRecord
100
AcDbLinetypeTableRecord
  2
DOT2
 70
     0
  3
Dot (.5x) ........................................
 72
    65
 73
     2
 40
0.635
 49
0.0
 74
     0
 49
-0.635
 74
     0
  0
ENDTAB
  0
TABLE
  2
LAYER
  5
2
330
0
100
AcDbSymbolTable
 70
     2
  0
LAYER
  5
10
330
2
100
AcDbSymbolTableRecord
100
AcDbLayerTableRecord
  2
0
 70
     0
 62
     7
  6
Continuous
370
    -3
390
F
  0
LAYER
  5
63
330
2
100
AcDbSymbolTableRecord
100
AcDbLayerTableRecord
  2
FORMAT
 70
     0
 62
     7
  6
Continuous
370
    -3
390
F
  0
ENDTAB
  0
TABLE
  2
STYLE
  5
3
330
0
100
AcDbSymbolTable
 70
     2
  0
STYLE
  5
11
330
3
100
AcDbSymbolTableRecord
100
AcDbTextStyleTableRecord
  2
Standard
 70
     0
 40
0.0
 41
1.0
 50
0.0
 71
     0
 42
3.5277777778
  3
txt
  4
bigfont
  0
STYLE
  5
64
330
3
100
AcDbSymbolTableRecord
100
AcDbTextStyleTableRecord
  2
SLDTEXTSTYLE0
 70
     0
 40
0.0
 41
0.7
 50
0.0
 71
     0
 42
3.5277777778
  3
TXT
  4
bigfont
  0
ENDTAB
  0
TABLE
  2
VIEW
  5
6
330
0
100
AcDbSymbolTable
 70
     0
  0
ENDTAB
  0
TABLE
  2
UCS
  5
7
330
0
100
AcDbSymbolTable
 70
     0
  0
ENDTAB
  0
TABLE
  2
APPID
  5
9
330
0
100
AcDbSymbolTable
 70
     1
  0
APPID
  5
12
330
9
100
AcDbSymbolTableRecord
100
AcDbRegAppTableRecord
  2
ACAD
 70
     0
  0
ENDTAB
  0
TABLE
  2
DIMSTYLE
  5
A
330
0
100
AcDbSymbolTable
 70
     1
100
AcDbDimStyleTable
  0
DIMSTYLE
105
27
330
A
100
AcDbSymbolTableRecord
100
AcDbDimStyleTableRecord
  2
ISO-25
 70
     0
 41
2.5
 42
0.625
 43
3.75
 44
1.25
 73
     0
 74
     0
 77
     1
 78
     8
140
2.5
141
2.5
143
0.0393700787
147
0.625
171
     3
172
     1
178
     0
271
     2
272
     2
274
     3
278
    44
283
     0
284
     8
340
11
  0
ENDTAB
  0
TABLE
  2
BLOCK_RECORD
  5
1
330
0
100
AcDbSymbolTable
 70
     2
  0
BLOCK_RECORD
  5
1F
330
1
100
AcDbSymbolTableRecord
100
AcDbBlockTableRecord
  2
*Model_Space
340
22
  0
BLOCK_RECORD
  5
1B
330
1
100
AcDbSymbolTableRecord
100
AcDbBlockTableRecord
  2
*Paper_Space
340
1E
  0
BLOCK_RECORD
  5
23
330
1
100
AcDbSymbolTableRecord
100
AcDbBlockTableRecord
  2
*Paper_Space0
340
26
  0
BLOCK_RECORD
  5
12E
330
1
100
AcDbSymbolTableRecord
100
AcDbBlockTableRecord
  2
SW_CENTERMARKSYMBOL_0
340
0
102
{BLKREFS
331
139
102
}
  0
ENDTAB
  0
ENDSEC
  0
SECTION
  2
BLOCKS
  0
BLOCK
  5
20
330
1F
100
AcDbEntity
  8
0
100
AcDbBlockBegin
  2
*Model_Space
 70
     0
 10
0.0
 20
0.0
 30
0.0
  3
*Model_Space
  1

  0
ENDBLK
  5
21
330
1F
100
AcDbEntity
  8
0
100
AcDbBlockEnd
  0
BLOCK
  5
1C
330
1B
100
AcDbEntity
 67
     1
  8
0
100
AcDbBlockBegin
  2
*Paper_Space
 70
     0
 10
0.0
 20
0.0
 30
0.0
  3
*Paper_Space
  1

  0
ENDBLK
  5
1D
330
1B
100
AcDbEntity
 67
     1
  8
0
100
AcDbBlockEnd
  0
BLOCK
  5
24
330
23
100
AcDbEntity
  8
0
100
AcDbBlockBegin
  2
*Paper_Space0
 70
     0
 10
0.0
 20
0.0
 30
0.0
  3
*Paper_Space0
  1

  0
ENDBLK
  5
25
330
23
100
AcDbEntity
  8
0
100
AcDbBlockEnd
  0
BLOCK
  5
12F
330
12E
100
AcDbEntity
  8
0
100
AcDbBlockBegin
  2
SW_CENTERMARKSYMBOL_0
 70
     0
 10
0.0
 20
0.0
 30
0.0
  3
SW_CENTERMARKSYMBOL_0
  1

  0
LINE
  5
131
330
12E
100
AcDbEntity
  8
FORMAT
 62
     0
100
AcDbLine
 10
0.0
 20
0.0
 30
0.0
 11
0.0
 21
2.5
 31
0.0
  0
LINE
  5
132
330
12E
100
AcDbEntity
  8
FORMAT
 62
     0
100
AcDbLine
 10
0.0
 20
0.0
 30
0.0
 11
-2.5
 21
0.0
 31
0.0
  0
LINE
  5
133
330
12E
100
AcDbEntity
  8
FORMAT
 62
     0
100
AcDbLine
 10
0.0
 20
0.0
 30
0.0
 11
0.0
 21
-2.5
 31
0.0
  0
LINE
  5
134
330
12E
100
AcDbEntity
  8
FORMAT
 62
     0
100
AcDbLine
 10
0.0
 20
0.0
 30
0.0
 11
2.5
 21
0.0
 31
0.0
  0
LINE
  5
135
330
12E
100
AcDbEntity
  8
FORMAT
 62
     0
100
AcDbLine
 10
0.0
 20
5.0
 30
0.0
 11
0.0
 21
22.3349219852
 31
0.0
  0
LINE
  5
136
330
12E
100
AcDbEntity
  8
FORMAT
 62
     0
100
AcDbLine
 10
-5.0
 20
0.0
 30
0.0
 11
-19.4873125
 21
0.0
 31
0.0
  0
LINE
  5
137
330
12E
100
AcDbEntity
  8
FORMAT
 62
     0
100
AcDbLine
 10
0.0
 20
-5.0
 30
0.0
 11
0.0
 21
-21.9931244527
 31
0.0
  0
LINE
  5
138
330
12E
100
AcDbEntity
  8
FORMAT
 62
     0
100
AcDbLine
 10
5.0
 20
0.0
 30
0.0
 11
19.4873125
 21
0.0
 31
0.0
  0
ENDBLK
  5
130
330
12E
100
AcDbEntity
  8
0
100
AcDbBlockEnd
  0
ENDSEC
  0
SECTION
  2
ENTITIES
  0
MTEXT
  5
65
330
1F
100
AcDbEntity
  8
FORMAT
100
AcDbMText
 10
166.3899671763
 20
110.710560857
 30
0.0
 40
4.2333333333
 41
0.0
 71
     1
 72
     1
  1
5R-NB1386
  7
SLDTEXTSTYLE0
 73
     1
 44
1.0
  0
LINE
  5
66
330
1F
100
AcDbEntity
  8
0
  6
Continuous
 62
     7
370
    25
100
AcDbLine
 10
140.239297259
 20
95.2297999404
 30
0.0
 11
138.5319227359
 21
92.2725405188
 31
0.0
  0
LINE
  5
67
330
1F
100
AcDbEntity
  8
0
  6
Continuous
 62
     7
370
    25
100
AcDbLine
 10
138.5319227359
 20
57.7725405188
 30
0.0
 11
140.239297259
 21
54.8152810972
 31
0.0
  0
LINE
  5
68
330
1F
100
AcDbEntity
  8
0
  6
Continuous
 62
     7
370
    25
100
AcDbLine
 10
147.8245482128
 20
54.8152810972
 30
0.0
 11
149.5319227359
 21
57.7725405188
 31
0.0
  0
LINE
  5
69
330
1F
100
AcDbEntity
  8
0
  6
Continuous
 62
     7
370
    25
100
AcDbLine
 10
149.5319227359
 20
92.2725405188
 30
0.0
 11
147.8245482128
 21
95.2297999404
 31
0.0
  0
LINE
  5
6A
330
1F
100
AcDbEntity
  8
0
  6
Continuous
 62
     7
370
    25
100
AcDbLine
 10
138.5319227359
 20
92.0098530188
 30
0.0
 11
119.8276773831
 21
91.4253453515
 31
0.0
  0
LINE
  5
6B
330
1F
100
AcDbEntity
  8
0
  6
Continuous
 62
     7
370
    25
100
AcDbLine
 10
119.8276773831
 20
58.6197356861
 30
0.0
 11
138.5319227359
 21
58.0352280188
 31
0.0
  0
LINE
  5
6C
330
1F
100
AcDbEntity
  8
0
  6
Continuous
 62
     7
370
    25
100
AcDbLine
 10
119.8276773831
 20
91.4253453515
 30
0.0
 11
116.5319227359
 21
89.5225405188
 31
0.0
  0
LINE
  5
6D
330
1F
100
AcDbEntity
  8
0
  6
Continuous
 62
     7
370
    25
100
AcDbLine
 10
116.5319227359
 20
60.5225405188
 30
0.0
 11
119.8276773831
 21
58.6197356861
 31
0.0
  0
SPLINE
  5
6E
330
1F
100
AcDbEntity
  8
0
  6
Continuous
 62
     7
370
    25
100
AcDbSpline
210
0.0
220
0.0
230
1.0
 70
     8
 71
     3
 72
    18
 73
    14
 74
     0
 42
0.00000001
 43
0.00000001
 40
0.0
 40
0.0
 40
0.0
 40
0.0
 40
0.2499999999999999
 40
0.2499999999999999
 40
0.4999999999999998
 40
0.4999999999999998
 40
0.5624999999999998
 40
0.5624999999999998
 40
0.6249999999999998
 40
0.6249999999999998
 40
0.7499999999999998
 40
0.7499999999999998
 40
1.0
 40
1.0
 40
1.0
 40
1.0
 10
140.2392972590411
 20
54.81528109716872
 30
0.0
 10
139.7630608091477
 20
55.6401468248003
 30
0.0
 10
139.3705558350999
 20
56.47102630477487
 30
0.0
 10
138.8268091052759
 20
58.15011324359337
 30
0.0
 10
138.6773609325114
 20
58.99844952094828
 30
0.0
 10
138.6759928346158
 20
60.07218866992874
 30
0.0
 10
138.6849175076889
 20
60.28802495109679
 30
0.0
 10
138.720876644085
 20
60.71773963421468
 30
0.0
 10
138.7478695218609
 20
60.93185048243873
 30
0.0
 10
138.8547178499505
 20
61.57204046731656
 30
0.0
 10
138.9605034768321
 20
61.9959720349988
 30
0.0
 10
139.3689905486461
 20
63.26021922403553
 30
0.0
 10
139.7624670966867
 20
64.09301674020804
 30
0.0
 10
140.2392972590412
 20
64.9189108079872
 30
0.0
  0
LINE
  5
6F
330
1F
100
AcDbEntity
  8
0
  6
Continuous
 62
     7
370
    25
100
AcDbLine
 10
140.239297259
 20
64.918910808
 30
0.0
 11
147.8245482128
 21
64.918910808
 31
0.0
  0
SPLINE
  5
70
330
1F
100
AcDbEntity
  8
0
  6
Continuous
 62
     7
370
    25
100
AcDbSpline
210
0.0
220
0.0
230
1.0
 70
     8
 71
     3
 72
    18
 73
    14
 74
     0
 42
0.00000001
 43
0.00000001
 40
0.0
 40
0.0
 40
0.0
 40
0.0
 40
0.2499999999999999
 40
0.2499999999999999
 40
0.4999999999999998
 40
0.4999999999999998
 40
0.5624999999999998
 40
0.5624999999999998
 40
0.6249999999999998
 40
0.6249999999999998
 40
0.7499999999999998
 40
0.7499999999999998
 40
1.0
 40
1.0
 40
1.0
 40
1.0
 10
147.8245482127502
 20
54.81528109716872
 30
0.0
 10
148.3007846626436
 20
55.6401468248003
 30
0.0
 10
148.6932896366914
 20
56.47102630477487
 30
0.0
 10
149.2370363665153
 20
58.15011324359337
 30
0.0
 10
149.3864845392799
 20
58.99844952094828
 30
0.0
 10
149.3878526371755
 20
60.07218866992874
 30
0.0
 10
149.3789279641024
 20
60.28802495109679
 30
0.0
 10
149.3429688277063
 20
60.71773963421468
 30
0.0
 10
149.3159759499304
 20
60.93185048243873
 30
0.0
 10
149.2091276218408
 20
61.57204046731656
 30
0.0
 10
149.1033419949592
 20
61.9959720349988
 30
0.0
 10
148.6948549231452
 20
63.26021922403553
 30
0.0
 10
148.3013783751045
 20
64.09301674020804
 30
0.0
 10
147.8245482127501
 20
64.9189108079872
 30
0.0
  0
LINE
  5
71
330
1F
100
AcDbEntity
  8
0
  6
Continuous
 62
     7
370
    25
100
AcDbLine
 10
140.239297259
 20
54.8152810972
 30
0.0
 11
147.8245482128
 21
54.8152810972
 31
0.0
  0
SPLINE
  5
72
330
1F
100
AcDbEntity
  8
0
  6
Continuous
 62
     7
370
    25
100
AcDbSpline
210
0.0
220
0.0
230
1.0
 70
     8
 71
     3
 72
    14
 73
    10
 74
     0
 42
0.00000001
 43
0.00000001
 40
0.0
 40
0.0
 40
0.0
 40
0.0
 40
0.25
 40
0.25
 40
0.5
 40
0.5
 40
0.75
 40
0.75
 40
1.0
 40
1.0
 40
1.0
 40
1.0
 10
140.2392972590413
 20
64.91891080798719
 30
0.0
 10
139.7644999946594
 20
66.56365677839536
 30
0.0
 10
139.3718460705828
 20
68.223581907043
 30
0.0
 10
138.8267457515586
 20
71.58781979310308
 30
0.0
 10
138.6761232381302
 20
73.2940415295529
 30
0.0
 10
138.6763975585874
 20
76.75584330537583
 30
0.0
 10
138.8270213330815
 20
78.45936963712178
 30
0.0
 10
139.3720070300807
 20
81.82208464536788
 30
0.0
 10
139.7645518428727
 20
83.48160386669522
 30
0.0
 10
140.2392972590413
 20
85.1261702296241
 30
0.0
  0
LINE
  5
73
330
1F
100
AcDbEntity
  8
0
  6
Continuous
 62
     7
370
    25
100
AcDbLine
 10
140.239297259
 20
85.1261702296
 30
0.0
 11
147.8245482128
 21
85.1261702296
 31
0.0
  0
SPLINE
  5
74
330
1F
100
AcDbEntity
  8
0
  6
Continuous
 62
     7
370
    25
100
AcDbSpline
210
0.0
220
0.0
230
1.0
 70
     8
 71
     3
 72
    14
 73
    10
 74
     0
 42
0.00000001
 43
0.00000001
 40
0.0
 40
0.0
 40
0.0
 40
0.0
 40
0.25
 40
0.25
 40
0.5
 40
0.5
 40
0.75
 40
0.75
 40
1.0
 40
1.0
 40
1.0
 40
1.0
 10
147.82454821275
 20
64.91891080798719
 30
0.0
 10
148.2993454771319
 20
66.56365677839536
 30
0.0
 10
148.6919994012086
 20
68.223581907043
 30
0.0
 10
149.2370997202327
 20
71.58781979310308
 30
0.0
 10
149.3877222336611
 20
73.2940415295529
 30
0.0
 10
149.3874479132039
 20
76.75584330537583
 30
0.0
 10
149.2368241387098
 20
78.45936963712178
 30
0.0
 10
148.6918384417106
 20
81.82208464536788
 30
0.0
 10
148.2992936289186
 20
83.48160386669522
 30
0.0
 10
147.82454821275
 20
85.1261702296241
 30
0.0
  0
LINE
  5
75
330
1F
100
AcDbEntity
  8
0
  6
Continuous
 62
     7
370
    25
100
AcDbLine
 10
142.5944709984
 20
68.5854366389
 30
0.0
 11
145.2684092224
 21
68.5854366389
 31
0.0
  0
LINE
  5
76
330
1F
100
AcDbEntity
  8
0
  6
Continuous
 62
     7
370
    25
100
AcDbLine
 10
142.5944709984
 20
68.2153594188
 30
0.0
 11
142.5944709984
 21
68.5854366389
 31
0.0
  0
LINE
  5
77
330
1F
100
AcDbEntity
  8
0
  6
Continuous
 62
     7
370
    25
100
AcDbLine
 10
143.7527721567
 20
68.2153594188
 30
0.0
 11
142.5944709984
 21
68.2153594188
 31
0.0
  0
LINE
  5
78
330
1F
100
AcDbEntity
  8
0
  6
Continuous
 62
     7
370
    25
100
AcDbLine
 10
143.7527721567
 20
67.4022320057
 30
0.0
 11
143.7527721567
 21
68.2153594188
 31
0.0
  0
LINE
  5
79
330
1F
100
AcDbEntity
  8
0
  6
Continuous
 62
     7
370
    25
100
AcDbLine
 10
142.5944709984
 20
66.8392976428
 30
0.0
 11
143.7527721567
 21
67.4022320057
 31
0.0
  0
LINE
  5
7A
330
1F
100
AcDbEntity
  8
0
  6
Continuous
 62
     7
370
    25
100
AcDbLine
 10
142.5944709984
 20
66.4483710018
 30
0.0
 11
142.5944709984
 21
66.8392976428
 31
0.0
  0
LINE
  5
7B
330
1F
100
AcDbEntity
  8
0
  6
Continuous
 62
     7
370
    25
100
AcDbLine
 10
143.7985250525
 20
67.0582165617
 30
0.0
 11
142.5944709984
 21
66.4483710018
 31
0.0
  0
SPLINE
  5
7C
330
1F
100
AcDbEntity
  8
0
  6
Continuous
 62
     7
370
    25
100
AcDbSpline
210
0.0
220
0.0
230
1.0
 70
     8
 71
     3
 72
    11
 73
     7
 74
     0
 42
0.00000001
 43
0.00000001
 40
0.0
 40
0.0
 40
0.0
 40
0.0
 40
0.2256209836966678
 40
0.4629707984282274
 40
0.7196090303667859
 40
1.0
 40
1.0
 40
1.0
 40
1.0
 10
143.9392586432316
 20
66.74547524892913
 30
0.0
 10
143.9218169599195
 20
66.76514485422521
 30
0.0
 10
143.8860268932482
 20
66.80550658264025
 30
0.0
 10
143.8468776137741
 20
66.88003555208776
 30
0.0
 10
143.8153642226249
 20
66.96459642555828
 30
0.0
 10
143.8043012143863
 20
67.02610303955979
 30
0.0
 10
143.798525052498
 20
67.05821656167045
 30
0.0
  0
SPLINE
  5
7D
330
1F
100
AcDbEntity
  8
0
  6
Continuous
 62
     7
370
    25
100
AcDbSpline
210
0.0
220
0.0
230
1.0
 70
     8
 71
     3
 72
    15
 73
    11
 74
     0
 42
0.00000001
 43
0.00000001
 40
0.0
 40
0.0
 40
0.0
 40
0.0
 40
0.1423455204062212
 40
0.2780244263979209
 40
0.4068124412900597
 40
0.5301826523562196
 40
0.6505629722368649
 40
0.7677901753368293
 40
0.883887442145378
 40
1.0
 40
1.0
 40
1.0
 40
1.0
 10
144.5021930061659
 20
66.54219339564727
 30
0.0
 10
144.4730068939808
 20
66.54260375779941
 30
0.0
 10
144.4160015728728
 20
66.54340526319025
 30
0.0
 10
144.333184966982
 20
66.55387020881626
 30
0.0
 10
144.2550145224734
 20
66.56879053982506
 30
0.0
 10
144.1821591597383
 20
66.59203009832062
 30
0.0
 10
144.1135781765308
 20
66.61999440346717
 30
0.0
 10
144.049880931218
 20
66.65492509011884
 30
0.0
 10
143.9915687485343
 20
66.69684685098741
 30
0.0
 10
143.956696110455
 20
66.72926507136727
 30
0.0
 10
143.9392586432316
 20
66.74547524892913
 30
0.0
  0
SPLINE
  5
7E
330
1F
100
AcDbEntity
  8
0
  6
Continuous
 62
     7
370
    25
100
AcDbSpline
210
0.0
220
0.0
230
1.0
 70
     8
 71
     3
 72
    15
 73
    11
 74
     0
 42
0.00000001
 43
0.00000001
 40
0.0
 40
0.0
 40
0.0
 40
0.0
 40
0.1161090580639845
 40
0.2322028255427885
 40
0.3494264952551899
 40
0.4689336287943355
 40
0.5931998205909936
 40
0.7219839536369561
 40
0.8576587700816364
 40
1.0
 40
1.0
 40
1.0
 40
1.0
 10
145.0651273691003
 20
66.74547524892913
 30
0.0
 10
145.0476892017194
 20
66.72926683649816
 30
0.0
 10
145.0128151634173
 20
66.69685214614763
 30
0.0
 10
144.9545135154085
 20
66.65490382685304
 30
0.0
 10
144.8909321997315
 20
66.6201615489396
 30
0.0
 10
144.8225158000938
 20
66.59177040004029
 30
0.0
 10
144.7495218213034
 20
66.56891789785202
 30
0.0
 10
144.6712099283598
 20
66.55384364378071
 30
0.0
 10
144.5883820404432
 20
66.54341243755374
 30
0.0
 10
144.5313783059971
 20
66.5426061871798
 30
0.0
 10
144.5021930061659
 20
66.54219339564727
 30
0.0
  0
SPLINE
  5
7F
330
1F
100
AcDbEntity
  8
0
  6
Continuous
 62
     7
370
    25
100
AcDbSpline
210
0.0
220
0.0
230
1.0
 70
     8
 71
     3
 72
    15
 73
    11
 74
     0
 42
0.00000001
 43
0.00000001
 40
0.0
 40
0.0
 40
0.0
 40
0.0
 40
0.1342477572737621
 40
0.2634617725756821
 40
0.3884666271730281
 40
0.5118790511869563
 40
0.6324080741525898
 40
0.753552524823546
 40
0.8755084805282752
 40
1.0
 40
1.0
 40
1.0
 40
1.0
 10
145.2684092223821
 20
67.2614984149523
 30
0.0
 10
145.2679904914971
 20
67.2359766599754
 30
0.0
 10
145.2671687304231
 20
67.18589011147729
 30
0.0
 10
145.256646318804
 20
67.11270559704626
 30
0.0
 10
145.2414472601035
 20
67.04251080290211
 30
0.0
 10
145.2186659589057
 20
66.97606945328903
 30
0.0
 10
145.1900186528491
 20
66.91282002846992
 30
0.0
 10
145.1554281661482
 20
66.85286129974979
 30
0.0
 10
145.1132221470335
 20
66.79700650909524
 30
0.0
 10
145.08126854614
 20
66.76276975010299
 30
0.0
 10
145.0651273691003
 20
66.74547524892913
 30
0.0
  0
LINE
  5
80
330
1F
100
AcDbEntity
  8
0
  6
Continuous
 62
     7
370
    25
100
AcDbLine
 10
145.2684092224
 20
68.5854366389
 30
0.0
 11
145.2684092224
 21
67.261498415
 31
0.0
  0
SPLINE
  5
81
330
1F
100
AcDbEntity
  8
0
  6
Continuous
 62
     7
370
    25
100
AcDbSpline
210
0.0
220
0.0
230
1.0
 70
     8
 71
     3
 72
    23
 73
    19
 74
     0
 42
0.00000001
 43
0.00000001
 40
0.0
 40
0.0
 40
0.0
 40
0.0
 40
0.0441906106282865
 40
0.0897849017527576
 40
0.1375220657281903
 40
0.1870790674012533
 40
0.2386344326447444
 40
0.292841115526398
 40
0.3496729339480915
 40
0.4094358303820873
 40
0.4719926205430656
 40
0.5377040045925532
 40
0.6060605743707042
 40
0.6781604155713942
 40
0.7535848462545455
 40
0.8324062082865283
 40
0.9141977901571281
 40
1.0
 40
1.0
 40
1.0
 40
1.0
 10
142.7821157860887
 20
70.4045486080025
 30
0.0
 10
142.7942766536356
 20
70.4161578234313
 30
0.0
 10
142.8189846692617
 20
70.43974501201916
 30
0.0
 10
142.8605159958417
 20
70.47171416489611
 30
0.0
 10
142.9064409606841
 20
70.50079790511883
 30
0.0
 10
142.9555398476608
 20
70.52906745361904
 30
0.0
 10
143.0093378643428
 20
70.55357629282088
 30
0.0
 10
143.0665881993906
 20
70.57698958304765
 30
0.0
 10
143.1282497559216
 20
70.59749012126373
 30
0.0
 10
143.1935591644273
 20
70.61697695261356
 30
0.0
 10
143.2633477631998
 20
70.63269982029988
 30
0.0
 10
143.3366784412098
 20
70.6473286673815
 30
0.0
 10
143.4141558961541
 20
70.65947767250834
 30
0.0
 10
143.4956831343216
 20
70.66920504612114
 30
0.0
 10
143.5814411243762
 20
70.67674483671279
 30
0.0
 10
143.6710707487037
 20
70.6816542431218
 30
0.0
 10
143.7647095459481
 20
70.68544250150843
 30
0.0
 10
143.8284436591454
 20
70.68582166890877
 30
0.0
 10
143.8610733150462
 20
70.68601578946968
 30
0.0
  0
SPLINE
  5
82
330
1F
100
AcDbEntity
  8
0
  6
Continuous
 62
     7
370
    25
100
AcDbSpline
210
0.0
220
0.0
230
1.0
 70
     8
 71
     3
 72
    15
 73
    11
 74
     0
 42
0.00000001
 43
0.00000001
 40
0.0
 40
0.0
 40
0.0
 40
0.0
 40
0.1195040863107421
 40
0.2383815255843718
 40
0.3571090773014078
 40
0.477721442350824
 40
0.6009465942306373
 40
0.7281225224148417
 40
0.8606317931271521
 40
1.0
 40
1.0
 40
1.0
 40
1.0
 10
142.5475598015327
 20
69.88852544197933
 30
0.0
 10
142.5481880551046
 20
69.91173316389363
 30
0.0
 10
142.5494412678568
 20
69.95802691271894
 30
0.0
 10
142.5607972494617
 20
70.02663190068368
 30
0.0
 10
142.5796360516916
 20
70.0936585048075
 30
0.0
 10
142.6050716050716
 20
70.15940411335724
 30
0.0
 10
142.6383491257363
 20
70.22344349762686
 30
0.0
 10
142.6794553881971
 20
70.28546108126109
 30
0.0
 10
142.7269289163451
 20
70.34681285822974
 30
0.0
 10
142.7634133525562
 20
70.38498237734673
 30
0.0
 10
142.7821157860887
 20
70.4045486080025
 30
0.0
  0
SPLINE
  5
83
330
1F
100
AcDbEntity
  8
0
  6
Continuous
 62
     7
370
    25
100
AcDbSpline
210
0.0
220
0.0
230
1.0
 70
     8
 71
     3
 72
    15
 73
    11
 74
     0
 42
0.00000001
 43
0.00000001
 40
0.0
 40
0.0
 40
0.0
 40
0.0
 40
0.1171086905579873
 40
0.2333993299620623
 40
0.3506160626962309
 40
0.4711822020542326
 40
0.5946445890795224
 40
0.7237659205994504
 40
0.8581711095996146
 40
1.0
 40
1.0
 40
1.0
 40
1.0
 10
142.7352045891775
 20
69.37250227595615
 30
0.0
 10
142.7201690775398
 20
69.38860053215616
 30
0.0
 10
142.690203083341
 20
69.42068459178263
 30
0.0
 10
142.651698202334
 20
69.47444911645196
 30
0.0
 10
142.6199379258393
 20
69.53305289066292
 30
0.0
 10
142.5929956397032
 20
69.59552235711989
 30
0.0
 10
142.5730544562175
 20
69.66289279663202
 30
0.0
 10
142.557785034824
 20
69.73408578658803
 30
0.0
 10
142.5491546099074
 20
69.80993487974543
 30
0.0
 10
142.548100844195
 20
69.8618634005101
 30
0.0
 10
142.5475598015327
 20
69.88852544197933
 30
0.0
  0
SPLINE
  5
84
330
1F
100
AcDbEntity
  8
0
  6
Continuous
 62
     7
370
    25
100
AcDbSpline
210
0.0
220
0.0
230
1.0
 70
     8
 71
     3
 72
    15
 73
    11
 74
     0
 42
0.00000001
 43
0.00000001
 40
0.0
 40
0.0
 40
0.0
 40
0.0
 40
0.1476270724396861
 40
0.2864810592714899
 40
0.4181894659268069
 40
0.5428808841137349
 40
0.6619178330920034
 40
0.7770087505932005
 40
0.8893050437597239
 40
1.0
 40
1.0
 40
1.0
 40
1.0
 10
143.4701466741196
 20
69.1223092257631
 30
0.0
 10
143.4309297498908
 20
69.12309421802783
 30
0.0
 10
143.35482645929
 20
69.12461755254773
 30
0.0
 10
143.2441924060308
 20
69.13618130306985
 30
0.0
 10
143.1409488910618
 20
69.15580457332737
 30
0.0
 10
143.0447445848882
 20
69.18268151286526
 30
0.0
 10
142.9561519689133
 20
69.21833140693452
 30
0.0
 10
142.8745307202549
 20
69.26111948734038
 30
0.0
 10
142.8001423991714
 20
69.31203638376856
 30
0.0
 10
142.7567466484954
 20
69.3524437024327
 30
0.0
 10
142.7352045891775
 20
69.37250227595617
 30
0.0
  0
SPLINE
  5
85
330
1F
100
AcDbEntity
  8
0
  6
Continuous
 62
     7
370
    25
100
AcDbSpline
210
0.0
220
0.0
230
1.0
 70
     8
 71
     3
 72
    15
 73
    11
 74
     0
 42
0.00000001
 43
0.00000001
 40
0.0
 40
0.0
 40
0.0
 40
0.0
 40
0.1094376231375984
 40
0.2200197609697447
 40
0.3343721928536026
 40
0.4529129170384313
 40
0.5777009796868825
 40
0.7100641746072384
 40
0.8508042784674904
 40
1.0
 40
1.0
 40
1.0
 40
1.0
 10
144.1738146277875
 20
69.35686521031909
 30
0.0
 10
144.153422518758
 20
69.33796469982606
 30
0.0
 10
144.1124250370355
 20
69.29996601453249
 30
0.0
 10
144.0416922701235
 20
69.252551397053
 30
0.0
 10
143.9644751382882
 20
69.21186684589793
 30
0.0
 10
143.8797615446628
 20
69.17874977043546
 30
0.0
 10
143.787680787987
 20
69.15356245490537
 30
0.0
 10
143.688327266109
 20
69.1351034015192
 30
0.0
 10
143.5815949238648
 20
69.1240431420623
 30
0.0
 10
143.5080114145389
 20
69.12289832689953
 30
0.0
 10
143.4701466741196
 20
69.1223092257631
 30
0.0
  0
SPLINE
  5
86
330
1F
100
AcDbEntity
  8
0
  6
Continuous
 62
     7
370
    25
100
AcDbSpline
210
0.0
220
0.0
230
1.0
 70
     8
 71
     3
 72
    15
 73
    11
 74
     0
 42
0.00000001
 43
0.00000001
 40
0.0
 40
0.0
 40
0.0
 40
0.0
 40
0.132887938264281
 40
0.2611764415433336
 40
0.3862019221938182
 40
0.507574721411312
 40
0.6293724124715376
 40
0.7508835925620007
 40
0.8736128964297306
 40
1.0
 40
1.0
 40
1.0
 40
1.0
 10
144.3614594154323
 20
69.82597717943106
 30
0.0
 10
144.3609071160685
 20
69.80298001404067
 30
0.0
 10
144.3598216331844
 20
69.75778164689993
 30
0.0
 10
144.351140367186
 20
69.69136131722813
 30
0.0
 10
144.335851633426
 20
69.62827643923843
 30
0.0
 10
144.3156965235715
 20
69.56771351054758
 30
0.0
 10
144.288681207843
 20
69.51056861024794
 30
0.0
 10
144.2570466024656
 20
69.45558584103823
 30
0.0
 10
144.2182844617896
 20
69.4042684219107
 30
0.0
 10
144.1887823001288
 20
69.37282019991933
 30
0.0
 10
144.1738146277875
 20
69.35686521031909
 30
0.0
  0
SPLINE
  5
87
330
1F
100
AcDbEntity
  8
0
  6
Continuous
 62
     7
370
    25
100
AcDbSpline
210
0.0
220
0.0
230
1.0
 70
     8
 71
     3
 72
    15
 73
    11
 74
     0
 42
0.00000001
 43
0.00000001
 40
0.0
 40
0.0
 40
0.0
 40
0.0
 40
0.1277118540336131
 40
0.2523621141955306
 40
0.3748537650566261
 40
0.4969693854038482
 40
0.6192731655242175
 40
0.7424854443019967
 40
0.8694478780376617
 40
1.0
 40
1.0
 40
1.0
 40
1.0
 10
144.2207258246987
 20
70.1699926234465
 30
0.0
 10
144.2320202938674
 20
70.15827087212242
 30
0.0
 10
144.2543384736456
 20
70.13510837112668
 30
0.0
 10
144.2824329317465
 20
70.09639921183197
 30
0.0
 10
144.3072950263586
 20
70.05641809362304
 30
0.0
 10
144.3267339267574
 20
70.01383530590317
 30
0.0
 10
144.3426394160335
 20
69.96975178714074
 30
0.0
 10
144.3536691706893
 20
69.92353295847003
 30
0.0
 10
144.3600119781849
 20
69.8753829849957
 30
0.0
 10
144.3609724733295
 20
69.84259811888562
 30
0.0
 10
144.3614594154323
 20
69.82597717943106
 30
0.0
  0
SPLINE
  5
88
330
1F
100
AcDbEntity
  8
0
  6
Continuous
 62
     7
370
    25
100
AcDbSpline
210
0.0
220
0.0
230
1.0
 70
     8
 71
     3
 72
    11
 73
     7
 74
     0
 42
0.00000001
 43
0.00000001
 40
0.0
 40
0.0
 40
0.0
 40
0.0
 40
0.2456044615709272
 40
0.4924340960494097
 40
0.7435400941223393
 40
1.0
 40
1.0
 40
1.0
 40
1.0
 10
144.0174439714169
 20
70.32636327981716
 30
0.0
 10
144.0355817089551
 20
70.31564312867033
 30
0.0
 10
144.0719476622929
 20
70.29414934999164
 30
0.0
 10
144.1235057981453
 20
70.25652903577104
 30
0.0
 10
144.173597702961
 20
70.21552733130946
 30
0.0
 10
144.2049063674113
 20
70.18527722082852
 30
0.0
 10
144.2207258246987
 20
70.1699926234465
 30
0.0
  0
SPLINE
  5
89
330
1F
100
AcDbEntity
  8
0
  6
Continuous
 62
     7
370
    25
100
AcDbSpline
210
0.0
220
0.0
230
1.0
 70
     8
 71
     3
 72
    15
 73
    11
 74
     0
 42
0.00000001
 43
0.00000001
 40
0.0
 40
0.0
 40
0.0
 40
0.0
 40
0.0964433484801637
 40
0.1980702687146754
 40
0.3069659373397292
 40
0.424387949689493
 40
0.551351396246796
 40
0.6889628351337207
 40
0.838501196133989
 40
1.0
 40
1.0
 40
1.0
 40
1.0
 10
144.8931196470926
 20
70.07617022962411
 30
0.0
 10
144.8708815402429
 20
70.09635617449955
 30
0.0
 10
144.8252100878429
 20
70.13781300473973
 30
0.0
 10
144.7438040266128
 20
70.18857259335432
 30
0.0
 10
144.650988285442
 20
70.23116346455814
 30
0.0
 10
144.5467588666026
 20
70.26646393221068
 30
0.0
 10
144.4308771665727
 20
70.29315381657601
 30
0.0
 10
144.3035257761634
 20
70.31274359970486
 30
0.0
 10
144.1643674984377
 20
70.32408100056894
 30
0.0
 10
144.0676580830268
 20
70.32558326434095
 30
0.0
 10
144.0174439714169
 20
70.32636327981716
 30
0.0
  0
SPLINE
  5
8A
330
1F
100
AcDbEntity
  8
0
  6
Continuous
 62
     7
370
    25
100
AcDbSpline
210
0.0
220
0.0
230
1.0
 70
     8
 71
     3
 72
    11
 73
     7
 74
     0
 42
0.00000001
 43
0.00000001
 40
0.0
 40
0.0
 40
0.0
 40
0.0
 40
0.2600145085164561
 40
0.5081836035516295
 40
0.7509482378681016
 40
1.0
 40
1.0
 40
1.0
 40
1.0
 10
144.986942040915
 20
69.84161424506813
 30
0.0
 10
144.9858829542323
 20
69.86412749491038
 30
0.0
 10
144.983813029404
 20
69.90812836431482
 30
0.0
 10
144.9659978295702
 20
69.97112653894997
 30
0.0
 10
144.9360933559921
 20
70.02839704626697
 30
0.0
 10
144.9075657773558
 20
70.06011069816775
 30
0.0
 10
144.8931196470926
 20
70.07617022962411
 30
0.0
  0
SPLINE
  5
8B
330
1F
100
AcDbEntity
  8
0
  6
Continuous
 62
     7
370
    25
100
AcDbSpline
210
0.0
220
0.0
230
1.0
 70
     8
 71
     3
 72
    11
 73
     7
 74
     0
 42
0.00000001
 43
0.00000001
 40
0.0
 40
0.0
 40
0.0
 40
0.0
 40
0.2490517621318982
 40
0.4918163964483673
 40
0.7399854914835405
 40
1.0
 40
1.0
 40
1.0
 40
1.0
 10
144.8931196470926
 20
69.60705826051213
 30
0.0
 10
144.9075657773558
 20
69.62311779196851
 30
0.0
 10
144.936093355992
 20
69.65483144386928
 30
0.0
 10
144.9659978295702
 20
69.71210195118628
 30
0.0
 10
144.983813029404
 20
69.77510012582144
 30
0.0
 10
144.9858829542323
 20
69.81910099522588
 30
0.0
 10
144.986942040915
 20
69.84161424506813
 30
0.0
  0
SPLINE
  5
8C
330
1F
100
AcDbEntity
  8
0
  6
Continuous
 62
     7
370
    25
100
AcDbSpline
210
0.0
220
0.0
230
1.0
 70
     8
 71
     3
 72
    15
 73
    11
 74
     0
 42
0.00000001
 43
0.00000001
 40
0.0
 40
0.0
 40
0.0
 40
0.0
 40
0.1575795759530239
 40
0.3051873770201199
 40
0.440337477275237
 40
0.5671048604317455
 40
0.6842314239145103
 40
0.7956973262442267
 40
0.8993807647161665
 40
1.0
 40
1.0
 40
1.0
 40
1.0
 10
144.5803783343513
 20
69.51323586668975
 30
0.0
 10
144.5979500310808
 20
69.51366677265119
 30
0.0
 10
144.6319814720352
 20
69.51450131646389
 30
0.0
 10
144.6810164589025
 20
69.51811230172088
 30
0.0
 10
144.7261159915571
 20
69.52579097326087
 30
0.0
 10
144.7671210669274
 20
69.53620373731985
 30
0.0
 10
144.8048041125756
 20
69.54872971355513
 30
0.0
 10
144.8382917976188
 20
69.56483320455366
 30
0.0
 10
144.8679470016136
 20
69.58411841126758
 30
0.0
 10
144.8848130864189
 20
69.59948848602205
 30
0.0
 10
144.8931196470926
 20
69.60705826051213
 30
0.0
  0
LINE
  5
8D
330
1F
100
AcDbEntity
  8
0
  6
Continuous
 62
     7
370
    25
100
AcDbLine
 10
144.5803783344
 20
69.153583357
 30
0.0
 11
144.5803783344
 21
69.5132358667
 31
0.0
  0
SPLINE
  5
8E
330
1F
100
AcDbEntity
  8
0
  6
Continuous
 62
     7
370
    25
100
AcDbSpline
210
0.0
220
0.0
230
1.0
 70
     8
 71
     3
 72
    15
 73
    11
 74
     0
 42
0.00000001
 43
0.00000001
 40
0.0
 40
0.0
 40
0.0
 40
0.0
 40
0.1244915194717264
 40
0.2464474751764524
 40
0.3675919258474111
 40
0.4881209488130425
 40
0.6115333728269707
 40
0.7365382274243157
 40
0.865752242726236
 40
0.9999999999999999
 40
0.9999999999999999
 40
0.9999999999999999
 40
0.9999999999999999
 10
145.0964015003744
 20
69.35686521031909
 30
0.0
 10
145.0791069992006
 20
69.34072403327933
 30
0.0
 10
145.0448702402083
 20
69.30877043238583
 30
0.0
 10
144.9890154495538
 20
69.26656441327117
 30
0.0
 10
144.9290567208336
 20
69.23197392657026
 30
0.0
 10
144.8658072960145
 20
69.20332662051362
 30
0.0
 10
144.7993659464015
 20
69.18054531931591
 30
0.0
 10
144.7291711522573
 20
69.16534626061541
 30
0.0
 10
144.6559866378263
 20
69.1548238489963
 30
0.0
 10
144.6059000893281
 20
69.15400208792228
 30
0.0
 10
144.5803783343513
 20
69.15358335703723
 30
0.0
  0
SPLINE
  5
8F
330
1F
100
AcDbEntity
  8
0
  6
Continuous
 62
     7
370
    25
100
AcDbSpline
210
0.0
220
0.0
230
1.0
 70
     8
 71
     3
 72
    15
 73
    11
 74
     0
 42
0.00000001
 43
0.00000001
 40
0.0
 40
0.0
 40
0.0
 40
0.0
 40
0.1356800108501694
 40
0.266841589777109
 40
0.3926005974967499
 40
0.5157318537894205
 40
0.6360998884170285
 40
0.7560959929543329
 40
0.8771413117267546
 40
1.0
 40
1.0
 40
1.0
 40
1.0
 10
145.2840462880192
 20
69.84161424506813
 30
0.0
 10
145.283483254266
 20
69.81746236675184
 30
0.0
 10
145.282375936977
 20
69.769962918855
 30
0.0
 10
145.2738799514398
 20
69.70042935476923
 30
0.0
 10
145.2582783123661
 20
69.6345363992088
 30
0.0
 10
145.2386737999429
 20
69.5716627164018
 30
0.0
 10
145.2112488007993
 20
69.51291024088438
 30
0.0
 10
145.1796247862596
 20
69.45680774748041
 30
0.0
 10
145.1412299045649
 20
69.40438052724096
 30
0.0
 10
145.1114181828411
 20
69.37278195862642
 30
0.0
 10
145.0964015003744
 20
69.35686521031909
 30
0.0
  0
SPLINE
  5
90
330
1F
100
AcDbEntity
  8
0
  6
Continuous
 62
     7
370
    25
100
AcDbSpline
210
0.0
220
0.0
230
1.0
 70
     8
 71
     3
 72
    15
 73
    11
 74
     0
 42
0.00000001
 43
0.00000001
 40
0.0
 40
0.0
 40
0.0
 40
0.0
 40
0.1263812889588909
 40
0.2491049464973166
 40
0.3706105362999234
 40
0.4913917559424298
 40
0.6138158455532674
 40
0.738835574235698
 40
0.8671181754268793
 40
1.0
 40
1.0
 40
1.0
 40
1.0
 10
145.0964015003744
 20
70.3107262141801
 30
0.0
 10
145.1113669960463
 20
70.29477025885522
 30
0.0
 10
145.1408648673637
 20
70.26332013336388
 30
0.0
 10
145.1796583690326
 20
70.21201662819257
 30
0.0
 10
145.2110885370201
 20
70.15713376848515
 30
0.0
 10
145.2385620855537
 20
70.10018498220569
 30
0.0
 10
145.2582999631447
 20
70.03945776116461
 30
0.0
 10
145.2737536272141
 20
69.9762398349588
 30
0.0
 10
145.2824015589226
 20
69.9098072166547
 30
0.0
 10
145.2834916460118
 20
69.86461054684673
 30
0.0
 10
145.2840462880192
 20
69.84161424506813
 30
0.0
  0
SPLINE
  5
91
330
1F
100
AcDbEntity
  8
0
  6
Continuous
 62
     7
370
    25
100
AcDbSpline
210
0.0
220
0.0
230
1.0
 70
     8
 71
     3
 72
    23
 73
    19
 74
     0
 42
0.00000001
 43
0.00000001
 40
0.0
 40
0.0
 40
0.0
 40
0.0
 40
0.0796294701120216
 40
0.15668420677995
 40
0.2308342243899714
 40
0.3025278065272982
 40
0.3715101076111979
 40
0.4382633308465719
 40
0.5024649722906296
 40
0.5646604536693954
 40
0.6245612367645358
 40
0.68232154612077
 40
0.7385115542781727
 40
0.7932995870703852
 40
0.846720510756645
 40
0.8985430522702746
 40
0.9498534420925909
 40
1.0
 40
1.0
 40
1.0
 40
1.0
 10
143.8610733150462
 20
70.68601578946968
 30
0.0
 10
143.8962100311082
 20
70.68557528356672
 30
0.0
 10
143.9653473552331
 20
70.68470851504637
 30
0.0
 10
144.0671765196778
 20
70.68105907449336
 30
0.0
 10
144.1652286008413
 20
70.67305716318027
 30
0.0
 10
144.2595957001593
 20
70.66378567084081
 30
0.0
 10
144.3501488501871
 20
70.65018446269026
 30
0.0
 10
144.4369338048337
 20
70.63417163165342
 30
0.0
 10
144.5200119129481
 20
70.61498890869751
 30
0.0
 10
144.5992915347711
 20
70.59312444127808
 30
0.0
 10
144.6747026178228
 20
70.56825935655114
 30
0.0
 10
144.746221456201
 20
70.54038485950451
 30
0.0
 10
144.8140642345565
 20
70.50962782997328
 30
0.0
 10
144.8785862674923
 20
70.47633003335007
 30
0.0
 10
144.9386139157374
 20
70.4390238549575
 30
0.0
 10
144.9953687906431
 20
70.3995729304622
 30
0.0
 10
145.0479680911056
 20
70.35690459442851
 30
0.0
 10
145.0803809687096
 20
70.3260008399842
 30
0.0
 10
145.0964015003744
 20
70.3107262141801
 30
0.0
  0
SPLINE
  5
92
330
1F
100
AcDbEntity
  8
0
  6
Continuous
 62
     7
370
    25
100
AcDbSpline
210
0.0
220
0.0
230
1.0
 70
     8
 71
     3
 72
    15
 73
    11
 74
     0
 42
0.00000001
 43
0.00000001
 40
0.0
 40
0.0
 40
0.0
 40
0.0
 40
0.1277537861028402
 40
0.2523881274276967
 40
0.3749507025098771
 40
0.4966307329499336
 40
0.6182353574560135
 40
0.7414944577527957
 40
0.868792706712858
 40
1.0
 40
1.0
 40
1.0
 40
1.0
 10
144.1112663652393
 20
72.46864127209516
 30
0.0
 10
144.1256343745685
 20
72.48250762251632
 30
0.0
 10
144.1540195604804
 20
72.50990173993402
 30
0.0
 10
144.201473519779
 20
72.54446126560681
 30
0.0
 10
144.2508430980371
 20
72.57422639124864
 30
0.0
 10
144.3025410434583
 20
72.59880934990699
 30
0.0
 10
144.3568279100491
 20
72.6172803542482
 30
0.0
 10
144.4134464200046
 20
72.63065886230262
 30
0.0
 10
144.4726080366124
 20
72.63891430389054
 30
0.0
 10
144.5129772865463
 20
72.64006496405126
 30
0.0
 10
144.5334671374401
 20
72.64064899410288
 30
0.0
  0
SPLINE
  5
93
330
1F
100
AcDbEntity
  8
0
  6
Continuous
 62
     7
370
    25
100
AcDbSpline
210
0.0
220
0.0
230
1.0
 70
     8
 71
     3
 72
    11
 73
     7
 74
     0
 42
0.00000001
 43
0.00000001
 40
0.0
 40
0.0
 40
0.0
 40
0.0
 40
0.2092977806128717
 40
0.4440196881627215
 40
0.7056818925799192
 40
1.0
 40
1.0
 40
1.0
 40
1.0
 10
143.9705327745057
 20
72.2653594188133
 30
0.0
 10
143.9767721504076
 20
72.28163751545374
 30
0.0
 10
143.990008820831
 20
72.3161710655612
 30
0.0
 10
144.0221482184115
 20
72.36558486866406
 30
0.0
 10
144.0622686603405
 20
72.41765670121704
 30
0.0
 10
144.0943065409622
 20
72.45099372381254
 30
0.0
 10
144.1112663652393
 20
72.46864127209516
 30
0.0
  0
LINE
  5
94
330
1F
100
AcDbEntity
  8
0
  6
Continuous
 62
     7
370
    25
100
AcDbLine
 10
143.9392586432
 20
72.2653594188
 30
0.0
 11
143.9705327745
 21
72.2653594188
 31
0.0
  0
SPLINE
  5
95
330
1F
100
AcDbEntity
  8
0
  6
Continuous
 62
     7
370
    25
100
AcDbSpline
210
0.0
220
0.0
230
1.0
 70
     8
 71
     3
 72
    11
 73
     7
 74
     0
 42
0.00000001
 43
0.00000001
 40
0.0
 40
0.0
 40
0.0
 40
0.0
 40
0.2730973471020084
 40
0.527626671507374
 40
0.7672178540063638
 40
1.0
 40
1.0
 40
1.0
 40
1.0
 10
143.7828879868609
 20
72.5311895346434
 30
0.0
 10
143.8023779684286
 20
72.51042623838407
 30
0.0
 10
143.8400327981494
 20
72.47031135257102
 30
0.0
 10
143.8854878386922
 20
72.40429141631901
 30
0.0
 10
143.9199366334394
 20
72.33637937633677
 30
0.0
 10
143.9328801649143
 20
72.28880414656321
 30
0.0
 10
143.9392586432316
 20
72.2653594188133
 30
0.0
  0
SPLINE
  5
96
330
1F
100
AcDbEntity
  8
0
  6
Continuous
 62
     7
370
    25
100
AcDbSpline
210
0.0
220
0.0
230
1.0
 70
     8
 71
     3
 72
    15
 73
    11
 74
     0
 42
0.00000001
 43
0.00000001
 40
0.0
 40
0.0
 40
0.0
 40
0.0
 40
0.1393528499704187
 40
0.2721672659958593
 40
0.3996369800758508
 40
0.5224193804230862
 40
0.6433523706273665
 40
0.7619060577341116
 40
0.8804972885634692
 40
1.0
 40
1.0
 40
1.0
 40
1.0
 10
143.2825018864748
 20
72.7188343222882
 30
0.0
 10
143.3080059665871
 20
72.71828710192236
 30
0.0
 10
143.3578174756977
 20
72.71721833676322
 30
0.0
 10
143.430597731446
 20
72.70862477742834
 30
0.0
 10
143.4990743196498
 20
72.69327380593825
 30
0.0
 10
143.5641186140496
 20
72.67329630283493
 30
0.0
 10
143.6248267019712
 20
72.64633952594141
 30
0.0
 10
143.682219943706
 20
72.61453294276902
 30
0.0
 10
143.735308276839
 20
72.57618975571329
 30
0.0
 10
143.7669876581019
 20
72.54622784212592
 30
0.0
 10
143.7828879868609
 20
72.5311895346434
 30
0.0
  0
SPLINE
  5
97
330
1F
100
AcDbEntity
  8
0
  6
Continuous
 62
     7
370
    25
100
AcDbSpline
210
0.0
220
0.0
230
1.0
 70
     8
 71
     3
 72
    15
 73
    11
 74
     0
 42
0.00000001
 43
0.00000001
 40
0.0
 40
0.0
 40
0.0
 40
0.0
 40
0.129055812445328
 40
0.2537561262749728
 40
0.376491064692112
 40
0.4992690631939026
 40
0.6208079408516742
 40
0.7437423943369784
 40
0.8704610395548735
 40
1.0
 40
1.0
 40
1.0
 40
1.0
 10
142.7508416548146
 20
72.49991540336929
 30
0.0
 10
142.7691967700173
 20
72.51752798766151
 30
0.0
 10
142.8052875344931
 20
72.55215874995733
 30
0.0
 10
142.8652144488117
 20
72.5961206887383
 30
0.0
 10
142.9274724352636
 20
72.63419548447055
 30
0.0
 10
142.9927674160541
 20
72.66553802340742
 30
0.0
 10
143.0611805428873
 20
72.68945937897682
 30
0.0
 10
143.1324520689617
 20
72.70608650544997
 30
0.0
 10
143.2064952904323
 20
72.71691897117913
 30
0.0
 10
143.2569811423748
 20
72.71819120461078
 30
0.0
 10
143.2825018864748
 20
72.7188343222882
 30
0.0
  0
SPLINE
  5
98
330
1F
100
AcDbEntity
  8
0
  6
Continuous
 62
     7
370
    25
100
AcDbSpline
210
0.0
220
0.0
230
1.0
 70
     8
 71
     3
 72
    15
 73
    11
 74
     0
 42
0.00000001
 43
0.00000001
 40
0.0
 40
0.0
 40
0.0
 40
0.0
 40
0.1474010611502686
 40
0.2856974574838593
 40
0.4173170259111328
 40
0.541831173119504
 40
0.6607761138044992
 40
0.7757147634118137
 40
0.8886130455433358
 40
1.0
 40
1.0
 40
1.0
 40
1.0
 10
142.5475598015327
 20
71.90570690916078
 30
0.0
 10
142.5479507594283
 20
71.9374016448243
 30
0.0
 10
142.5487085265428
 20
71.99883339656355
 30
0.0
 10
142.5592696220313
 20
72.0879984696272
 30
0.0
 10
142.5740526794096
 20
72.1715642119814
 30
0.0
 10
142.5970898402432
 20
72.2489545043007
 30
0.0
 10
142.6252547346501
 20
72.32075733399758
 30
0.0
 10
142.6601534936015
 20
72.38678132037249
 30
0.0
 10
142.7018598181026
 20
72.44687390648434
 30
0.0
 10
142.734587887715
 20
72.48231450893879
 30
0.0
 10
142.7508416548146
 20
72.49991540336929
 30
0.0
  0
SPLINE
  5
99
330
1F
100
AcDbEntity
  8
0
  6
Continuous
 62
     7
370
    25
100
AcDbSpline
210
0.0
220
0.0
230
1.0
 70
     8
 71
     3
 72
    15
 73
    11
 74
     0
 42
0.00000001
 43
0.00000001
 40
0.0
 40
0.0
 40
0.0
 40
0.0
 40
0.1113869544566637
 40
0.2242852365881852
 40
0.3392238861955004
 40
0.4581688268804955
 40
0.5826829740888674
 40
0.7143025425161402
 40
0.8525989388497307
 40
1.0
 40
1.0
 40
1.0
 40
1.0
 10
142.7508416548146
 20
71.3114984149523
 30
0.0
 10
142.734587887715
 20
71.3290993093828
 30
0.0
 10
142.7018598181026
 20
71.36453991183724
 30
0.0
 10
142.6601534936015
 20
71.4246324979491
 30
0.0
 10
142.6252547346501
 20
71.49065648432399
 30
0.0
 10
142.5970898402432
 20
71.56245931402087
 30
0.0
 10
142.5740526794096
 20
71.63984960634019
 30
0.0
 10
142.5592696220313
 20
71.72341534869437
 30
0.0
 10
142.5487085265428
 20
71.81258042175801
 30
0.0
 10
142.5479507594283
 20
71.87401217349729
 30
0.0
 10
142.5475598015327
 20
71.90570690916078
 30
0.0
  0
SPLINE
  5
9A
330
1F
100
AcDbEntity
  8
0
  6
Continuous
 62
     7
370
    25
100
AcDbSpline
210
0.0
220
0.0
230
1.0
 70
     8
 71
     3
 72
    15
 73
    11
 74
     0
 42
0.00000001
 43
0.00000001
 40
0.0
 40
0.0
 40
0.0
 40
0.0
 40
0.1295508505393024
 40
0.2562811269808873
 40
0.3792268643473066
 40
0.5011046489090123
 40
0.6234743780272041
 40
0.7462205820124123
 40
0.8709323418075805
 40
1.0
 40
1.0
 40
1.0
 40
1.0
 10
143.2825018864748
 20
71.09257949603337
 30
0.0
 10
143.2569790105836
 20
71.09321698050475
 30
0.0
 10
143.2064889414721
 20
71.09447807017011
 30
0.0
 10
143.1324765137699
 20
71.10539190768114
 30
0.0
 10
143.0610292618887
 20
71.12173564012302
 30
0.0
 10
142.9930519820334
 20
71.14676012298571
 30
0.0
 10
142.9273003061286
 20
71.17703430565834
 30
0.0
 10
142.8652420268174
 20
71.21535480301411
 30
0.0
 10
142.8052803110854
 20
71.25923891446467
 30
0.0
 10
142.7691943348197
 20
71.29388038476242
 30
0.0
 10
142.7508416548146
 20
71.3114984149523
 30
0.0
  0
SPLINE
  5
9B
330
1F
100
AcDbEntity
  8
0
  6
Continuous
 62
     7
370
    25
100
AcDbSpline
210
0.0
220
0.0
230
1.0
 70
     8
 71
     3
 72
    15
 73
    11
 74
     0
 42
0.00000001
 43
0.00000001
 40
0.0
 40
0.0
 40
0.0
 40
0.0
 40
0.1195027114365308
 40
0.2380939422658884
 40
0.3566476293726338
 40
0.4775806195769136
 40
0.6003630199241491
 40
0.7278327340041408
 40
0.8606471500295813
 40
1.0
 40
1.0
 40
1.0
 40
1.0
 10
143.7828879868609
 20
71.28022428367817
 30
0.0
 10
143.7669876581019
 20
71.26518597619567
 30
0.0
 10
143.735308276839
 20
71.2352240626083
 30
0.0
 10
143.682219943706
 20
71.19688087555257
 30
0.0
 10
143.6248267019712
 20
71.16507429238015
 30
0.0
 10
143.5641186140496
 20
71.13811751548666
 30
0.0
 10
143.4990743196498
 20
71.11814001238332
 30
0.0
 10
143.430597731446
 20
71.10278904089324
 30
0.0
 10
143.3578174756977
 20
71.09419548155834
 30
0.0
 10
143.3080059665871
 20
71.09312671639924
 30
0.0
 10
143.2825018864748
 20
71.09257949603337
 30
0.0
  0
SPLINE
  5
9C
330
1F
100
AcDbEntity
  8
0
  6
Continuous
 62
     7
370
    25
100
AcDbSpline
210
0.0
220
0.0
230
1.0
 70
     8
 71
     3
 72
    11
 73
     7
 74
     0
 42
0.00000001
 43
0.00000001
 40
0.0
 40
0.0
 40
0.0
 40
0.0
 40
0.2327821459936386
 40
0.4723733284926269
 40
0.726902652897992
 40
1.0
 40
1.0
 40
1.0
 40
1.0
 10
143.9392586432316
 20
71.54605439950828
 30
0.0
 10
143.9328801649143
 20
71.52260967175837
 30
0.0
 10
143.9199366334394
 20
71.47503444198482
 30
0.0
 10
143.8854878386922
 20
71.40712240200256
 30
0.0
 10
143.8400327981494
 20
71.34110246575057
 30
0.0
 10
143.8023779684286
 20
71.30098757993751
 30
0.0
 10
143.7828879868609
 20
71.28022428367817
 30
0.0
  0
LINE
  5
9D
330
1F
100
AcDbEntity
  8
0
  6
Continuous
 62
     7
370
    25
100
AcDbLine
 10
143.9705327745
 20
71.5460543995
 30
0.0
 11
143.9392586432
 21
71.5460543995
 31
0.0
  0
SPLINE
  5
9E
330
1F
100
AcDbEntity
  8
0
  6
Continuous
 62
     7
370
    25
100
AcDbSpline
210
0.0
220
0.0
230
1.0
 70
     8
 71
     3
 72
    11
 73
     7
 74
     0
 42
0.00000001
 43
0.00000001
 40
0.0
 40
0.0
 40
0.0
 40
0.0
 40
0.2487470629387093
 40
0.4976060858529041
 40
0.7454415990539011
 40
1.0
 40
1.0
 40
1.0
 40
1.0
 10
144.0799922339651
 20
71.3584096118635
 30
0.0
 10
144.0676688651727
 20
71.37182792233673
 30
0.0
 10
144.0430165808931
 20
71.39867058280663
 30
0.0
 10
144.0124573114455
 20
71.44406654661681
 30
0.0
 10
143.987531717057
 20
71.49327588807401
 30
0.0
 10
143.9762494141769
 20
71.52830531121417
 30
0.0
 10
143.9705327745057
 20
71.54605439950828
 30
0.0
  0
SPLINE
  5
9F
330
1F
100
AcDbEntity
  8
0
  6
Continuous
 62
     7
370
    25
100
AcDbSpline
210
0.0
220
0.0
230
1.0
 70
     8
 71
     3
 72
    15
 73
    11
 74
     0
 42
0.00000001
 43
0.00000001
 40
0.0
 40
0.0
 40
0.0
 40
0.0
 40
0.1299113129690335
 40
0.2551436434037569
 40
0.3782673290843511
 40
0.4999523087047292
 40
0.6222158812656395
 40
0.7453234951064159
 40
0.8707452845457336
 40
1.0
 40
1.0
 40
1.0
 40
1.0
 10
144.5334671374401
 20
71.17076482421871
 30
0.0
 10
144.5116269308047
 20
71.17131487657454
 30
0.0
 10
144.4687331306708
 20
71.17239517019117
 30
0.0
 10
144.4055783047471
 20
71.18111983995962
 30
0.0
 10
144.3452537680693
 20
71.19656572654156
 30
0.0
 10
144.2867408606759
 20
71.21651122453213
 30
0.0
 10
144.2312242011408
 20
71.24368976561604
 30
0.0
 10
144.1774419492751
 20
71.27534266293556
 30
0.0
 10
144.1267977671455
 20
71.31394311463498
 30
0.0
 10
144.0957498372865
 20
71.34343947101037
 30
0.0
 10
144.0799922339651
 20
71.3584096118635
 30
0.0
  0
SPLINE
  5
A0
330
1F
100
AcDbEntity
  8
0
  6
Continuous
 62
     7
370
    25
100
AcDbSpline
210
0.0
220
0.0
230
1.0
 70
     8
 71
     3
 72
    15
 73
    11
 74
     0
 42
0.00000001
 43
0.00000001
 40
0.0
 40
0.0
 40
0.0
 40
0.0
 40
0.1190175566788507
 40
0.2372370543807521
 40
0.3548673391635889
 40
0.4755888455761293
 40
0.5992829081147943
 40
0.7265630484102547
 40
0.8598843047151131
 40
1.0
 40
1.0
 40
1.0
 40
1.0
 10
145.0807644347373
 20
71.37404667750056
 30
0.0
 10
145.0633155759081
 20
71.357849033307
 30
0.0
 10
145.0285348596302
 20
71.32556235641991
 30
0.0
 10
144.9709500531776
 20
71.28381981198362
 30
0.0
 10
144.908829880777
 20
71.24853792302116
 30
0.0
 10
144.8419410257541
 20
71.22060145024788
 30
0.0
 10
144.7711759503771
 20
71.19752606412496
 30
0.0
 10
144.6957385915385
 20
71.18245906145482
 30
0.0
 10
144.6161954255002
 20
71.17197094966546
 30
0.0
 10
144.5614962933139
 20
71.17117347135674
 30
0.0
 10
144.5334671374401
 20
71.17076482421871
 30
0.0
  0
SPLINE
  5
A1
330
1F
100
AcDbEntity
  8
0
  6
Continuous
 62
     7
370
    25
100
AcDbSpline
210
0.0
220
0.0
230
1.0
 70
     8
 71
     3
 72
    15
 73
    11
 74
     0
 42
0.00000001
 43
0.00000001
 40
0.0
 40
0.0
 40
0.0
 40
0.0
 40
0.1367625375912037
 40
0.2685728084152052
 40
0.3952257228126168
 40
0.5183084604466274
 40
0.6384758419271777
 40
0.7582466910205607
 40
0.8786831316695051
 40
0.9999999999999999
 40
0.9999999999999999
 40
0.9999999999999999
 40
0.9999999999999999
 10
145.2840462880192
 20
71.90570690916078
 30
0.0
 10
145.2836262499059
 20
71.87902830388151
 30
0.0
 10
145.282801383552
 20
71.82663714420681
 30
0.0
 10
145.272305128674
 20
71.75018097763599
 30
0.0
 10
145.2572726793168
 20
71.67723938410674
 30
0.0
 10
145.2342673169619
 20
71.60874406148004
 30
0.0
 10
145.2058320761202
 20
71.54384558585846
 30
0.0
 10
145.1710271743055
 20
71.48266718908457
 30
0.0
 10
145.1292231497206
 20
71.42568836808499
 30
0.0
 10
145.0969565097479
 20
71.39130231723229
 30
0.0
 10
145.0807644347373
 20
71.37404667750056
 30
0.0
  0
SPLINE
  5
A2
330
1F
100
AcDbEntity
  8
0
  6
Continuous
 62
     7
370
    25
100
AcDbSpline
210
0.0
220
0.0
230
1.0
 70
     8
 71
     3
 72
    15
 73
    11
 74
     0
 42
0.00000001
 43
0.00000001
 40
0.0
 40
0.0
 40
0.0
 40
0.0
 40
0.1171086905579873
 40
0.2333993299620629
 40
0.3506160626962324
 40
0.4711822020542325
 40
0.5946445890795222
 40
0.7237659205994503
 40
0.8581711095996145
 40
1.0
 40
1.0
 40
1.0
 40
1.0
 10
145.0964015003744
 20
72.42173007518396
 30
0.0
 10
145.1114370120121
 20
72.40563181898395
 30
0.0
 10
145.1414030062109
 20
72.37354775935749
 30
0.0
 10
145.1799078872179
 20
72.31978323468816
 30
0.0
 10
145.2116681637126
 20
72.2611794604772
 30
0.0
 10
145.2386104498487
 20
72.19870999402022
 30
0.0
 10
145.2585516333344
 20
72.13133955450809
 30
0.0
 10
145.2738210547279
 20
72.06014656455208
 30
0.0
 10
145.2824514796446
 20
71.98429747139468
 30
0.0
 10
145.2835052453569
 20
71.93236895063
 30
0.0
 10
145.2840462880192
 20
71.90570690916078
 30
0.0
  0
SPLINE
  5
A3
330
1F
100
AcDbEntity
  8
0
  6
Continuous
 62
     7
370
    25
100
AcDbSpline
210
0.0
220
0.0
230
1.0
 70
     8
 71
     3
 72
    15
 73
    11
 74
     0
 42
0.00000001
 43
0.00000001
 40
0.0
 40
0.0
 40
0.0
 40
0.0
 40
0.1354445824934152
 40
0.2662567558803005
 40
0.3914793001254334
 40
0.5142572831105969
 40
0.6353709597957444
 40
0.7562290499621888
 40
0.876447607935172
 40
1.0
 40
1.0
 40
1.0
 40
1.0
 10
144.5334671374401
 20
72.64064899410288
 30
0.0
 10
144.5614939787433
 20
72.64001345871331
 30
0.0
 10
144.6165891010848
 20
72.63876412420352
 30
0.0
 10
144.6970067258904
 20
72.62801646219276
 30
0.0
 10
144.7736375209978
 20
72.61130456552122
 30
0.0
 10
144.8464534238712
 20
72.58776587521493
 30
0.0
 10
144.9150251323265
 20
72.55594324001056
 30
0.0
 10
144.9799791867742
 20
72.51845146891287
 30
0.0
 10
145.0412735420011
 20
72.4741154126699
 30
0.0
 10
145.0778587334278
 20
72.43935033780724
 30
0.0
 10
145.0964015003744
 20
72.42173007518396
 30
0.0
  0
LINE
  5
A4
330
1F
100
AcDbEntity
  8
0
  6
Continuous
 62
     7
370
    25
100
AcDbLine
 10
144.4865559405
 20
74.2981779516
 30
0.0
 11
144.4865559405
 21
74.6421933956
 31
0.0
  0
SPLINE
  5
A5
330
1F
100
AcDbEntity
  8
0
  6
Continuous
 62
     7
370
    25
100
AcDbSpline
210
0.0
220
0.0
230
1.0
 70
     8
 71
     3
 72
    15
 73
    11
 74
     0
 42
0.00000001
 43
0.00000001
 40
0.0
 40
0.0
 40
0.0
 40
0.0
 40
0.1017738366845024
 40
0.2081280746103133
 40
0.3195222361320725
 40
0.4377158324105367
 40
0.5640612668215818
 40
0.7002741501736235
 40
0.8452618826189021
 40
0.9999999999999999
 40
0.9999999999999999
 40
0.9999999999999999
 40
0.9999999999999999
 10
144.8931196470926
 20
74.15744436089824
 30
0.0
 10
144.882181722698
 20
74.16760919904918
 30
0.0
 10
144.8598136051285
 20
74.18839635085557
 30
0.0
 10
144.8204852729953
 20
74.21415954130785
 30
0.0
 10
144.7766798013859
 20
74.23665273144901
 30
0.0
 10
144.7284440926631
 20
74.25674528239028
 30
0.0
 10
144.6746535898183
 20
74.27181176912462
 30
0.0
 10
144.6163442416574
 20
74.28483199453909
 30
0.0
 10
144.5529437522745
 20
74.29312702457095
 30
0.0
 10
144.5091599878193
 20
74.29645818724823
 30
0.0
 10
144.4865559405288
 20
74.29817795163184
 30
0.0
  0
SPLINE
  5
A6
330
1F
100
AcDbEntity
  8
0
  6
Continuous
 62
     7
370
    25
100
AcDbSpline
210
0.0
220
0.0
230
1.0
 70
     8
 71
     3
 72
    11
 73
     7
 74
     0
 42
0.00000001
 43
0.00000001
 40
0.0
 40
0.0
 40
0.0
 40
0.0
 40
0.2450868805219028
 40
0.4875552456976435
 40
0.734628845531149
 40
1.0
 40
1.0
 40
1.0
 40
1.0
 10
145.002579106552
 20
73.90725131070519
 30
0.0
 10
145.0012193379878
 20
73.9301842050961
 30
0.0
 10
144.9985143286663
 20
73.97580497816853
 30
0.0
 10
144.9773222466161
 20
74.04180811745377
 30
0.0
 10
144.942369074975
 20
74.1037348084125
 30
0.0
 10
144.9099223087336
 20
74.13912001732488
 30
0.0
 10
144.8931196470926
 20
74.15744436089824
 30
0.0
  0
SPLINE
  5
A7
330
1F
100
AcDbEntity
  8
0
  6
Continuous
 62
     7
370
    25
100
AcDbSpline
210
0.0
220
0.0
230
1.0
 70
     8
 71
     3
 72
    11
 73
     7
 74
     0
 42
0.00000001
 43
0.00000001
 40
0.0
 40
0.0
 40
0.0
 40
0.0
 40
0.2388203430261986
 40
0.4777994110081056
 40
0.7288233729769944
 40
1.0
 40
1.0
 40
1.0
 40
1.0
 10
144.9087567127296
 20
73.65705826051213
 30
0.0
 10
144.9232599419159
 20
73.67348230270825
 30
0.0
 10
144.9522760394353
 20
73.70634130285971
 30
0.0
 10
144.981944216357
 20
73.76680107367022
 30
0.0
 10
144.9996013234324
 20
73.83461993859967
 30
0.0
 10
145.0015612991761
 20
73.88242588075074
 30
0.0
 10
145.002579106552
 20
73.90725131070519
 30
0.0
  0
SPLINE
  5
A8
330
1F
100
AcDbEntity
  8
0
  6
Continuous
 62
     7
370
    25
100
AcDbSpline
210
0.0
220
0.0
230
1.0
 70
     8
 71
     3
 72
    15
 73
    11
 74
     0
 42
0.00000001
 43
0.00000001
 40
0.0
 40
0.0
 40
0.0
 40
0.0
 40
0.1380420997033152
 40
0.2691721599589615
 40
0.3953313456434701
 40
0.5186017941434372
 40
0.6392985515224102
 40
0.7600805617867294
 40
0.8784957553092655
 40
0.9999999999999999
 40
0.9999999999999999
 40
0.9999999999999999
 40
0.9999999999999999
 10
144.5803783343513
 20
73.5319617354156
 30
0.0
 10
144.5970125846316
 20
73.53214062340253
 30
0.0
 10
144.6294481755628
 20
73.53248944210299
 30
0.0
 10
144.6765511292328
 20
73.53970730180093
 30
0.0
 10
144.7216269041464
 20
73.5482030867701
 30
0.0
 10
144.7638544463347
 20
73.5626647398486
 30
0.0
 10
144.8044202126723
 20
73.57967197870262
 30
0.0
 10
144.8415808269107
 20
73.60207480128959
 30
0.0
 10
144.8773464601327
 20
73.62686977818296
 30
0.0
 10
144.8981971417943
 20
73.64690942711447
 30
0.0
 10
144.9087567127296
 20
73.65705826051213
 30
0.0
  0
SPLINE
  5
A9
330
1F
100
AcDbEntity
  8
0
  6
Continuous
 62
     7
370
    25
100
AcDbSpline
210
0.0
220
0.0
230
1.0
 70
     8
 71
     3
 72
    15
 73
    11
 74
     0
 42
0.00000001
 43
0.00000001
 40
0.0
 40
0.0
 40
0.0
 40
0.0
 40
0.1133059292696168
 40
0.2263015370273196
 40
0.3429947497841048
 40
0.4612849748553938
 40
0.5864354642724741
 40
0.7160226876888953
 40
0.8547540019702786
 40
1.0
 40
1.0
 40
1.0
 40
1.0
 10
144.2207258246987
 20
73.65705826051213
 30
0.0
 10
144.2314503148928
 20
73.64686514369838
 30
0.0
 10
144.2528699231199
 20
73.62650682691017
 30
0.0
 10
144.2904018763741
 20
73.60195468075753
 30
0.0
 10
144.3298978940368
 20
73.57954186475845
 30
0.0
 10
144.3736859738341
 20
73.56234730702762
 30
0.0
 10
144.4202786644693
 20
73.54817806092557
 30
0.0
 10
144.4708907925136
 20
73.53956562698102
 30
0.0
 10
144.5243917209332
 20
73.5325226019664
 30
0.0
 10
144.5614328778807
 20
73.53215152851392
 30
0.0
 10
144.5803783343513
 20
73.5319617354156
 30
0.0
  0
SPLINE
  5
AA
330
1F
100
AcDbEntity
  8
0
  6
Continuous
 62
     7
370
    25
100
AcDbSpline
210
0.0
220
0.0
230
1.0
 70
     8
 71
     3
 72
    11
 73
     7
 74
     0
 42
0.00000001
 43
0.00000001
 40
0.0
 40
0.0
 40
0.0
 40
0.0
 40
0.232293292317529
 40
0.4682186081034744
 40
0.7217939329173703
 40
1.0
 40
1.0
 40
1.0
 40
1.0
 10
144.0956292996022
 20
73.92288837634226
 30
0.0
 10
144.0972827899758
 20
73.89953021202359
 30
0.0
 10
144.1006156238838
 20
73.85244866663749
 30
0.0
 10
144.1254673655773
 20
73.7834791413998
 30
0.0
 10
144.1656983586342
 20
73.71716558866079
 30
0.0
 10
144.2018255630396
 20
73.67770330036024
 30
0.0
 10
144.2207258246987
 20
73.65705826051213
 30
0.0
  0
SPLINE
  5
AB
330
1F
100
AcDbEntity
  8
0
  6
Continuous
 62
     7
370
    25
100
AcDbSpline
210
0.0
220
0.0
230
1.0
 70
     8
 71
     3
 72
    15
 73
    11
 74
     0
 42
0.00000001
 43
0.00000001
 40
0.0
 40
0.0
 40
0.0
 40
0.0
 40
0.1380420997033146
 40
0.2691721599589615
 40
0.3953313456434693
 40
0.5186017941434372
 40
0.6392985515224101
 40
0.760080561786729
 40
0.8784957553092646
 40
0.9999999999999999
 40
0.9999999999999999
 40
0.9999999999999999
 40
0.9999999999999999
 10
142.844664048637
 20
73.93852544197932
 30
0.0
 10
142.8448429366238
 20
73.92189119169895
 30
0.0
 10
142.8451917553244
 20
73.88945560076773
 30
0.0
 10
142.8524096150223
 20
73.8423526470978
 30
0.0
 10
142.8609053999915
 20
73.79727687218416
 30
0.0
 10
142.8753670530699
 20
73.75504932999581
 30
0.0
 10
142.892374291924
 20
73.71448356365829
 30
0.0
 10
142.9147771145109
 20
73.67732294941982
 30
0.0
 10
142.9395720914043
 20
73.64155731619782
 30
0.0
 10
142.9596117403358
 20
73.62070663453626
 30
0.0
 10
142.9697605737335
 20
73.61014706360095
 30
0.0
  0
SPLINE
  5
AC
330
1F
100
AcDbEntity
  8
0
  6
Continuous
 62
     7
370
    25
100
AcDbSpline
210
0.0
220
0.0
230
1.0
 70
     8
 71
     3
 72
    11
 73
     7
 74
     0
 42
0.00000001
 43
0.00000001
 40
0.0
 40
0.0
 40
0.0
 40
0.0
 40
0.2550921435312742
 40
0.4983791954134782
 40
0.7437399667914611
 40
1.0
 40
1.0
 40
1.0
 40
1.0
 10
142.9541235080964
 20
74.20435555780944
 30
0.0
 10
142.9372569258654
 20
74.18567459462571
 30
0.0
 10
142.9043043089588
 20
74.14917718129037
 30
0.0
 10
142.8695414002065
 20
74.08404716929593
 30
0.0
 10
142.8485351010904
 20
74.01318364055355
 30
0.0
 10
142.8459729562921
 20
73.96376940051717
 30
0.0
 10
142.844664048637
 20
73.93852544197932
 30
0.0
  0
SPLINE
  5
AD
330
1F
100
AcDbEntity
  8
0
  6
Continuous
 62
     7
370
    25
100
AcDbSpline
210
0.0
220
0.0
230
1.0
 70
     8
 71
     3
 72
    15
 73
    11
 74
     0
 42
0.00000001
 43
0.00000001
 40
0.0
 40
0.0
 40
0.0
 40
0.0
 40
0.1305521219623388
 40
0.257514555698003
 40
0.3807268344757815
 40
0.5030306145961513
 40
0.6251462349433744
 40
0.7476378858044693
 40
0.8722881459663866
 40
0.9999999999999999
 40
0.9999999999999999
 40
0.9999999999999999
 40
0.9999999999999999
 10
143.2981389521119
 20
74.34508914854302
 30
0.0
 10
143.2815180126573
 20
74.3446022064402
 30
0.0
 10
143.2487331465472
 20
74.34364171129562
 30
0.0
 10
143.2005831730729
 20
74.33729890379995
 30
0.0
 10
143.1543643444022
 20
74.32626914914424
 30
0.0
 10
143.1102808256397
 20
74.31036365986809
 30
0.0
 10
143.0676980379199
 20
74.29092475946932
 30
0.0
 10
143.0277169197109
 20
74.26606266485723
 30
0.0
 10
142.9890077604163
 20
74.23796820675625
 30
0.0
 10
142.9658452594205
 20
74.21565002697811
 30
0.0
 10
142.9541235080964
 20
74.20435555780944
 30
0.0
  0
LINE
  5
AE
330
1F
100
AcDbEntity
  8
0
  6
Continuous
 62
     7
370
    25
100
AcDbLine
 10
143.4075984116
 20
74.3450891485
 30
0.0
 11
143.2981389521
 21
74.3450891485
 31
0.0
  0
LINE
  5
AF
330
1F
100
AcDbEntity
  8
0
  6
Continuous
 62
     7
370
    25
100
AcDbLine
 10
143.4075984116
 20
74.7151663686
 30
0.0
 11
143.4075984116
 21
74.3450891485
 31
0.0
  0
LINE
  5
B0
330
1F
100
AcDbEntity
  8
0
  6
Continuous
 62
     7
370
    25
100
AcDbLine
 10
143.2825018865
 20
74.7151663686
 30
0.0
 11
143.4075984116
 21
74.7151663686
 31
0.0
  0
SPLINE
  5
B1
330
1F
100
AcDbEntity
  8
0
  6
Continuous
 62
     7
370
    25
100
AcDbSpline
210
0.0
220
0.0
230
1.0
 70
     8
 71
     3
 72
    15
 73
    11
 74
     0
 42
0.00000001
 43
0.00000001
 40
0.0
 40
0.0
 40
0.0
 40
0.0
 40
0.1339120169181255
 40
0.2615284644313488
 40
0.3861887226529779
 40
0.5091929985924206
 40
0.6296768122270385
 40
0.7512559744353482
 40
0.8742965747069023
 40
1.0
 40
1.0
 40
1.0
 40
1.0
 10
142.7664787204516
 20
74.48582273927661
 30
0.0
 10
142.7848755895272
 20
74.50413525479867
 30
0.0
 10
142.8208044406521
 20
74.53989936450726
 30
0.0
 10
142.8794181449059
 20
74.58664748537477
 30
0.0
 10
142.9404721532315
 20
74.62632274870201
 30
0.0
 10
143.0041244779806
 20
74.65879123918236
 30
0.0
 10
143.0703490204821
 20
74.6840374359188
 30
0.0
 10
143.1389086005148
 20
74.70181138323625
 30
0.0
 10
143.209909193533
 20
74.71338836767588
 30
0.0
 10
143.2581322449319
 20
74.7145694869794
 30
0.0
 10
143.2825018864748
 20
74.71516636862025
 30
0.0
  0
SPLINE
  5
B2
330
1F
100
AcDbEntity
  8
0
  6
Continuous
 62
     7
370
    25
100
AcDbSpline
210
0.0
220
0.0
230
1.0
 70
     8
 71
     3
 72
    15
 73
    11
 74
     0
 42
0.00000001
 43
0.00000001
 40
0.0
 40
0.0
 40
0.0
 40
0.0
 40
0.1330514903197374
 40
0.2614008608137411
 40
0.3859789426424561
 40
0.508465614902219
 40
0.6295593452611172
 40
0.7509246542250767
 40
0.8741074588764666
 40
1.0
 40
1.0
 40
1.0
 40
1.0
 10
142.5475598015327
 20
73.93852544197932
 30
0.0
 10
142.548181304012
 20
73.96539931624713
 30
0.0
 10
142.5494023446984
 20
74.01819732587578
 30
0.0
 10
142.5603836408166
 20
74.0954755647298
 30
0.0
 10
142.5766466158939
 20
74.16962281321901
 30
0.0
 10
142.601489539528
 20
74.23982059087297
 30
0.0
 10
142.6320145002656
 20
74.30702127603118
 30
0.0
 10
142.670350181237
 20
74.37020754188721
 30
0.0
 10
142.7138585743427
 20
74.43127102619631
 30
0.0
 10
142.7488119171349
 20
74.46750742742651
 30
0.0
 10
142.7664787204516
 20
74.48582273927661
 30
0.0
  0
SPLINE
  5
B3
330
1F
100
AcDbEntity
  8
0
  6
Continuous
 62
     7
370
    25
100
AcDbSpline
210
0.0
220
0.0
230
1.0
 70
     8
 71
     3
 72
    15
 73
    11
 74
     0
 42
0.00000001
 43
0.00000001
 40
0.0
 40
0.0
 40
0.0
 40
0.0
 40
0.1158830802717858
 40
0.2315534497979608
 40
0.3480625771524268
 40
0.4678553783950304
 40
0.5925908197539045
 40
0.721311503017262
 40
0.8571441704632067
 40
1.0
 40
1.0
 40
1.0
 40
1.0
 10
142.7664787204516
 20
73.32867988213377
 30
0.0
 10
142.7487505131709
 20
73.3473427979416
 30
0.0
 10
142.7133266398586
 20
73.3846343725913
 30
0.0
 10
142.6699227640154
 20
73.44877483010639
 30
0.0
 10
142.6314765872977
 20
73.51682978739824
 30
0.0
 10
142.6010831028342
 20
73.59109314447618
 30
0.0
 10
142.576529997507
 20
73.67028184663452
 30
0.0
 10
142.5601970684708
 20
73.75517706392704
 30
0.0
 10
142.5493744311325
 20
73.84500169266819
 30
0.0
 10
142.5481747556442
 20
73.9068314730448
 30
0.0
 10
142.5475598015327
 20
73.93852544197932
 30
0.0
  0
SPLINE
  5
B4
330
1F
100
AcDbEntity
  8
0
  6
Continuous
 62
     7
370
    25
100
AcDbSpline
210
0.0
220
0.0
230
1.0
 70
     8
 71
     3
 72
    15
 73
    11
 74
     0
 42
0.00000001
 43
0.00000001
 40
0.0
 40
0.0
 40
0.0
 40
0.0
 40
0.1354658418109468
 40
0.2653728839126842
 40
0.39152662799182
 40
0.5146179992444255
 40
0.63536523897052
 40
0.7554358763572421
 40
0.8764282152102184
 40
1.0
 40
1.0
 40
1.0
 40
1.0
 10
143.329413083386
 20
73.10976096321484
 30
0.0
 10
143.3013815902195
 20
73.1103746533956
 30
0.0
 10
143.2464688677019
 20
73.11157685116675
 30
0.0
 10
143.1661176643603
 20
73.12260106787514
 30
0.0
 10
143.08926145148
 20
73.13876418694566
 30
0.0
 10
143.016724088742
 20
73.16358331883434
 30
0.0
 10
142.9477644036342
 20
73.19408345706233
 30
0.0
 10
142.8833606990728
 20
73.23238621636183
 30
0.0
 10
142.8216339262344
 20
73.2760569973301
 30
0.0
 10
142.7849926091077
 20
73.31101601493954
 30
0.0
 10
142.7664787204516
 20
73.32867988213377
 30
0.0
  0
SPLINE
  5
B5
330
1F
100
AcDbEntity
  8
0
  6
Continuous
 62
     7
370
    25
100
AcDbSpline
210
0.0
220
0.0
230
1.0
 70
     8
 71
     3
 72
    15
 73
    11
 74
     0
 42
0.00000001
 43
0.00000001
 40
0.0
 40
0.0
 40
0.0
 40
0.0
 40
0.1195027114365311
 40
0.2380939422658887
 40
0.3566476293726339
 40
0.4775806195769139
 40
0.6003630199241494
 40
0.7278327340041407
 40
0.8606471500295813
 40
1.0
 40
1.0
 40
1.0
 40
1.0
 10
143.8297991837721
 20
73.29740575085964
 30
0.0
 10
143.8138988550131
 20
73.28236744337713
 30
0.0
 10
143.7822194737502
 20
73.25240552978975
 30
0.0
 10
143.7291311406172
 20
73.21406234273404
 30
0.0
 10
143.6717378988824
 20
73.18225575956163
 30
0.0
 10
143.6110298109608
 20
73.15529898266811
 30
0.0
 10
143.545985516561
 20
73.1353214795648
 30
0.0
 10
143.4775089283572
 20
73.11997050807472
 30
0.0
 10
143.4047286726089
 20
73.11137694873982
 30
0.0
 10
143.3549171634983
 20
73.11030818358068
 30
0.0
 10
143.329413083386
 20
73.10976096321484
 30
0.0
  0
SPLINE
  5
B6
330
1F
100
AcDbEntity
  8
0
  6
Continuous
 62
     7
370
    25
100
AcDbSpline
210
0.0
220
0.0
230
1.0
 70
     8
 71
     3
 72
    11
 73
     7
 74
     0
 42
0.00000001
 43
0.00000001
 40
0.0
 40
0.0
 40
0.0
 40
0.0
 40
0.2570374775372494
 40
0.5073419159098043
 40
0.752312987577213
 40
1.0
 40
1.0
 40
1.0
 40
1.0
 10
143.9861698401428
 20
73.56323586668974
 30
0.0
 10
143.9777521283429
 20
73.53787240308213
 30
0.0
 10
143.9611372048188
 20
73.48780986611635
 30
0.0
 10
143.9251366033409
 20
73.41820088610169
 30
0.0
 10
143.8821843216797
 20
73.35380804179358
 30
0.0
 10
143.8473249543415
 20
73.31627548471891
 30
0.0
 10
143.8297991837721
 20
73.29740575085964
 30
0.0
  0
SPLINE
  5
B7
330
1F
100
AcDbEntity
  8
0
  6
Continuous
 62
     7
370
    25
100
AcDbSpline
210
0.0
220
0.0
230
1.0
 70
     8
 71
     3
 72
    11
 73
     7
 74
     0
 42
0.00000001
 43
0.00000001
 40
0.0
 40
0.0
 40
0.0
 40
0.0
 40
0.2731656445547241
 40
0.5274113090719869
 40
0.7672619830757368
 40
1.0
 40
1.0
 40
1.0
 40
1.0
 10
144.1112663652393
 20
73.32867988213377
 30
0.0
 10
144.0944264844589
 20
73.34671853401737
 30
0.0
 10
144.0619130855596
 20
73.38154644592163
 30
0.0
 10
144.0247600090401
 20
73.44025265863223
 30
0.0
 10
143.9978376732143
 20
73.50052861860941
 30
0.0
 10
143.9900198975709
 20
73.5425442348509
 30
0.0
 10
143.9861698401428
 20
73.56323586668974
 30
0.0
  0
SPLINE
  5
B8
330
1F
100
AcDbEntity
  8
0
  6
Continuous
 62
     7
370
    25
100
AcDbSpline
210
0.0
220
0.0
230
1.0
 70
     8
 71
     3
 72
    15
 73
    11
 74
     0
 42
0.00000001
 43
0.00000001
 40
0.0
 40
0.0
 40
0.0
 40
0.0
 40
0.1495888260512931
 40
0.2896239650819624
 40
0.4219290861937187
 40
0.5465682968532918
 40
0.6661289243466403
 40
0.7799971355270184
 40
0.8908038749321936
 40
1.0
 40
1.0
 40
1.0
 40
1.0
 10
144.5803783343513
 20
73.1723092257631
 30
0.0
 10
144.5550640868496
 20
73.17265613914745
 30
0.0
 10
144.5060523195403
 20
73.1733278098368
 30
0.0
 10
144.435055356843
 20
73.18127385008152
 30
0.0
 10
144.3688001639719
 20
73.1928042230849
 30
0.0
 10
144.3076716972451
 20
73.2108695626961
 30
0.0
 10
144.2505053488851
 20
73.23130486608908
 30
0.0
 10
144.1992909327658
 20
73.2593280963901
 30
0.0
 10
144.1522901732309
 20
73.29092058767145
 30
0.0
 10
144.1248740645656
 20
73.31615503007899
 30
0.0
 10
144.1112663652393
 20
73.32867988213377
 30
0.0
  0
SPLINE
  5
B9
330
1F
100
AcDbEntity
  8
0
  6
Continuous
 62
     7
370
    25
100
AcDbSpline
210
0.0
220
0.0
230
1.0
 70
     8
 71
     3
 72
    15
 73
    11
 74
     0
 42
0.00000001
 43
0.00000001
 40
0.0
 40
0.0
 40
0.0
 40
0.0
 40
0.1195027114365313
 40
0.2380939422658888
 40
0.3566476293726336
 40
0.4775806195769139
 40
0.6003630199241492
 40
0.7278327340041404
 40
0.8606471500295808
 40
1.0
 40
1.0
 40
1.0
 40
1.0
 10
145.0807644347373
 20
73.35995401340789
 30
0.0
 10
145.0648641059784
 20
73.34491570592539
 30
0.0
 10
145.0331847247155
 20
73.31495379233803
 30
0.0
 10
144.9800963915824
 20
73.27661060528229
 30
0.0
 10
144.9227031498477
 20
73.24480402210988
 30
0.0
 10
144.8619950619261
 20
73.21784724521639
 30
0.0
 10
144.7969507675262
 20
73.19786974211306
 30
0.0
 10
144.7284741793224
 20
73.18251877062298
 30
0.0
 10
144.6556939235742
 20
73.17392521128808
 30
0.0
 10
144.6058824144635
 20
73.17285644612896
 30
0.0
 10
144.5803783343513
 20
73.1723092257631
 30
0.0
  0
SPLINE
  5
BA
330
1F
100
AcDbEntity
  8
0
  6
Continuous
 62
     7
370
    25
100
AcDbSpline
210
0.0
220
0.0
230
1.0
 70
     8
 71
     3
 72
    15
 73
    11
 74
     0
 42
0.00000001
 43
0.00000001
 40
0.0
 40
0.0
 40
0.0
 40
0.0
 40
0.1401156952848867
 40
0.2734369515897456
 40
0.4007170918852057
 40
0.5244111544238709
 40
0.645132660836412
 40
0.7627629456192488
 40
0.8809824433211503
 40
1.0
 40
1.0
 40
1.0
 40
1.0
 10
145.2840462880192
 20
73.90725131070519
 30
0.0
 10
145.2836376408812
 20
73.87922215483137
 30
0.0
 10
145.2828401625725
 20
73.82452302264501
 30
0.0
 10
145.2723520507831
 20
73.74497985660678
 30
0.0
 10
145.2572850481129
 20
73.66954249776818
 30
0.0
 10
145.23420966199
 20
73.59877742239114
 30
0.0
 10
145.2062731892167
 20
73.53188856736824
 30
0.0
 10
145.1709913002543
 20
73.46976839496769
 30
0.0
 10
145.129248755818
 20
73.41218358851508
 30
0.0
 10
145.0969620789309
 20
73.3774028722371
 30
0.0
 10
145.0807644347373
 20
73.35995401340789
 30
0.0
  0
SPLINE
  5
BB
330
1F
100
AcDbEntity
  8
0
  6
Continuous
 62
     7
370
    25
100
AcDbSpline
210
0.0
220
0.0
230
1.0
 70
     8
 71
     3
 72
    15
 73
    11
 74
     0
 42
0.00000001
 43
0.00000001
 40
0.0
 40
0.0
 40
0.0
 40
0.0
 40
0.1270527522076896
 40
0.2522753243044989
 40
0.3739697899787144
 40
0.4948832629277701
 40
0.6176556772794561
 40
0.7419399124466163
 40
0.868412816069388
 40
1.0
 40
1.0
 40
1.0
 40
1.0
 10
145.0807644347373
 20
74.40763741109129
 30
0.0
 10
145.0969476536744
 20
74.39056853173092
 30
0.0
 10
145.129080974163
 20
74.35667664823114
 30
0.0
 10
145.1705239340138
 20
74.30107689141656
 30
0.0
 10
145.2057186813766
 20
74.24270063900087
 30
0.0
 10
145.2341501890814
 20
74.18126344931852
 30
0.0
 10
145.2571129800784
 20
74.11702035768691
 30
0.0
 10
145.2721530453832
 20
74.0494771990293
 30
0.0
 10
145.2828311266454
 20
73.97940529407299
 30
0.0
 10
145.2836359177307
 20
73.93161832203978
 30
0.0
 10
145.2840462880192
 20
73.90725131070519
 30
0.0
  0
SPLINE
  5
BC
330
1F
100
AcDbEntity
  8
0
  6
Continuous
 62
     7
370
    25
100
AcDbSpline
210
0.0
220
0.0
230
1.0
 70
     8
 71
     3
 72
    15
 73
    11
 74
     0
 42
0.00000001
 43
0.00000001
 40
0.0
 40
0.0
 40
0.0
 40
0.0
 40
0.1342207616992954
 40
0.2632543584014013
 40
0.3882486178889509
 40
0.5110181775835606
 40
0.6322369822528029
 40
0.7532951172272376
 40
0.8750618099117068
 40
1.0
 40
1.0
 40
1.0
 40
1.0
 10
144.4865559405288
 20
74.64219339564727
 30
0.0
 10
144.5159339248976
 20
74.64159234689645
 30
0.0
 10
144.5735545368522
 20
74.64041347783579
 30
0.0
 10
144.6579489209509
 20
74.62919027078081
 30
0.0
 10
144.7383404683058
 20
74.61048607918438
 30
0.0
 10
144.815141458471
 20
74.58518415850052
 30
0.0
 10
144.8879917318975
 20
74.55200539394859
 30
0.0
 10
144.9564662663026
 20
74.51109552078563
 30
0.0
 10
145.0215876654619
 20
74.46350296566685
 30
0.0
 10
145.0608705123466
 20
74.42641817625723
 30
0.0
 10
145.0807644347373
 20
74.40763741109129
 30
0.0
  0
SPLINE
  5
BD
330
1F
100
AcDbEntity
  8
0
  6
Continuous
 62
     7
370
    25
100
AcDbSpline
210
0.0
220
0.0
230
1.0
 70
     8
 71
     3
 72
    15
 73
    11
 74
     0
 42
0.00000001
 43
0.00000001
 40
0.0
 40
0.0
 40
0.0
 40
0.0
 40
0.1418032572055075
 40
0.2768956124422273
 40
0.4056005815718941
 40
0.5283792299702869
 40
0.6485398625937333
 40
0.7671999810702803
 40
0.8821728056706519
 40
1.0
 40
1.0
 40
1.0
 40
1.0
 10
144.8618455158184
 20
76.34663355008743
 30
0.0
 10
144.8620259239013
 20
76.3288428251823
 30
0.0
 10
144.8623782021745
 20
76.29410332930982
 30
0.0
 10
144.8695754479598
 20
76.24372089524302
 30
0.0
 10
144.8779149573038
 20
76.1959146595534
 30
0.0
 10
144.8925744782283
 20
76.1516107917324
 30
0.0
 10
144.9094129434932
 20
76.10944322586816
 30
0.0
 10
144.9318062293335
 20
76.07106927180703
 30
0.0
 10
144.9567476783929
 20
76.03463112471569
 30
0.0
 10
144.976795318453
 20
76.01337598231821
 30
0.0
 10
144.986942040915
 20
76.00261810607198
 30
0.0
  0
LINE
  5
BE
330
1F
100
AcDbEntity
  8
0
  6
Continuous
 62
     7
370
    25
100
AcDbLine
 10
144.8618455158
 20
76.4873671408
 30
0.0
 11
144.8618455158
 21
76.3466335501
 31
0.0
  0
LINE
  5
BF
330
1F
100
AcDbEntity
  8
0
  6
Continuous
 62
     7
370
    25
100
AcDbLine
 10
144.6770964811
 20
76.4873671408
 30
0.0
 11
144.8618455158
 21
76.4873671408
 31
0.0
  0
LINE
  5
C0
330
1F
100
AcDbEntity
  8
0
  6
Continuous
 62
     7
370
    25
100
AcDbLine
 10
144.6770964811
 20
76.0286798821
 30
0.0
 11
144.6770964811
 21
76.4873671408
 31
0.0
  0
LINE
  5
C1
330
1F
100
AcDbEntity
  8
0
  6
Continuous
 62
     7
370
    25
100
AcDbLine
 10
142.5944709984
 20
76.0286798821
 30
0.0
 11
144.6770964811
 21
76.0286798821
 31
0.0
  0
LINE
  5
C2
330
1F
100
AcDbEntity
  8
0
  6
Continuous
 62
     7
370
    25
100
AcDbLine
 10
142.5944709984
 20
75.6586026621
 30
0.0
 11
142.5944709984
 21
76.0286798821
 31
0.0
  0
LINE
  5
C3
330
1F
100
AcDbEntity
  8
0
  6
Continuous
 62
     7
370
    25
100
AcDbLine
 10
145.2996833537
 20
75.6586026621
 30
0.0
 11
142.5944709984
 21
75.6586026621
 31
0.0
  0
LINE
  5
C4
330
1F
100
AcDbEntity
  8
0
  6
Continuous
 62
     7
370
    25
100
AcDbLine
 10
145.2996833537
 20
75.8462474497
 30
0.0
 11
145.2996833537
 21
75.6586026621
 31
0.0
  0
SPLINE
  5
C5
330
1F
100
AcDbEntity
  8
0
  6
Continuous
 62
     7
370
    25
100
AcDbSpline
210
0.0
220
0.0
230
1.0
 70
     8
 71
     3
 72
    11
 73
     7
 74
     0
 42
0.00000001
 43
0.00000001
 40
0.0
 40
0.0
 40
0.0
 40
0.0
 40
0.2682823389612927
 40
0.5197997967341369
 40
0.760465631261961
 40
0.9999999999999999
 40
0.9999999999999999
 40
0.9999999999999999
 40
0.9999999999999999
 10
144.986942040915
 20
76.00261810607198
 30
0.0
 10
145.0103888514228
 20
75.9808880731097
 30
0.0
 10
145.0558172884316
 20
75.93878591028916
 30
0.0
 10
145.1335562118096
 20
75.89169956383734
 30
0.0
 10
145.2147222628054
 20
75.85852476419133
 30
0.0
 10
145.2714075113446
 20
75.85033345430712
 30
0.0
 10
145.2996833536563
 20
75.84624744970132
 30
0.0
  0
LINE
  5
C6
330
1F
100
AcDbEntity
  8
0
  6
Continuous
 62
     7
370
    25
100
AcDbLine
 10
143.8211119251
 20
78.8016528551
 30
0.0
 11
144.079992234
 21
78.8016528551
 31
0.0
  0
LINE
  5
C7
330
1F
100
AcDbEntity
  8
0
  6
Continuous
 62
     7
370
    25
100
AcDbLine
 10
143.8211119251
 20
77.0190273725
 30
0.0
 11
143.8211119251
 21
78.8016528551
 31
0.0
  0
LINE
  5
C8
330
1F
100
AcDbEntity
  8
0
  6
Continuous
 62
     7
370
    25
100
AcDbLine
 10
144.079992234
 20
77.0190273725
 30
0.0
 11
143.8211119251
 21
77.0190273725
 31
0.0
  0
LINE
  5
C9
330
1F
100
AcDbEntity
  8
0
  6
Continuous
 62
     7
370
    25
100
AcDbLine
 10
144.079992234
 20
78.8016528551
 30
0.0
 11
144.079992234
 21
77.0190273725
 31
0.0
  0
LINE
  5
CA
330
1F
100
AcDbEntity
  8
0
  6
Continuous
 62
     7
370
    25
100
AcDbLine
 10
142.579992234
 20
81.2132358667
 30
0.0
 11
145.2527721567
 21
81.2132358667
 31
0.0
  0
LINE
  5
CB
330
1F
100
AcDbEntity
  8
0
  6
Continuous
 62
     7
370
    25
100
AcDbLine
 10
142.579992234
 20
79.9674829709
 30
0.0
 11
142.579992234
 21
81.2132358667
 31
0.0
  0
SPLINE
  5
CC
330
1F
100
AcDbEntity
  8
0
  6
Continuous
 62
     7
370
    25
100
AcDbSpline
210
0.0
220
0.0
230
1.0
 70
     8
 71
     3
 72
    15
 73
    11
 74
     0
 42
0.00000001
 43
0.00000001
 40
0.0
 40
0.0
 40
0.0
 40
0.0
 40
0.1086277469152506
 40
0.2195300404679359
 40
0.33405835949625
 40
0.4525037346025811
 40
0.5781660321028798
 40
0.7098017975268052
 40
0.8504665399585423
 40
1.0
 40
1.0
 40
1.0
 40
1.0
 10
142.7664787204516
 20
79.40454860800249
 30
0.0
 10
142.7516071018087
 20
79.42082578279211
 30
0.0
 10
142.7215524690357
 20
79.4537209586725
 30
0.0
 10
142.6831430615895
 20
79.50983965253562
 30
0.0
 10
142.6515370036934
 20
79.57216769014845
 30
0.0
 10
142.6253785849045
 20
79.64013561603778
 30
0.0
 10
142.6045001367889
 20
79.7135470909649
 30
0.0
 10
142.5903106734897
 20
79.7930939469586
 30
0.0
 10
142.581518765442
 20
79.87828735234717
 30
0.0
 10
142.5805113403954
 20
79.93715145150071
 30
0.0
 10
142.5799922339651
 20
79.96748297093686
 30
0.0
  0
SPLINE
  5
CD
330
1F
100
AcDbEntity
  8
0
  6
Continuous
 62
     7
370
    25
100
AcDbSpline
210
0.0
220
0.0
230
1.0
 70
     8
 71
     3
 72
    15
 73
    11
 74
     0
 42
0.00000001
 43
0.00000001
 40
0.0
 40
0.0
 40
0.0
 40
0.0
 40
0.1319114978615548
 40
0.25855939557945
 40
0.3829282045992122
 40
0.5051155152535459
 40
0.6266776175559877
 40
0.7489849223246644
 40
0.8728415720964469
 40
1.0
 40
1.0
 40
1.0
 40
1.0
 10
143.3450501490231
 20
79.1699926234465
 30
0.0
 10
143.3168273345254
 20
79.17058496711395
 30
0.0
 10
143.2615078667279
 20
79.17174601844846
 30
0.0
 10
143.1802192542093
 20
79.1831264400892
 30
0.0
 10
143.1024946902581
 20
79.20167748607065
 30
0.0
 10
143.0278577793515
 20
79.2271244535933
 30
0.0
 10
142.9567690763009
 20
79.26031274147334
 30
0.0
 10
142.8895108152466
 20
79.30125771562655
 30
0.0
 10
142.8250547200175
 20
79.34868504322499
 30
0.0
 10
142.7861745264978
 20
79.38576484084427
 30
0.0
 10
142.7664787204516
 20
79.40454860800249
 30
0.0
  0
SPLINE
  5
CE
330
1F
100
AcDbEntity
  8
0
  6
Continuous
 62
     7
370
    25
100
AcDbSpline
210
0.0
220
0.0
230
1.0
 70
     8
 71
     3
 72
    15
 73
    11
 74
     0
 42
0.00000001
 43
0.00000001
 40
0.0
 40
0.0
 40
0.0
 40
0.0
 40
0.1263812889588915
 40
0.2491049464973168
 40
0.3706105362999225
 40
0.4913917559424302
 40
0.6138158455532667
 40
0.7388355742356976
 40
0.8671181754268789
 40
1.0
 40
1.0
 40
1.0
 40
1.0
 10
143.814162118135
 20
79.35763741109129
 30
0.0
 10
143.7982061628102
 20
79.34267191541946
 30
0.0
 10
143.7667560373188
 20
79.31317404410201
 30
0.0
 10
143.7154525321475
 20
79.27438054243314
 30
0.0
 10
143.6605696724401
 20
79.24295037444563
 30
0.0
 10
143.6036208861606
 20
79.21547682591202
 30
0.0
 10
143.5428936651195
 20
79.19573894832101
 30
0.0
 10
143.4796757389137
 20
79.18028528425154
 30
0.0
 10
143.4132431206096
 20
79.17163735254309
 30
0.0
 10
143.3680464508017
 20
79.17054726545386
 30
0.0
 10
143.3450501490231
 20
79.1699926234465
 30
0.0
  0
SPLINE
  5
CF
330
1F
100
AcDbEntity
  8
0
  6
Continuous
 62
     7
370
    25
100
AcDbSpline
210
0.0
220
0.0
230
1.0
 70
     8
 71
     3
 72
    11
 73
     7
 74
     0
 42
0.00000001
 43
0.00000001
 40
0.0
 40
0.0
 40
0.0
 40
0.0
 40
0.2758864184465408
 40
0.5310076877713125
 40
0.7722766677115269
 40
1.0
 40
1.0
 40
1.0
 40
1.0
 10
143.9861698401428
 20
79.65474165819555
 30
0.0
 10
143.9754319577306
 20
79.62473777745802
 30
0.0
 10
143.9547644013377
 20
79.56698831873402
 30
0.0
 10
143.9141664687709
 20
79.48743100926019
 30
0.0
 10
143.8683705723542
 20
79.41716492673808
 30
0.0
 10
143.8318802933047
 20
79.37709413541293
 30
0.0
 10
143.814162118135
 20
79.35763741109129
 30
0.0
  0
SPLINE
  5
D0
330
1F
100
AcDbEntity
  8
0
  6
Continuous
 62
     7
370
    25
100
AcDbSpline
210
0.0
220
0.0
230
1.0
 70
     8
 71
     3
 72
    11
 73
     7
 74
     0
 42
0.00000001
 43
0.00000001
 40
0.0
 40
0.0
 40
0.0
 40
0.0
 40
0.2409277974217331
 40
0.4854864172424151
 40
0.7380410464993922
 40
1.0
 40
1.0
 40
1.0
 40
1.0
 10
144.1269034308763
 20
79.42018567363955
 30
0.0
 10
144.1118037901034
 20
79.43643385826482
 30
0.0
 10
144.0813769544332
 20
79.4691750903884
 30
0.0
 10
144.0430444744383
 20
79.52550660271173
 30
0.0
 10
144.0112176637174
 20
79.5878268048943
 30
0.0
 10
143.9946202377353
 20
79.6321665584645
 30
0.0
 10
143.9861698401428
 20
79.65474165819555
 30
0.0
  0
SPLINE
  5
D1
330
1F
100
AcDbEntity
  8
0
  6
Continuous
 62
     7
370
    25
100
AcDbSpline
210
0.0
220
0.0
230
1.0
 70
     8
 71
     3
 72
    15
 73
    11
 74
     0
 42
0.00000001
 43
0.00000001
 40
0.0
 40
0.0
 40
0.0
 40
0.0
 40
0.131207293287142
 40
0.2585055422472041
 40
0.3817646425439862
 40
0.5033692670500666
 40
0.6250492974901232
 40
0.7476118725723027
 40
0.8722462138971603
 40
0.9999999999999999
 40
0.9999999999999999
 40
0.9999999999999999
 40
0.9999999999999999
 10
144.5491042030771
 20
79.24817795163183
 30
0.0
 10
144.5286143521833
 20
79.24876198168344
 30
0.0
 10
144.4882451022494
 20
79.24991264184416
 30
0.0
 10
144.4290834856417
 20
79.25816808343208
 30
0.0
 10
144.3724649756862
 20
79.27154659148651
 30
0.0
 10
144.3181781090954
 20
79.2900175958277
 30
0.0
 10
144.2664801636741
 20
79.31460055448605
 30
0.0
 10
144.217110585416
 20
79.34436568012788
 30
0.0
 10
144.1696566261175
 20
79.3789252058007
 30
0.0
 10
144.1412714402056
 20
79.40631932321838
 30
0.0
 10
144.1269034308763
 20
79.42018567363955
 30
0.0
  0
SPLINE
  5
D2
330
1F
100
AcDbEntity
  8
0
  6
Continuous
 62
     7
370
    25
100
AcDbSpline
210
0.0
220
0.0
230
1.0
 70
     8
 71
     3
 72
    15
 73
    11
 74
     0
 42
0.00000001
 43
0.00000001
 40
0.0
 40
0.0
 40
0.0
 40
0.0
 40
0.119502711436531
 40
0.2380939422658886
 40
0.3566476293726336
 40
0.4775806195769141
 40
0.6003630199241491
 40
0.7278327340041401
 40
0.8606471500295807
 40
1.0
 40
1.0
 40
1.0
 40
1.0
 10
145.0494903034632
 20
79.43582273927662
 30
0.0
 10
145.0335899747042
 20
79.4207844317941
 30
0.0
 10
145.0019105934413
 20
79.39082251820676
 30
0.0
 10
144.9488222603083
 20
79.35247933115102
 30
0.0
 10
144.8914290185735
 20
79.32067274797862
 30
0.0
 10
144.830720930652
 20
79.29371597108512
 30
0.0
 10
144.7656766362521
 20
79.27373846798179
 30
0.0
 10
144.6972000480483
 20
79.2583874964917
 30
0.0
 10
144.6244197923001
 20
79.24979393715681
 30
0.0
 10
144.5746082831894
 20
79.24872517199769
 30
0.0
 10
144.5491042030771
 20
79.24817795163183
 30
0.0
  0
SPLINE
  5
D3
330
1F
100
AcDbEntity
  8
0
  6
Continuous
 62
     7
370
    25
100
AcDbSpline
210
0.0
220
0.0
230
1.0
 70
     8
 71
     3
 72
    15
 73
    11
 74
     0
 42
0.00000001
 43
0.00000001
 40
0.0
 40
0.0
 40
0.0
 40
0.0
 40
0.1342477572737647
 40
0.2634617725756857
 40
0.3884666271730299
 40
0.5118790511869591
 40
0.632408074152589
 40
0.7535525248235477
 40
0.8755084805282737
 40
1.0
 40
1.0
 40
1.0
 40
1.0
 10
145.2527721567451
 20
79.95184590529979
 30
0.0
 10
145.25235342586
 20
79.92632415032288
 30
0.0
 10
145.251531664786
 20
79.87623760182478
 30
0.0
 10
145.2410092531669
 20
79.80305308739375
 30
0.0
 10
145.2258101944664
 20
79.73285829324959
 30
0.0
 10
145.2030288932687
 20
79.66641694363652
 30
0.0
 10
145.1743815872121
 20
79.60316751881741
 30
0.0
 10
145.1397911005111
 20
79.54320879009728
 30
0.0
 10
145.0975850813965
 20
79.48735399944273
 30
0.0
 10
145.065631480503
 20
79.45311724045048
 30
0.0
 10
145.0494903034632
 20
79.43582273927662
 30
0.0
  0
LINE
  5
D4
330
1F
100
AcDbEntity
  8
0
  6
Continuous
 62
     7
370
    25
100
AcDbLine
 10
145.2527721567
 20
81.2132358667
 30
0.0
 11
145.2527721567
 21
79.9518459053
 31
0.0
  0
LINE
  5
D5
330
1F
100
AcDbEntity
  8
0
  6
Continuous
 62
     7
370
    25
100
AcDbLine
 10
142.5788339328
 20
83.7551277586
 30
0.0
 11
145.2527721567
 21
83.7551277586
 31
0.0
  0
LINE
  5
D6
330
1F
100
AcDbEntity
  8
0
  6
Continuous
 62
     7
370
    25
100
AcDbLine
 10
142.5788339328
 20
83.3850505385
 30
0.0
 11
142.5788339328
 21
83.7551277586
 31
0.0
  0
LINE
  5
D7
330
1F
100
AcDbEntity
  8
0
  6
Continuous
 62
     7
370
    25
100
AcDbLine
 10
144.6898377938
 20
83.3850505385
 30
0.0
 11
142.5788339328
 21
83.3850505385
 31
0.0
  0
LINE
  5
D8
330
1F
100
AcDbEntity
  8
0
  6
Continuous
 62
     7
370
    25
100
AcDbLine
 10
142.5788339328
 20
82.1340852875
 30
0.0
 11
144.6898377938
 21
83.3850505385
 31
0.0
  0
LINE
  5
D9
330
1F
100
AcDbEntity
  8
0
  6
Continuous
 62
     7
370
    25
100
AcDbLine
 10
142.5788339328
 20
81.7431586466
 30
0.0
 11
142.5788339328
 21
82.1340852875
 31
0.0
  0
LINE
  5
DA
330
1F
100
AcDbEntity
  8
0
  6
Continuous
 62
     7
370
    25
100
AcDbLine
 10
145.2527721567
 20
81.7431586466
 30
0.0
 11
142.5788339328
 21
81.7431586466
 31
0.0
  0
LINE
  5
DB
330
1F
100
AcDbEntity
  8
0
  6
Continuous
 62
     7
370
    25
100
AcDbLine
 10
145.2527721567
 20
82.1132358667
 30
0.0
 11
145.2527721567
 21
81.7431586466
 31
0.0
  0
LINE
  5
DC
330
1F
100
AcDbEntity
  8
0
  6
Continuous
 62
     7
370
    25
100
AcDbLine
 10
143.1417682957
 20
82.1132358667
 30
0.0
 11
145.2527721567
 21
82.1132358667
 31
0.0
  0
LINE
  5
DD
330
1F
100
AcDbEntity
  8
0
  6
Continuous
 62
     7
370
    25
100
AcDbLine
 10
145.2527721567
 20
83.3537764072
 30
0.0
 11
143.1417682957
 21
82.1132358667
 31
0.0
  0
LINE
  5
DE
330
1F
100
AcDbEntity
  8
0
  6
Continuous
 62
     7
370
    25
100
AcDbLine
 10
145.2527721567
 20
83.7551277586
 30
0.0
 11
145.2527721567
 21
83.3537764072
 31
0.0
  0
LINE
  5
DF
330
1F
100
AcDbEntity
  8
0
  6
Continuous
 62
     7
370
    25
100
AcDbLine
 10
144.0956292996
 20
74.0167107702
 30
0.0
 11
144.0956292996
 21
73.9228883763
 31
0.0
  0
LINE
  5
E0
330
1F
100
AcDbEntity
  8
0
  6
Continuous
 62
     7
370
    25
100
AcDbLine
 10
143.8297991838
 20
74.0167107702
 30
0.0
 11
144.0956292996
 21
74.0167107702
 31
0.0
  0
LINE
  5
E1
330
1F
100
AcDbEntity
  8
0
  6
Continuous
 62
     7
370
    25
100
AcDbLine
 10
143.8297991838
 20
73.8916142451
 30
0.0
 11
143.8297991838
 21
74.0167107702
 31
0.0
  0
SPLINE
  5
E2
330
1F
100
AcDbEntity
  8
0
  6
Continuous
 62
     7
370
    25
100
AcDbSpline
210
0.0
220
0.0
230
1.0
 70
     8
 71
     3
 72
    11
 73
     7
 74
     0
 42
0.00000001
 43
0.00000001
 40
0.0
 40
0.0
 40
0.0
 40
0.0
 40
0.2676320905605551
 40
0.5177929452577185
 40
0.7570315487829562
 40
1.0
 40
1.0
 40
1.0
 40
1.0
 10
143.7047026586756
 20
73.61014706360095
 30
0.0
 10
143.7240264258195
 20
73.6308462467707
 30
0.0
 10
143.7614124892096
 20
73.67089335395973
 30
0.0
 10
143.7999171358767
 20
73.74141858849836
 30
0.0
 10
143.8260126232821
 20
73.814890054897
 30
0.0
 10
143.8285305050452
 20
73.86590797465006
 30
0.0
 10
143.8297991837721
 20
73.89161424506813
 30
0.0
  0
SPLINE
  5
E3
330
1F
100
AcDbEntity
  8
0
  6
Continuous
 62
     7
370
    25
100
AcDbSpline
210
0.0
220
0.0
230
1.0
 70
     8
 71
     3
 72
    15
 73
    11
 74
     0
 42
0.00000001
 43
0.00000001
 40
0.0
 40
0.0
 40
0.0
 40
0.0
 40
0.1417962611116214
 40
0.2768819513476975
 40
0.4055805706087829
 40
0.5298229690785617
 40
0.6485572024501447
 40
0.7672114666371234
 40
0.8821786188665561
 40
1.0
 40
1.0
 40
1.0
 40
1.0
 10
143.3606872146601
 20
73.48505053850442
 30
0.0
 10
143.3784771123986
 20
73.48523340955842
 30
0.0
 10
143.4132149930838
 20
73.48559049721275
 30
0.0
 10
143.463608920987
 20
73.49275351895498
 30
0.0
 10
143.5115561411905
 20
73.50124619221029
 30
0.0
 10
143.5559999411971
 20
73.5155185169433
 30
0.0
 10
143.5979990038304
 20
73.5327900245216
 30
0.0
 10
143.6362598790777
 20
73.554990129021
 30
0.0
 10
143.6726875110465
 20
73.57995806356647
 30
0.0
 10
143.6939440669904
 20
73.60000214318644
 30
0.0
 10
143.7047026586756
 20
73.61014706360095
 30
0.0
  0
SPLINE
  5
E4
330
1F
100
AcDbEntity
  8
0
  6
Continuous
 62
     7
370
    25
100
AcDbSpline
210
0.0
220
0.0
230
1.0
 70
     8
 71
     3
 72
    15
 73
    11
 74
     0
 42
0.00000001
 43
0.00000001
 40
0.0
 40
0.0
 40
0.0
 40
0.0
 40
0.1062344532908168
 40
0.2134351374465924
 40
0.3266362515327415
 40
0.4454478074346338
 40
0.570912586560857
 40
0.7047818913259153
 40
0.8472638984122983
 40
1.0
 40
1.0
 40
1.0
 40
1.0
 10
142.9697605737335
 20
73.61014706360095
 30
0.0
 10
142.9806704090286
 20
73.59993681740723
 30
0.0
 10
143.002589307499
 20
73.57942346009035
 30
0.0
 10
143.041453560385
 20
73.55478863124485
 30
0.0
 10
143.0834828913107
 20
73.53223511237248
 30
0.0
 10
143.1309229455521
 20
73.51552885946658
 30
0.0
 10
143.1820564552536
 20
73.50102961506524
 30
0.0
 10
143.2379169429347
 20
73.49272702439013
 30
0.0
 10
143.2977631307941
 20
73.48553934818175
 30
0.0
 10
143.3392323894894
 20
73.4852172048351
 30
0.0
 10
143.3606872146601
 20
73.48505053850442
 30
0.0
  0
SPLINE
  5
E5
330
1F
100
AcDbEntity
  8
0
  6
Continuous
 62
     7
370
    25
100
AcDbSpline
210
0.0
220
0.0
230
1.0
 70
     8
 71
     3
 72
    18
 73
    14
 74
     0
 42
0.00000001
 43
0.00000001
 40
0.0
 40
0.0
 40
0.0
 40
0.0
 40
0.2500000000000004
 40
0.2500000000000004
 40
0.5000000000000009
 40
0.5000000000000009
 40
0.562500000000001
 40
0.562500000000001
 40
0.625000000000001
 40
0.625000000000001
 40
0.7500000000000007
 40
0.7500000000000007
 40
1.0
 40
1.0
 40
1.0
 40
1.0
 10
140.2392972590411
 20
85.1261702296241
 30
0.0
 10
139.7630608091477
 20
85.95103595725567
 30
0.0
 10
139.3705558350999
 20
86.78191543723023
 30
0.0
 10
138.8268091052759
 20
88.46100237604873
 30
0.0
 10
138.6773609325114
 20
89.30933865340366
 30
0.0
 10
138.6759928346158
 20
90.38307780238411
 30
0.0
 10
138.6849175076889
 20
90.59891408355216
 30
0.0
 10
138.720876644085
 20
91.02862876667005
 30
0.0
 10
138.7478695218609
 20
91.24273961489409
 30
0.0
 10
138.8547178499505
 20
91.88292959977193
 30
0.0
 10
138.9605034768321
 20
92.30686116745416
 30
0.0
 10
139.3689905486461
 20
93.57110835649091
 30
0.0
 10
139.7624670966867
 20
94.40390587266342
 30
0.0
 10
140.2392972590412
 20
95.22979994044256
 30
0.0
  0
LINE
  5
E6
330
1F
100
AcDbEntity
  8
0
  6
Continuous
 62
     7
370
    25
100
AcDbLine
 10
138.5319227359
 20
75.0225405188
 30
0.0
 11
138.5319227359
 21
92.2725405188
 31
0.0
  0
LINE
  5
E7
330
1F
100
AcDbEntity
  8
0
  6
Continuous
 62
     7
370
    25
100
AcDbLine
 10
138.5319227359
 20
57.7725405188
 30
0.0
 11
138.5319227359
 21
75.0225405188
 31
0.0
  0
SPLINE
  5
E8
330
1F
100
AcDbEntity
  8
0
  6
Continuous
 62
     7
370
    25
100
AcDbSpline
210
0.0
220
0.0
230
1.0
 70
     8
 71
     3
 72
    18
 73
    14
 74
     0
 42
0.00000001
 43
0.00000001
 40
0.0
 40
0.0
 40
0.0
 40
0.0
 40
0.2500000000000004
 40
0.2500000000000004
 40
0.5000000000000009
 40
0.5000000000000009
 40
0.562500000000001
 40
0.562500000000001
 40
0.625000000000001
 40
0.625000000000001
 40
0.7500000000000007
 40
0.7500000000000007
 40
1.0
 40
1.0
 40
1.0
 40
1.0
 10
147.8245482127502
 20
85.1261702296241
 30
0.0
 10
148.3007846626436
 20
85.95103595725567
 30
0.0
 10
148.6932896366914
 20
86.78191543723023
 30
0.0
 10
149.2370363665153
 20
88.46100237604873
 30
0.0
 10
149.3864845392799
 20
89.30933865340366
 30
0.0
 10
149.3878526371755
 20
90.38307780238411
 30
0.0
 10
149.3789279641024
 20
90.59891408355216
 30
0.0
 10
149.3429688277063
 20
91.02862876667005
 30
0.0
 10
149.3159759499303
 20
91.24273961489409
 30
0.0
 10
149.2091276218408
 20
91.88292959977193
 30
0.0
 10
149.1033419949592
 20
92.30686116745416
 30
0.0
 10
148.6948549231452
 20
93.57110835649091
 30
0.0
 10
148.3013783751045
 20
94.40390587266342
 30
0.0
 10
147.8245482127501
 20
95.22979994044256
 30
0.0
  0
LINE
  5
E9
330
1F
100
AcDbEntity
  8
0
  6
Continuous
 62
     7
370
    25
100
AcDbLine
 10
149.5319227359
 20
75.0225405188
 30
0.0
 11
149.5319227359
 21
92.2725405188
 31
0.0
  0
LINE
  5
EA
330
1F
100
AcDbEntity
  8
0
  6
Continuous
 62
     7
370
    25
100
AcDbLine
 10
149.5319227359
 20
57.7725405188
 30
0.0
 11
149.5319227359
 21
75.0225405188
 31
0.0
  0
SPLINE
  5
EB
330
1F
100
AcDbEntity
  8
0
  6
Continuous
 62
     7
370
    25
100
AcDbSpline
210
0.0
220
0.0
230
1.0
 70
     8
 71
     3
 72
    15
 73
    11
 74
     0
 42
0.00000001
 43
0.00000001
 40
0.0
 40
0.0
 40
0.0
 40
0.0
 40
0.113414434283291
 40
0.2282264330862559
 40
0.3440192114958916
 40
0.4638726679659596
 40
0.5878409254964383
 40
0.7180827571090537
 40
0.8551689049579084
 40
1.0
 40
1.0
 40
1.0
 40
1.0
 10
143.7047026586756
 20
71.59296559641948
 30
0.0
 10
143.7133949440518
 20
71.60244851948018
 30
0.0
 10
143.7308866266521
 20
71.621531220188
 30
0.0
 10
143.7536257125977
 20
71.65340115593658
 30
0.0
 10
143.771954730222
 20
71.6887253187775
 30
0.0
 10
143.7879982619581
 20
71.72629594288009
 30
0.0
 10
143.7991458321797
 20
71.76730741337252
 30
0.0
 10
143.8079990289845
 20
71.81079838772018
 30
0.0
 10
143.8132200279742
 20
71.85731874013811
 30
0.0
 10
143.8138423888298
 20
71.88928479129014
 30
0.0
 10
143.814162118135
 20
71.90570690916078
 30
0.0
  0
SPLINE
  5
EC
330
1F
100
AcDbEntity
  8
0
  6
Continuous
 62
     7
370
    25
100
AcDbSpline
210
0.0
220
0.0
230
1.0
 70
     8
 71
     3
 72
    15
 73
    11
 74
     0
 42
0.00000001
 43
0.00000001
 40
0.0
 40
0.0
 40
0.0
 40
0.0
 40
0.1393810202816871
 40
0.2711199225959097
 40
0.3991411117306078
 40
0.5232616219685349
 40
0.6429586939517118
 40
0.7614343776763253
 40
0.8804849265728253
 40
1.0
 40
1.0
 40
1.0
 40
1.0
 10
143.329413083386
 20
71.45223200568589
 30
0.0
 10
143.3485430990148
 20
71.45269872295802
 30
0.0
 10
143.3857542511935
 20
71.45360656787435
 30
0.0
 10
143.4402347096253
 20
71.4600480197607
 30
0.0
 10
143.4918728407801
 20
71.47090434963695
 30
0.0
 10
143.5405002132342
 20
71.48661701093361
 30
0.0
 10
143.5862987880925
 20
71.50626251341693
 30
0.0
 10
143.6286274453606
 20
71.53111160855869
 30
0.0
 10
143.6690945128235
 20
71.5589932389557
 30
0.0
 10
143.692817879025
 20
71.5816267869138
 30
0.0
 10
143.7047026586756
 20
71.59296559641948
 30
0.0
  0
SPLINE
  5
ED
330
1F
100
AcDbEntity
  8
0
  6
Continuous
 62
     7
370
    25
100
AcDbSpline
210
0.0
220
0.0
230
1.0
 70
     8
 71
     3
 72
    15
 73
    11
 74
     0
 42
0.00000001
 43
0.00000001
 40
0.0
 40
0.0
 40
0.0
 40
0.0
 40
0.1195207678016613
 40
0.23857698894007
 40
0.3570583175167622
 40
0.4780520139443318
 40
0.6008398709279141
 40
0.7288671597165912
 40
0.8606123388176882
 40
1.0
 40
1.0
 40
1.0
 40
1.0
 10
142.9541235080964
 20
71.59296559641948
 30
0.0
 10
142.9660075172488
 20
71.5816249080523
 30
0.0
 10
142.9897293454486
 20
71.55898760967386
 30
0.0
 10
143.0302078950675
 20
71.53113397853812
 30
0.0
 10
143.0726458108304
 20
71.50608852613608
 30
0.0
 10
143.1186212351445
 20
71.48688373682309
 30
0.0
 10
143.1671005501593
 20
71.47077224121533
 30
0.0
 10
143.2186006365884
 20
71.46007437705337
 30
0.0
 10
143.2730694357873
 20
71.45359944755224
 30
0.0
 10
143.3102822257718
 20
71.45269630533201
 30
0.0
 10
143.329413083386
 20
71.45223200568589
 30
0.0
  0
SPLINE
  5
EE
330
1F
100
AcDbEntity
  8
0
  6
Continuous
 62
     7
370
    25
100
AcDbSpline
210
0.0
220
0.0
230
1.0
 70
     8
 71
     3
 72
    15
 73
    11
 74
     0
 42
0.00000001
 43
0.00000001
 40
0.0
 40
0.0
 40
0.0
 40
0.0
 40
0.132290013348316
 40
0.2607898618052659
 40
0.3858441649047001
 40
0.5080904451166506
 40
0.6294055086180667
 40
0.7510893117646912
 40
0.8732553966668093
 40
1.0
 40
1.0
 40
1.0
 40
1.0
 10
142.8290269829999
 20
71.90570690916078
 30
0.0
 10
142.8292190914458
 20
71.89042248726535
 30
0.0
 10
142.8295978043494
 20
71.8602915486329
 30
0.0
 10
142.8368342979012
 20
71.81628928347307
 30
0.0
 10
142.8452452821123
 20
71.77367606406305
 30
0.0
 10
142.8598688273631
 20
71.73364332411292
 30
0.0
 10
142.8767120654124
 20
71.69491119603167
 30
0.0
 10
142.8994637186352
 20
71.65935263243277
 30
0.0
 10
142.9240775236414
 20
71.62429263004748
 30
0.0
 10
142.9439861122791
 20
71.60353521313965
 30
0.0
 10
142.9541235080964
 20
71.59296559641948
 30
0.0
  0
SPLINE
  5
EF
330
1F
100
AcDbEntity
  8
0
  6
Continuous
 62
     7
370
    25
100
AcDbSpline
210
0.0
220
0.0
230
1.0
 70
     8
 71
     3
 72
    15
 73
    11
 74
     0
 42
0.00000001
 43
0.00000001
 40
0.0
 40
0.0
 40
0.0
 40
0.0
 40
0.1267446033331908
 40
0.2489106882353091
 40
0.3705944913819338
 40
0.4919095548833488
 40
0.6141558350953017
 40
0.7392101381947337
 40
0.8677099866516851
 40
1.0
 40
1.0
 40
1.0
 40
1.0
 10
142.9541235080964
 20
72.2184482219021
 30
0.0
 10
142.9439861122791
 20
72.20787860518192
 30
0.0
 10
142.9240775236414
 20
72.18712118827409
 30
0.0
 10
142.8994637186352
 20
72.15206118588881
 30
0.0
 10
142.8767120654124
 20
72.11650262228991
 30
0.0
 10
142.8598688273631
 20
72.07777049420868
 30
0.0
 10
142.8452452821123
 20
72.03773775425852
 30
0.0
 10
142.8368342979012
 20
71.9951245348485
 30
0.0
 10
142.8295978043494
 20
71.95112226968868
 30
0.0
 10
142.8292190914458
 20
71.92099133105623
 30
0.0
 10
142.8290269829999
 20
71.90570690916078
 30
0.0
  0
SPLINE
  5
F0
330
1F
100
AcDbEntity
  8
0
  6
Continuous
 62
     7
370
    25
100
AcDbSpline
210
0.0
220
0.0
230
1.0
 70
     8
 71
     3
 72
    15
 73
    11
 74
     0
 42
0.00000001
 43
0.00000001
 40
0.0
 40
0.0
 40
0.0
 40
0.0
 40
0.1393876611823119
 40
0.2711328402834088
 40
0.3991601290720859
 40
0.5219479860556686
 40
0.6429416824832377
 40
0.7614230110599299
 40
0.8804792321983386
 40
1.0
 40
1.0
 40
1.0
 40
1.0
 10
143.329413083386
 20
72.35918181263568
 30
0.0
 10
143.3102822257718
 20
72.35871751298959
 30
0.0
 10
143.2730694357873
 20
72.35781437076935
 30
0.0
 10
143.2186006365884
 20
72.35133944126821
 30
0.0
 10
143.1671005501593
 20
72.34064157710625
 30
0.0
 10
143.1186212351445
 20
72.32453008149848
 30
0.0
 10
143.0726458108304
 20
72.30532529218549
 30
0.0
 10
143.0302078950675
 20
72.28027983978346
 30
0.0
 10
142.9897293454486
 20
72.25242620864772
 30
0.0
 10
142.9660075172488
 20
72.22978891026928
 30
0.0
 10
142.9541235080964
 20
72.2184482219021
 30
0.0
  0
SPLINE
  5
F1
330
1F
100
AcDbEntity
  8
0
  6
Continuous
 62
     7
370
    25
100
AcDbSpline
210
0.0
220
0.0
230
1.0
 70
     8
 71
     3
 72
    15
 73
    11
 74
     0
 42
0.00000001
 43
0.00000001
 40
0.0
 40
0.0
 40
0.0
 40
0.0
 40
0.1132779201884349
 40
0.2270870976600619
 40
0.343044257852653
 40
0.4613052417311969
 40
0.5864247941069357
 40
0.7162590429098968
 40
0.8547899065957142
 40
1.0
 40
1.0
 40
1.0
 40
1.0
 10
143.6890655930385
 20
72.23408528753916
 30
0.0
 10
143.6783023597196
 20
72.24421941189422
 30
0.0
 10
143.6567254150532
 20
72.26453518820163
 30
0.0
 10
143.6197481962029
 20
72.28996925357838
 30
0.0
 10
143.5796890074254
 20
72.31141782031395
 30
0.0
 10
143.5361493789381
 20
72.32891478849933
 30
0.0
 10
143.4894253296089
 20
72.34271554387044
 30
0.0
 10
143.4390243349011
 20
72.35256277736823
 30
0.0
 10
143.3853426256601
 20
72.35835466981221
 30
0.0
 10
143.348346558542
 20
72.35890180519309
 30
0.0
 10
143.329413083386
 20
72.35918181263568
 30
0.0
  0
SPLINE
  5
F2
330
1F
100
AcDbEntity
  8
0
  6
Continuous
 62
     7
370
    25
100
AcDbSpline
210
0.0
220
0.0
230
1.0
 70
     8
 71
     3
 72
    15
 73
    11
 74
     0
 42
0.00000001
 43
0.00000001
 40
0.0
 40
0.0
 40
0.0
 40
0.0
 40
0.1380048591553919
 40
0.2688933811355679
 40
0.395354554074731
 40
0.5185917470747125
 40
0.6392559432757061
 40
0.7592039617243781
 40
0.878528534328542
 40
1.0
 40
1.0
 40
1.0
 40
1.0
 10
143.814162118135
 20
71.90570690916078
 30
0.0
 10
143.8138940685094
 20
71.92232779034877
 30
0.0
 10
143.8133717914635
 20
71.95471248294183
 30
0.0
 10
143.807394330476
 20
72.00201689647064
 30
0.0
 10
143.7976711664144
 20
72.0468592921456
 30
0.0
 10
143.7835761367485
 20
72.08922768887837
 30
0.0
 10
143.7662801456156
 20
72.12953984244521
 30
0.0
 10
143.7448122897392
 20
72.16727620636303
 30
0.0
 10
143.7191554737144
 20
72.20247098494636
 30
0.0
 10
143.6991549934615
 20
72.2234847351013
 30
0.0
 10
143.6890655930385
 20
72.23408528753916
 30
0.0
  0
SPLINE
  5
F3
330
1F
100
AcDbEntity
  8
0
  6
Continuous
 62
     7
370
    25
100
AcDbSpline
210
0.0
220
0.0
230
1.0
 70
     8
 71
     3
 72
    11
 73
     7
 74
     0
 42
0.00000001
 43
0.00000001
 40
0.0
 40
0.0
 40
0.0
 40
0.0
 40
0.2562600332085377
 40
0.5016208045865223
 40
0.7449078564687264
 40
0.9999999999999999
 40
0.9999999999999999
 40
0.9999999999999999
 40
0.9999999999999999
 10
144.0799922339651
 20
69.8572513107052
 30
0.0
 10
144.07868332631
 20
69.88249526924304
 30
0.0
 10
144.0761211815117
 20
69.93190950927941
 30
0.0
 10
144.0551148823956
 20
70.0027730380218
 30
0.0
 10
144.0203519736433
 20
70.06790305001624
 30
0.0
 10
143.9873993567367
 20
70.10440046335158
 30
0.0
 10
143.9705327745057
 20
70.12308142653531
 30
0.0
  0
SPLINE
  5
F4
330
1F
100
AcDbEntity
  8
0
  6
Continuous
 62
     7
370
    25
100
AcDbSpline
210
0.0
220
0.0
230
1.0
 70
     8
 71
     3
 72
    11
 73
     7
 74
     0
 42
0.00000001
 43
0.00000001
 40
0.0
 40
0.0
 40
0.0
 40
0.0
 40
0.2912484084677872
 40
0.5474762715832026
 40
0.7812177661650664
 40
1.0
 40
1.0
 40
1.0
 40
1.0
 10
143.9705327745057
 20
69.63833239178626
 30
0.0
 10
143.9871816052139
 20
69.6561710189877
 30
0.0
 10
144.018477363396
 20
69.68970330560784
 30
0.0
 10
144.0536706791302
 20
69.74513237853625
 30
0.0
 10
144.0754885733961
 20
69.80104788115504
 30
0.0
 10
144.0785244666949
 20
69.83893430987754
 30
0.0
 10
144.0799922339651
 20
69.8572513107052
 30
0.0
  0
SPLINE
  5
F5
330
1F
100
AcDbEntity
  8
0
  6
Continuous
 62
     7
370
    25
100
AcDbSpline
210
0.0
220
0.0
230
1.0
 70
     8
 71
     3
 72
    15
 73
    11
 74
     0
 42
0.00000001
 43
0.00000001
 40
0.0
 40
0.0
 40
0.0
 40
0.0
 40
0.1621938662364103
 40
0.3128358862094929
 40
0.4514937848199701
 40
0.5789754992164102
 40
0.695971397378459
 40
0.8040446570061014
 40
0.9042792524989226
 40
1.0
 40
1.0
 40
1.0
 40
1.0
 10
143.4701466741196
 20
69.49759880105267
 30
0.0
 10
143.4989227826588
 20
69.49806575066837
 30
0.0
 10
143.5544254944779
 20
69.49896639259909
 30
0.0
 10
143.634341287534
 20
69.50518297432089
 30
0.0
 10
143.707583591877
 20
69.51590589506502
 30
0.0
 10
143.7737901004149
 20
69.53157851945157
 30
0.0
 10
143.8334225628609
 20
69.55087680750461
 30
0.0
 10
143.8857750541165
 20
69.57538514552012
 30
0.0
 10
143.9320975666876
 20
69.60353246884674
 30
0.0
 10
143.9579193072295
 20
69.62691193345835
 30
0.0
 10
143.9705327745057
 20
69.63833239178626
 30
0.0
  0
SPLINE
  5
F6
330
1F
100
AcDbEntity
  8
0
  6
Continuous
 62
     7
370
    25
100
AcDbSpline
210
0.0
220
0.0
230
1.0
 70
     8
 71
     3
 72
    15
 73
    11
 74
     0
 42
0.00000001
 43
0.00000001
 40
0.0
 40
0.0
 40
0.0
 40
0.0
 40
0.0889385933316045
 40
0.1846881048742348
 40
0.2906390975243623
 40
0.4070025892724365
 40
0.5351860897525821
 40
0.6768017488293065
 40
0.8315571904058214
 40
0.9999999999999999
 40
0.9999999999999999
 40
0.9999999999999999
 40
0.9999999999999999
 10
142.9228493768223
 20
69.63833239178626
 30
0.0
 10
142.9356272221329
 20
69.62686167120657
 30
0.0
 10
142.9621614402534
 20
69.60304180217055
 30
0.0
 10
143.0110341608527
 20
69.57506136054042
 30
0.0
 10
143.0673402759436
 20
69.55073115905486
 30
0.0
 10
143.1321826441356
 20
69.53148908707662
 30
0.0
 10
143.20494357758
 20
69.51579168470593
 30
0.0
 10
143.2860985067462
 20
69.50517183049367
 30
0.0
 10
143.3754532497821
 20
69.49894085020294
 30
0.0
 10
143.4377034391695
 20
69.49805860505916
 30
0.0
 10
143.4701466741196
 20
69.49759880105267
 30
0.0
  0
SPLINE
  5
F7
330
1F
100
AcDbEntity
  8
0
  6
Continuous
 62
     7
370
    25
100
AcDbSpline
210
0.0
220
0.0
230
1.0
 70
     8
 71
     3
 72
    11
 73
     7
 74
     0
 42
0.00000001
 43
0.00000001
 40
0.0
 40
0.0
 40
0.0
 40
0.0
 40
0.2601257123120307
 40
0.5090133886864462
 40
0.7508417226532303
 40
0.9999999999999999
 40
0.9999999999999999
 40
0.9999999999999999
 40
0.9999999999999999
 10
142.8290269829999
 20
69.87288837634226
 30
0.0
 10
142.8300079320557
 20
69.85034922933637
 30
0.0
 10
142.831927450886
 20
69.80624467891113
 30
0.0
 10
142.8508487479493
 20
69.74364886977399
 30
0.0
 10
142.8797243409639
 20
69.68593799508822
 30
0.0
 10
142.908332003522
 20
69.65435807850315
 30
0.0
 10
142.9228493768223
 20
69.63833239178626
 30
0.0
  0
SPLINE
  5
F8
330
1F
100
AcDbEntity
  8
0
  6
Continuous
 62
     7
370
    25
100
AcDbSpline
210
0.0
220
0.0
230
1.0
 70
     8
 71
     3
 72
    11
 73
     7
 74
     0
 42
0.00000001
 43
0.00000001
 40
0.0
 40
0.0
 40
0.0
 40
0.0
 40
0.2767994473675431
 40
0.5300473798609809
 40
0.7673216447737531
 40
1.0
 40
1.0
 40
1.0
 40
1.0
 10
142.9384864424594
 20
70.10744436089824
 30
0.0
 10
142.9217159400144
 20
70.08949027031314
 30
0.0
 10
142.8896018553787
 20
70.0551097151389
 30
0.0
 10
142.8550134171912
 20
69.99612248093707
 30
0.0
 10
142.8332201992753
 20
69.93519668826225
 30
0.0
 10
142.8304155791482
 20
69.89352196074542
 30
0.0
 10
142.8290269829999
 20
69.87288837634226
 30
0.0
  0
SPLINE
  5
F9
330
1F
100
AcDbEntity
  8
0
  6
Continuous
 62
     7
370
    25
100
AcDbSpline
210
0.0
220
0.0
230
1.0
 70
     8
 71
     3
 72
    15
 73
    11
 74
     0
 42
0.00000001
 43
0.00000001
 40
0.0
 40
0.0
 40
0.0
 40
0.0
 40
0.1493997748286758
 40
0.2899387608175543
 40
0.4216321191698547
 40
0.5469260282951606
 40
0.6656128117813251
 40
0.780038740731226
 40
0.8908418859280354
 40
1.0
 40
1.0
 40
1.0
 40
1.0
 10
143.5014208053937
 20
70.29508914854303
 30
0.0
 10
143.4710953058852
 20
70.29454234975807
 30
0.0
 10
143.4122428895494
 20
70.2934811824149
 30
0.0
 10
143.3269321300094
 20
70.28506247560597
 30
0.0
 10
143.24768601601
 20
70.26956542733386
 30
0.0
 10
143.1738217710483
 20
70.25008989063525
 30
0.0
 10
143.1062476459084
 20
70.22276755278145
 30
0.0
 10
143.0437769464136
 20
70.1913951903596
 30
0.0
 10
142.9874832332727
 20
70.15294857029201
 30
0.0
 10
142.9547370728203
 20
70.12253661642043
 30
0.0
 10
142.9384864424594
 20
70.10744436089824
 30
0.0
  0
SPLINE
  5
FA
330
1F
100
AcDbEntity
  8
0
  6
Continuous
 62
     7
370
    25
100
AcDbSpline
210
0.0
220
0.0
230
1.0
 70
     8
 71
     3
 72
    15
 73
    11
 74
     0
 42
0.00000001
 43
0.00000001
 40
0.0
 40
0.0
 40
0.0
 40
0.0
 40
0.1182864595995973
 40
0.2347934213738282
 40
0.352529382074746
 40
0.4728657235109875
 40
0.5967540177287654
 40
0.7246940143624924
 40
0.8588073979132679
 40
1.0
 40
1.0
 40
1.0
 40
1.0
 10
143.9705327745057
 20
70.12308142653531
 30
0.0
 10
143.955783616554
 20
70.13696174831132
 30
0.0
 10
143.9265071865248
 20
70.16451357673357
 30
0.0
 10
143.8770706335632
 20
70.19937127025096
 30
0.0
 10
143.8240876705481
 20
70.22905465859532
 30
0.0
 10
143.7670889460217
 20
70.25357897292146
 30
0.0
 10
143.7059892716514
 20
70.27185069644246
 30
0.0
 10
143.6412704612626
 20
70.28518232370968
 30
0.0
 10
143.5726732249597
 20
70.29340617443252
 30
0.0
 10
143.5255753039202
 20
70.29451862201326
 30
0.0
 10
143.5014208053937
 20
70.29508914854303
 30
0.0
  0
SPLINE
  5
FB
330
1F
100
AcDbEntity
  8
0
  6
Continuous
 62
     7
370
    25
100
AcDbSpline
210
0.0
220
0.0
230
1.0
 70
     8
 71
     3
 72
    11
 73
     7
 74
     0
 42
0.00000001
 43
0.00000001
 40
0.0
 40
0.0
 40
0.0
 40
0.0
 40
0.2562600332085392
 40
0.5016208045865223
 40
0.7449078564687264
 40
0.9999999999999999
 40
0.9999999999999999
 40
0.9999999999999999
 40
0.9999999999999999
 10
145.002579106552
 20
71.90570690916078
 30
0.0
 10
145.0012701988969
 20
71.93095086769863
 30
0.0
 10
144.9987080540986
 20
71.98036510773503
 30
0.0
 10
144.9777017549825
 20
72.0512286364774
 30
0.0
 10
144.9429388462302
 20
72.11635864847183
 30
0.0
 10
144.9099862293236
 20
72.15285606180717
 30
0.0
 10
144.8931196470926
 20
72.17153702499091
 30
0.0
  0
SPLINE
  5
FC
330
1F
100
AcDbEntity
  8
0
  6
Continuous
 62
     7
370
    25
100
AcDbSpline
210
0.0
220
0.0
230
1.0
 70
     8
 71
     3
 72
    15
 73
    11
 74
     0
 42
0.00000001
 43
0.00000001
 40
0.0
 40
0.0
 40
0.0
 40
0.0
 40
0.1452459980297225
 40
0.2839773123111046
 40
0.4135645357275267
 40
0.5387150251446062
 40
0.6570052502158958
 40
0.7736984629726805
 40
0.8866940707303832
 40
1.0
 40
1.0
 40
1.0
 40
1.0
 10
144.5334671374401
 20
71.51478026823415
 30
0.0
 10
144.5524125939106
 20
71.51497006133245
 30
0.0
 10
144.5894537508581
 20
71.51534113478495
 30
0.0
 10
144.6429546792777
 20
71.52238415979954
 30
0.0
 10
144.693566807322
 20
71.53099659374409
 30
0.0
 10
144.7401594979572
 20
71.54516583984616
 30
0.0
 10
144.7839475777544
 20
71.562360397577
 30
0.0
 10
144.8234435954172
 20
71.58477321357607
 30
0.0
 10
144.8609755486713
 20
71.60932535972871
 30
0.0
 10
144.8823951568985
 20
71.6296836765169
 30
0.0
 10
144.8931196470926
 20
71.63987679333067
 30
0.0
  0
SPLINE
  5
FD
330
1F
100
AcDbEntity
  8
0
  6
Continuous
 62
     7
370
    25
100
AcDbSpline
210
0.0
220
0.0
230
1.0
 70
     8
 71
     3
 72
    15
 73
    11
 74
     0
 42
0.00000001
 43
0.00000001
 40
0.0
 40
0.0
 40
0.0
 40
0.0
 40
0.1133059292696168
 40
0.2263015370273195
 40
0.3429947497841048
 40
0.4612849748553938
 40
0.5864354642724734
 40
0.7160226876888955
 40
0.8547540019702781
 40
1.0
 40
1.0
 40
1.0
 40
1.0
 10
144.1738146277875
 20
71.63987679333067
 30
0.0
 10
144.1845391179816
 20
71.6296836765169
 30
0.0
 10
144.2059587262087
 20
71.60932535972871
 30
0.0
 10
144.2434906794629
 20
71.58477321357607
 30
0.0
 10
144.2829866971256
 20
71.562360397577
 30
0.0
 10
144.3267747769229
 20
71.54516583984616
 30
0.0
 10
144.3733674675581
 20
71.53099659374409
 30
0.0
 10
144.4239795956024
 20
71.52238415979954
 30
0.0
 10
144.477480524022
 20
71.51534113478495
 30
0.0
 10
144.5145216809695
 20
71.51497006133245
 30
0.0
 10
144.5334671374401
 20
71.51478026823415
 30
0.0
  0
SPLINE
  5
FE
330
1F
100
AcDbEntity
  8
0
  6
Continuous
 62
     7
370
    25
100
AcDbSpline
210
0.0
220
0.0
230
1.0
 70
     8
 71
     3
 72
    11
 73
     7
 74
     0
 42
0.00000001
 43
0.00000001
 40
0.0
 40
0.0
 40
0.0
 40
0.0
 40
0.2901378045003205
 40
0.5465424887398712
 40
0.7801595488425201
 40
1.0
 40
1.0
 40
1.0
 40
1.0
 10
144.0799922339651
 20
71.92134397479785
 30
0.0
 10
144.0808362641619
 20
71.89185875859799
 30
0.0
 10
144.0824261926618
 20
71.83631645010547
 30
0.0
 10
144.1012053992015
 20
71.75918434635715
 30
0.0
 10
144.1287871079346
 20
71.69171641020881
 30
0.0
 10
144.1591125629789
 20
71.65680309550066
 30
0.0
 10
144.1738146277875
 20
71.63987679333067
 30
0.0
  0
SPLINE
  5
FF
330
1F
100
AcDbEntity
  8
0
  6
Continuous
 62
     7
370
    25
100
AcDbSpline
210
0.0
220
0.0
230
1.0
 70
     8
 71
     3
 72
    11
 73
     7
 74
     0
 42
0.00000001
 43
0.00000001
 40
0.0
 40
0.0
 40
0.0
 40
0.0
 40
0.2653711544688507
 40
0.5124447543023564
 40
0.7549131194780969
 40
1.0
 40
1.0
 40
1.0
 40
1.0
 10
144.1894516934246
 20
72.17153702499091
 30
0.0
 10
144.1726490317835
 20
72.15321268141754
 30
0.0
 10
144.1402022655422
 20
72.11782747250517
 30
0.0
 10
144.1052490939011
 20
72.05590078154644
 30
0.0
 10
144.0840570118508
 20
71.98989764226118
 30
0.0
 10
144.0813520025293
 20
71.94427686918877
 30
0.0
 10
144.0799922339651
 20
71.92134397479785
 30
0.0
  0
SPLINE
  5
100
330
1F
100
AcDbEntity
  8
0
  6
Continuous
 62
     7
370
    25
100
AcDbSpline
210
0.0
220
0.0
230
1.0
 70
     8
 71
     3
 72
    15
 73
    11
 74
     0
 42
0.00000001
 43
0.00000001
 40
0.0
 40
0.0
 40
0.0
 40
0.0
 40
0.1417662078038662
 40
0.2766387327414354
 40
0.4056138818208842
 40
0.5283604514395144
 40
0.6484896893007581
 40
0.766366615568506
 40
0.8822035907677863
 40
1.0
 40
1.0
 40
1.0
 40
1.0
 10
144.5334671374401
 20
72.29663355008744
 30
0.0
 10
144.5156889952919
 20
72.29636357561799
 30
0.0
 10
144.4809972109057
 20
72.29583675476091
 30
0.0
 10
144.4304248672238
 20
72.289885775886
 30
0.0
 10
144.3828385229488
 20
72.28031860792164
 30
0.0
 10
144.3384005289234
 20
72.26602140905457
 30
0.0
 10
144.2964847348573
 20
72.24888643977621
 30
0.0
 10
144.2575398371201
 20
72.2274427648493
 30
0.0
 10
144.2216668757226
 20
72.20163041829625
 30
0.0
 10
144.2002499605775
 20
72.1816240857265
 30
0.0
 10
144.1894516934246
 20
72.17153702499091
 30
0.0
  0
SPLINE
  5
101
330
1F
100
AcDbEntity
  8
0
  6
Continuous
 62
     7
370
    25
100
AcDbSpline
210
0.0
220
0.0
230
1.0
 70
     8
 71
     3
 72
    15
 73
    11
 74
     0
 42
0.00000001
 43
0.00000001
 40
0.0
 40
0.0
 40
0.0
 40
0.0
 40
0.1132779201884349
 40
0.2270870976600618
 40
0.3430442578526534
 40
0.4613052417311974
 40
0.5864247941069357
 40
0.7162590429098972
 40
0.854789906595714
 40
1.0
 40
1.0
 40
1.0
 40
1.0
 10
144.8931196470926
 20
72.17153702499091
 30
0.0
 10
144.8823564137736
 20
72.18167114934597
 30
0.0
 10
144.8607794691073
 20
72.20198692565339
 30
0.0
 10
144.823802250257
 20
72.22742099103012
 30
0.0
 10
144.7837430614794
 20
72.24886955776569
 30
0.0
 10
144.7402034329922
 20
72.26636652595106
 30
0.0
 10
144.693479383663
 20
72.28016728132218
 30
0.0
 10
144.6430783889551
 20
72.29001451481996
 30
0.0
 10
144.5893966797142
 20
72.29580640726395
 30
0.0
 10
144.552400612596
 20
72.29635354264481
 30
0.0
 10
144.5334671374401
 20
72.29663355008744
 30
0.0
  0
SPLINE
  5
102
330
1F
100
AcDbEntity
  8
0
  6
Continuous
 62
     7
370
    25
100
AcDbSpline
210
0.0
220
0.0
230
1.0
 70
     8
 71
     3
 72
    11
 73
     7
 74
     0
 42
0.00000001
 43
0.00000001
 40
0.0
 40
0.0
 40
0.0
 40
0.0
 40
0.2550921435312741
 40
0.498379195413479
 40
0.74373996679146
 40
1.0
 40
1.0
 40
1.0
 40
1.0
 10
144.8931196470926
 20
71.63987679333067
 30
0.0
 10
144.9099862293236
 20
71.6585577565144
 30
0.0
 10
144.9429388462302
 20
71.69505516984974
 30
0.0
 10
144.9777017549825
 20
71.76018518184418
 30
0.0
 10
144.9987080540986
 20
71.83104871058657
 30
0.0
 10
145.0012701988969
 20
71.88046295062294
 30
0.0
 10
145.002579106552
 20
71.90570690916078
 30
0.0
  0
LINE
  5
103
330
1F
100
AcDbEntity
  8
0
  6
Continuous
 62
     7
370
    25
100
AcDbLine
 10
144.9724632764
 20
68.2153594188
 30
0.0
 11
144.0487181027
 21
68.2153594188
 31
0.0
  0
LINE
  5
104
330
1F
100
AcDbEntity
  8
0
  6
Continuous
 62
     7
370
    25
100
AcDbLine
 10
144.9724632764
 20
67.3396837431
 30
0.0
 11
144.9724632764
 21
68.2153594188
 31
0.0
  0
SPLINE
  5
105
330
1F
100
AcDbEntity
  8
0
  6
Continuous
 62
     7
370
    25
100
AcDbSpline
210
0.0
220
0.0
230
1.0
 70
     8
 71
     3
 72
    15
 73
    11
 74
     0
 42
0.00000001
 43
0.00000001
 40
0.0
 40
0.0
 40
0.0
 40
0.0
 40
0.1309133268193505
 40
0.2579771534544064
 40
0.3819342897628126
 40
0.5044826360738957
 40
0.6264704025122001
 40
0.7488072761095288
 40
0.8724814751031177
 40
1.0
 40
1.0
 40
1.0
 40
1.0
 10
144.8462084501814
 20
67.04257949603337
 30
0.0
 10
144.8562971294934
 20
67.05298703923954
 30
0.0
 10
144.8761778309795
 20
67.07349609233604
 30
0.0
 10
144.9014179645266
 20
67.10748537710778
 30
0.0
 10
144.9238080903939
 20
67.14225001324719
 30
0.0
 10
144.9420096910614
 20
67.17885628738264
 30
0.0
 10
144.9550641497597
 20
67.217374820886
 30
0.0
 10
144.964883183556
 20
67.25688646187801
 30
0.0
 10
144.9718268935424
 20
67.29774306931206
 30
0.0
 10
144.9722489954816
 20
67.32556160423485
 30
0.0
 10
144.9724632764362
 20
67.33968374313761
 30
0.0
  0
SPLINE
  5
106
330
1F
100
AcDbEntity
  8
0
  6
Continuous
 62
     7
370
    25
100
AcDbSpline
210
0.0
220
0.0
230
1.0
 70
     8
 71
     3
 72
    15
 73
    11
 74
     0
 42
0.00000001
 43
0.00000001
 40
0.0
 40
0.0
 40
0.0
 40
0.0
 40
0.1417962611116216
 40
0.2768819513476971
 40
0.4055805706087829
 40
0.5298229690785625
 40
0.6485572024501451
 40
0.7672114666371234
 40
0.8821786188665572
 40
1.0
 40
1.0
 40
1.0
 40
1.0
 10
144.5021930061659
 20
66.91748297093686
 30
0.0
 10
144.5199829039044
 20
66.91766584199085
 30
0.0
 10
144.5547207845896
 20
66.9180229296452
 30
0.0
 10
144.6051147124927
 20
66.92518595138742
 30
0.0
 10
144.6530619326963
 20
66.93367862464272
 30
0.0
 10
144.6975057327029
 20
66.94795094937575
 30
0.0
 10
144.7395047953362
 20
66.96522245695404
 30
0.0
 10
144.7777656705834
 20
66.98742256145343
 30
0.0
 10
144.8141933025522
 20
67.01239049599891
 30
0.0
 10
144.8354498584961
 20
67.0324345756189
 30
0.0
 10
144.8462084501814
 20
67.04257949603337
 30
0.0
  0
SPLINE
  5
107
330
1F
100
AcDbEntity
  8
0
  6
Continuous
 62
     7
370
    25
100
AcDbSpline
210
0.0
220
0.0
230
1.0
 70
     8
 71
     3
 72
    15
 73
    11
 74
     0
 42
0.00000001
 43
0.00000001
 40
0.0
 40
0.0
 40
0.0
 40
0.0
 40
0.1053643999148129
 40
0.2134004501006521
 40
0.3253299308157717
 40
0.444152083179407
 40
0.5701116073912008
 40
0.7035881731039114
 40
0.8466305078268435
 40
1.0
 40
1.0
 40
1.0
 40
1.0
 10
144.1581775621505
 20
67.0269424303963
 30
0.0
 10
144.1678436572048
 20
67.01823400156859
 30
0.0
 10
144.187420943622
 20
67.00059633046708
 30
0.0
 10
144.2206335177755
 20
66.97772658111295
 30
0.0
 10
144.258347127626
 20
66.959482482942
 30
0.0
 10
144.2994463426708
 20
66.94346923237558
 30
0.0
 10
144.344911331928
 20
66.93247885740301
 30
0.0
 10
144.3937947783092
 20
66.92356713078885
 30
0.0
 10
144.4466784842397
 20
66.91841105943733
 30
0.0
 10
144.4832632870445
 20
66.91779943686369
 30
0.0
 10
144.5021930061659
 20
66.91748297093686
 30
0.0
  0
SPLINE
  5
108
330
1F
100
AcDbEntity
  8
0
  6
Continuous
 62
     7
370
    25
100
AcDbSpline
210
0.0
220
0.0
230
1.0
 70
     8
 71
     3
 72
    11
 73
     7
 74
     0
 42
0.00000001
 43
0.00000001
 40
0.0
 40
0.0
 40
0.0
 40
0.0
 40
0.2562600332085407
 40
0.5016208045865221
 40
0.744907856468724
 40
0.9999999999999999
 40
0.9999999999999999
 40
0.9999999999999999
 40
0.9999999999999999
 10
144.048718102691
 20
67.29277254622643
 30
0.0
 10
144.0500270103461
 20
67.26752858768859
 30
0.0
 10
144.0525891551445
 20
67.2181143476522
 30
0.0
 10
144.0735954542606
 20
67.14725081890982
 30
0.0
 10
144.1083583630128
 20
67.08212080691538
 30
0.0
 10
144.1413109799194
 20
67.04562339358004
 30
0.0
 10
144.1581775621505
 20
67.0269424303963
 30
0.0
  0
LINE
  5
109
330
1F
100
AcDbEntity
  8
0
  6
Continuous
 62
     7
370
    25
100
AcDbLine
 10
144.0487181027
 20
68.2153594188
 30
0.0
 11
144.0487181027
 21
67.2927725462
 31
0.0
  0
LINE
  5
10A
330
1F
100
AcDbEntity
  8
0
  6
Continuous
 62
     7
370
    25
100
AcDbLine
 10
144.9568262108
 20
80.8431586466
 30
0.0
 11
144.1269034309
 21
80.8431586466
 31
0.0
  0
LINE
  5
10B
330
1F
100
AcDbEntity
  8
0
  6
Continuous
 62
     7
370
    25
100
AcDbLine
 10
144.9568262108
 20
79.9674829709
 30
0.0
 11
144.9568262108
 21
80.8431586466
 31
0.0
  0
SPLINE
  5
10C
330
1F
100
AcDbEntity
  8
0
  6
Continuous
 62
     7
370
    25
100
AcDbSpline
210
0.0
220
0.0
230
1.0
 70
     8
 71
     3
 72
    11
 73
     7
 74
     0
 42
0.00000001
 43
0.00000001
 40
0.0
 40
0.0
 40
0.0
 40
0.0
 40
0.2499695538886852
 40
0.4922399851273412
 40
0.7405148106355961
 40
1.0
 40
1.0
 40
1.0
 40
1.0
 10
144.8618455158184
 20
79.73292698638086
 30
0.0
 10
144.8765382619245
 20
79.74895147937025
 30
0.0
 10
144.905471214007
 20
79.78050690709357
 30
0.0
 10
144.9351168587368
 20
79.83809055583738
 30
0.0
 10
144.9538888857101
 20
79.90085687353809
 30
0.0
 10
144.9558327964998
 20
79.94494977632755
 30
0.0
 10
144.9568262107991
 20
79.96748297093686
 30
0.0
  0
SPLINE
  5
10D
330
1F
100
AcDbEntity
  8
0
  6
Continuous
 62
     7
370
    25
100
AcDbSpline
210
0.0
220
0.0
230
1.0
 70
     8
 71
     3
 72
    11
 73
     7
 74
     0
 42
0.00000001
 43
0.00000001
 40
0.0
 40
0.0
 40
0.0
 40
0.0
 40
0.2516095171558486
 40
0.496493079866558
 40
0.7426069856111286
 40
1.0
 40
1.0
 40
1.0
 40
1.0
 10
144.5647412687142
 20
79.60783046128434
 30
0.0
 10
144.5925119046117
 20
79.6094338346843
 30
0.0
 10
144.6473108196227
 20
79.61259772056
 30
0.0
 10
144.7264004154575
 20
79.63653729640899
 30
0.0
 10
144.7993447993615
 20
79.67663763810421
 30
0.0
 10
144.8407031197156
 20
79.71388573749442
 30
0.0
 10
144.8618455158184
 20
79.73292698638086
 30
0.0
  0
SPLINE
  5
10E
330
1F
100
AcDbEntity
  8
0
  6
Continuous
 62
     7
370
    25
100
AcDbSpline
210
0.0
220
0.0
230
1.0
 70
     8
 71
     3
 72
    15
 73
    11
 74
     0
 42
0.00000001
 43
0.00000001
 40
0.0
 40
0.0
 40
0.0
 40
0.0
 40
0.121504244690735
 40
0.2399194382132705
 40
0.3607014484775898
 40
0.4813982058565624
 40
0.6046686543565296
 40
0.7308278400410384
 40
0.8619579002966847
 40
1.0
 40
1.0
 40
1.0
 40
1.0
 10
144.2363628903358
 20
79.73292698638086
 30
0.0
 10
144.2469224612711
 20
79.7227781529832
 30
0.0
 10
144.2677731429327
 20
79.7027385040517
 30
0.0
 10
144.3035387761547
 20
79.67794352715832
 30
0.0
 10
144.3406993903932
 20
79.65554070457134
 30
0.0
 10
144.3812651567307
 20
79.63853346571733
 30
0.0
 10
144.423492698919
 20
79.62407181263882
 30
0.0
 10
144.4685684738326
 20
79.61557602766966
 30
0.0
 10
144.5156714275026
 20
79.60835816797172
 30
0.0
 10
144.5481070184338
 20
79.60800934927126
 30
0.0
 10
144.5647412687142
 20
79.60783046128434
 30
0.0
  0
SPLINE
  5
10F
330
1F
100
AcDbEntity
  8
0
  6
Continuous
 62
     7
370
    25
100
AcDbSpline
210
0.0
220
0.0
230
1.0
 70
     8
 71
     3
 72
    11
 73
     7
 74
     0
 42
0.00000001
 43
0.00000001
 40
0.0
 40
0.0
 40
0.0
 40
0.0
 40
0.2562600332085377
 40
0.5016208045865193
 40
0.744907856468726
 40
0.9999999999999999
 40
0.9999999999999999
 40
0.9999999999999999
 40
0.9999999999999999
 10
144.1269034308763
 20
79.99875710221097
 30
0.0
 10
144.1282123385315
 20
79.97351314367315
 30
0.0
 10
144.1307744833298
 20
79.92409890363676
 30
0.0
 10
144.1517807824459
 20
79.85323537489435
 30
0.0
 10
144.1865436911982
 20
79.78810536289993
 30
0.0
 10
144.2194963081048
 20
79.7516079495646
 30
0.0
 10
144.2363628903358
 20
79.73292698638086
 30
0.0
  0
LINE
  5
110
330
1F
100
AcDbEntity
  8
0
  6
Continuous
 62
     7
370
    25
100
AcDbLine
 10
144.1269034309
 20
80.8431586466
 30
0.0
 11
144.1269034309
 21
79.9987571022
 31
0.0
  0
LINE
  5
111
330
1F
100
AcDbEntity
  8
0
  6
Continuous
 62
     7
370
    25
100
AcDbLine
 10
140.239297259
 20
95.2297999404
 30
0.0
 11
147.8245482128
 21
95.2297999404
 31
0.0
  0
SPLINE
  5
112
330
1F
100
AcDbEntity
  8
0
  6
Continuous
 62
     7
370
    25
100
AcDbSpline
210
0.0
220
0.0
230
1.0
 70
     8
 71
     3
 72
    15
 73
    11
 74
     0
 42
0.00000001
 43
0.00000001
 40
0.0
 40
0.0
 40
0.0
 40
0.0
 40
0.1193556939378561
 40
0.2390663805212354
 40
0.3573840708360864
 40
0.478772892602902
 40
0.6013911634438122
 40
0.7292416297469767
 40
0.8608048514681801
 40
1.0
 40
1.0
 40
1.0
 40
1.0
 10
143.6890655930385
 20
79.6703787238326
 30
0.0
 10
143.7003578350461
 20
79.68229649184761
 30
0.0
 10
143.7229759049149
 20
79.70616747419655
 30
0.0
 10
143.7515993500284
 20
79.74624981191802
 30
0.0
 10
143.7763487613215
 20
79.78907082810899
 30
0.0
 10
143.7964700236398
 20
79.8347177801173
 30
0.0
 10
143.8123641389122
 20
79.88337976724426
 30
0.0
 10
143.8231299652971
 20
79.93484914062486
 30
0.0
 10
143.8295860309247
 20
79.9893264646636
 30
0.0
 10
143.8304918230071
 20
80.02653805713946
 30
0.0
 10
143.8309574849304
 20
80.04566829912217
 30
0.0
  0
LINE
  5
113
330
1F
100
AcDbEntity
  8
0
  6
Continuous
 62
     7
370
    25
100
AcDbLine
 10
143.8309574849
 20
80.8431586466
 30
0.0
 11
142.8759381799
 21
80.8431586466
 31
0.0
  0
LINE
  5
114
330
1F
100
AcDbEntity
  8
0
  6
Continuous
 62
     7
370
    25
100
AcDbLine
 10
143.8309574849
 20
80.0456682991
 30
0.0
 11
143.8309574849
 21
80.8431586466
 31
0.0
  0
SPLINE
  5
115
330
1F
100
AcDbEntity
  8
0
  6
Continuous
 62
     7
370
    25
100
AcDbSpline
210
0.0
220
0.0
230
1.0
 70
     8
 71
     3
 72
    15
 73
    11
 74
     0
 42
0.00000001
 43
0.00000001
 40
0.0
 40
0.0
 40
0.0
 40
0.0
 40
0.1417962611116214
 40
0.2768819513476974
 40
0.4055805706087828
 40
0.5298229690785621
 40
0.6485572024501446
 40
0.7672114666371233
 40
0.8821786188665557
 40
1.0
 40
1.0
 40
1.0
 40
1.0
 10
143.3450501490231
 20
79.54528219873607
 30
0.0
 10
143.3628400467615
 20
79.54546506979007
 30
0.0
 10
143.3975779274467
 20
79.54582215744442
 30
0.0
 10
143.4479718553499
 20
79.55298517918665
 30
0.0
 10
143.4959190755534
 20
79.56147785244194
 30
0.0
 10
143.5403628755601
 20
79.57575017717497
 30
0.0
 10
143.5823619381933
 20
79.59302168475327
 30
0.0
 10
143.6206228134406
 20
79.61522178925264
 30
0.0
 10
143.6570504454094
 20
79.64018972379813
 30
0.0
 10
143.6783070013533
 20
79.66023380341811
 30
0.0
 10
143.6890655930385
 20
79.6703787238326
 30
0.0
  0
SPLINE
  5
116
330
1F
100
AcDbEntity
  8
0
  6
Continuous
 62
     7
370
    25
100
AcDbSpline
210
0.0
220
0.0
230
1.0
 70
     8
 71
     3
 72
    15
 73
    11
 74
     0
 42
0.00000001
 43
0.00000001
 40
0.0
 40
0.0
 40
0.0
 40
0.0
 40
0.1452459980297225
 40
0.2839773123111057
 40
0.4135645357275264
 40
0.5387150251446061
 40
0.6570052502158958
 40
0.7736984629726817
 40
0.8866940707303836
 40
1.0
 40
1.0
 40
1.0
 40
1.0
 10
142.8759381799111
 20
80.04566829912217
 30
0.0
 10
142.8761279730094
 20
80.02672284265161
 30
0.0
 10
142.8764990464619
 20
79.9896816857041
 30
0.0
 10
142.8835420714765
 20
79.93618075728453
 30
0.0
 10
142.892154505421
 20
79.88556862924025
 30
0.0
 10
142.9063237515231
 20
79.83897593860503
 30
0.0
 10
142.9235183092539
 20
79.79518785880778
 30
0.0
 10
142.945931125253
 20
79.755691841145
 30
0.0
 10
142.9704832714057
 20
79.71815988789085
 30
0.0
 10
142.9908415881939
 20
79.69674027966379
 30
0.0
 10
143.0010347050076
 20
79.68601578946966
 30
0.0
  0
LINE
  5
117
330
1F
100
AcDbEntity
  8
0
  6
Continuous
 62
     7
370
    25
100
AcDbLine
 10
142.8759381799
 20
80.8431586466
 30
0.0
 11
142.8759381799
 21
80.0456682991
 31
0.0
  0
SPLINE
  5
118
330
1F
100
AcDbEntity
  8
0
  6
Continuous
 62
     7
370
    25
100
AcDbSpline
210
0.0
220
0.0
230
1.0
 70
     8
 71
     3
 72
    15
 73
    11
 74
     0
 42
0.00000001
 43
0.00000001
 40
0.0
 40
0.0
 40
0.0
 40
0.0
 40
0.1277118540336139
 40
0.2523621141955318
 40
0.3748537650566264
 40
0.4969693854038492
 40
0.6192731655242182
 40
0.742485444301997
 40
0.8694478780376612
 40
1.0
 40
1.0
 40
1.0
 40
1.0
 10
143.0010347050076
 20
79.68601578946966
 30
0.0
 10
143.0127564563317
 20
79.674721320301
 30
0.0
 10
143.0359189573275
 20
79.65240314052285
 30
0.0
 10
143.0746281166221
 20
79.62430868242187
 30
0.0
 10
143.1146092348311
 20
79.59944658780978
 30
0.0
 10
143.157192022551
 20
79.58000768741103
 30
0.0
 10
143.2012755413134
 20
79.56410219813486
 30
0.0
 10
143.2474943699841
 20
79.55307244347915
 30
0.0
 10
143.2956443434584
 20
79.54672963598348
 30
0.0
 10
143.3284292095685
 20
79.5457691408389
 30
0.0
 10
143.3450501490231
 20
79.54528219873607
 30
0.0
  0
LINE
  5
119
330
1F
100
AcDbEntity
  8
0
  6
Continuous
 62
     7
370
    25
100
AcDbLine
 10
119.8276773831
 20
58.6197356861
 30
0.0
 11
119.8276773831
 21
91.4253453515
 31
0.0
  0
LINE
  5
11A
330
1F
100
AcDbEntity
  8
0
  6
Continuous
 62
     7
370
    25
100
AcDbLine
 10
116.5319227359
 20
75.0225405188
 30
0.0
 11
116.5319227359
 21
89.5225405188
 31
0.0
  0
LINE
  5
11B
330
1F
100
AcDbEntity
  8
0
  6
Continuous
 62
     7
370
    25
100
AcDbLine
 10
116.5319227359
 20
60.5225405188
 30
0.0
 11
116.5319227359
 21
75.0225405188
 31
0.0
  0
LINE
  5
11C
330
1F
100
AcDbEntity
  8
0
  6
Continuous
 62
     7
370
    18
100
AcDbLine
 10
116.9787411702
 20
89.7805112622
 30
0.0
 11
136.2319227359
 21
90.3821731861
 31
0.0
  0
LINE
  5
11D
330
1F
100
AcDbEntity
  8
0
  6
Continuous
 62
     7
370
    18
100
AcDbLine
 10
116.9787411702
 20
60.2645697755
 30
0.0
 11
136.2319227359
 21
59.6629078515
 31
0.0
  0
LINE
  5
11E
330
1F
100
AcDbEntity
  8
0
  6
Continuous
 62
     7
370
    25
100
AcDbLine
 10
136.2319227359
 20
58.1071030188
 30
0.0
 11
136.2319227359
 21
91.9379780188
 31
0.0
  0
LINE
  5
11F
330
1F
100
AcDbEntity
  8
FORMAT
  6
CENTERX2
370
    18
100
AcDbLine
 10
151.6875539901
 20
75.0225405188
 30
0.0
 11
114.5319227359
 21
75.0225405188
 31
0.0
  0
SPLINE
  5
120
330
1F
100
AcDbEntity
  8
0
  6
Continuous
 62
     7
370
    25
100
AcDbSpline
210
0.0
220
0.0
230
1.0
 70
    24
 71
     3
 72
    18
 73
    14
 74
     0
 42
0.00000001
 43
0.00000001
 40
0.0
 40
0.0
 40
0.0
 40
0.0
 40
0.2500000000000004
 40
0.2500000000000004
 40
0.5000000000000009
 40
0.5000000000000009
 40
0.562500000000001
 40
0.562500000000001
 40
0.625000000000001
 40
0.625000000000001
 40
0.7500000000000007
 40
0.7500000000000007
 40
1.0
 40
1.0
 40
1.0
 40
1.0
 10
163.0525945438797
 20
85.1261702296241
 30
0.0
 10
164.4813038935599
 20
85.95103595725567
 30
0.0
 10
165.9204293678422
 20
86.78191543723023
 30
0.0
 10
168.8286932562012
 20
88.46100237604873
 30
0.0
 10
170.2980547904837
 20
89.30933865340366
 30
0.0
 10
172.1578255505936
 20
90.38307780238411
 30
0.0
 10
172.5316649556934
 20
90.59891408355216
 30
0.0
 10
173.275952619612
 20
91.02862876667005
 30
0.0
 10
173.6468034871877
 20
91.24273961489409
 30
0.0
 10
174.7556450674929
 20
91.88292959977193
 30
0.0
 10
175.4899160816508
 20
92.30686116745416
 30
0.0
 10
177.6796564463886
 20
93.57110835649091
 30
0.0
 10
179.1221040568165
 20
94.40390587266342
 30
0.0
 10
180.5525945438798
 20
95.22979994044256
 30
0.0
  0
SPLINE
  5
121
330
1F
100
AcDbEntity
  8
0
  6
Continuous
 62
     7
370
    25
100
AcDbSpline
210
0.0
220
0.0
230
1.0
 70
    24
 71
     3
 72
    18
 73
    14
 74
     0
 42
0.00000001
 43
0.00000001
 40
0.0
 40
0.0
 40
0.0
 40
0.0
 40
0.2499999999999996
 40
0.2499999999999996
 40
0.4999999999999991
 40
0.4999999999999991
 40
0.5624999999999991
 40
0.5624999999999991
 40
0.6249999999999991
 40
0.6249999999999991
 40
0.7499999999999994
 40
0.7499999999999994
 40
1.0
 40
1.0
 40
1.0
 40
1.0
 10
180.5525945438797
 20
95.22979994044258
 30
0.0
 10
181.9813038935599
 20
94.404934212811
 30
0.0
 10
183.4204293678422
 20
93.57405473283643
 30
0.0
 10
186.3286932562012
 20
91.89496779401793
 30
0.0
 10
187.7980547904837
 20
91.04663151666303
 30
0.0
 10
189.6578255505937
 20
89.97289236768256
 30
0.0
 10
190.0316649556934
 20
89.75705608651452
 30
0.0
 10
190.775952619612
 20
89.32734140339663
 30
0.0
 10
191.1468034871877
 20
89.11323055517258
 30
0.0
 10
192.2556450674929
 20
88.47304057029473
 30
0.0
 10
192.9899160816508
 20
88.04910900261251
 30
0.0
 10
195.1796564463886
 20
86.78486181357577
 30
0.0
 10
196.6221040568165
 20
85.95206429740327
 30
0.0
 10
198.0525945438798
 20
85.1261702296241
 30
0.0
  0
SPLINE
  5
122
330
1F
100
AcDbEntity
  8
0
  6
Continuous
 62
     7
370
    25
100
AcDbSpline
210
0.0
220
0.0
230
1.0
 70
    24
 71
     3
 72
    14
 73
    10
 74
     0
 42
0.00000001
 43
0.00000001
 40
0.0
 40
0.0
 40
0.0
 40
0.0
 40
0.25
 40
0.25
 40
0.4999999999999999
 40
0.4999999999999999
 40
0.75
 40
0.75
 40
1.0
 40
1.0
 40
1.0
 40
1.0
 10
198.0525945438797
 20
85.12617022962411
 30
0.0
 10
198.0525945438797
 20
83.48142425921594
 30
0.0
 10
198.0525945438797
 20
81.8214991305683
 30
0.0
 10
198.0525945438797
 20
78.45726124450822
 30
0.0
 10
198.0525945438797
 20
76.75103950805838
 30
0.0
 10
198.0525945438797
 20
73.28923773223545
 30
0.0
 10
198.0525945438797
 20
71.58571140048952
 30
0.0
 10
198.0525945438797
 20
68.2229963922434
 30
0.0
 10
198.0525945438797
 20
66.56347717091607
 30
0.0
 10
198.0525945438797
 20
64.91891080798719
 30
0.0
  0
SPLINE
  5
123
330
1F
100
AcDbEntity
  8
0
  6
Continuous
 62
     7
370
    25
100
AcDbSpline
210
0.0
220
0.0
230
1.0
 70
    24
 71
     3
 72
    18
 73
    14
 74
     0
 42
0.00000001
 43
0.00000001
 40
0.0
 40
0.0
 40
0.0
 40
0.0
 40
0.2500000000000003
 40
0.2500000000000003
 40
0.5000000000000007
 40
0.5000000000000007
 40
0.5625000000000008
 40
0.5625000000000008
 40
0.6250000000000009
 40
0.6250000000000009
 40
0.7500000000000006
 40
0.7500000000000006
 40
1.0
 40
1.0
 40
1.0
 40
1.0
 10
198.0525945438798
 20
64.9189108079872
 30
0.0
 10
196.6238851941996
 20
64.09404508035564
 30
0.0
 10
195.1847597199173
 20
63.26316560038107
 30
0.0
 10
192.2764958315583
 20
61.58407866156256
 30
0.0
 10
190.8071342972758
 20
60.73574238420765
 30
0.0
 10
188.9473635371658
 20
59.66200323522719
 30
0.0
 10
188.5735241320661
 20
59.44616695405914
 30
0.0
 10
187.8292364681475
 20
59.01645227094125
 30
0.0
 10
187.4583856005718
 20
58.80234142271721
 30
0.0
 10
186.3495440202666
 20
58.16215143783936
 30
0.0
 10
185.6152730061087
 20
57.73821987015713
 30
0.0
 10
183.4255326413709
 20
56.47397268112039
 30
0.0
 10
181.983085030943
 20
55.64117516494789
 30
0.0
 10
180.5525945438797
 20
54.81528109716874
 30
0.0
  0
SPLINE
  5
124
330
1F
100
AcDbEntity
  8
0
  6
Continuous
 62
     7
370
    25
100
AcDbSpline
210
0.0
220
0.0
230
1.0
 70
    24
 71
     3
 72
    18
 73
    14
 74
     0
 42
0.00000001
 43
0.00000001
 40
0.0
 40
0.0
 40
0.0
 40
0.0
 40
0.2499999999999999
 40
0.2499999999999999
 40
0.4999999999999998
 40
0.4999999999999998
 40
0.5624999999999998
 40
0.5624999999999998
 40
0.6249999999999998
 40
0.6249999999999998
 40
0.7499999999999998
 40
0.7499999999999998
 40
1.0
 40
1.0
 40
1.0
 40
1.0
 10
180.5525945438798
 20
54.81528109716872
 30
0.0
 10
179.1238851941996
 20
55.6401468248003
 30
0.0
 10
177.6847597199173
 20
56.47102630477487
 30
0.0
 10
174.7764958315583
 20
58.15011324359337
 30
0.0
 10
173.3071342972758
 20
58.99844952094828
 30
0.0
 10
171.4473635371659
 20
60.07218866992874
 30
0.0
 10
171.0735241320661
 20
60.28802495109679
 30
0.0
 10
170.3292364681475
 20
60.71773963421468
 30
0.0
 10
169.9583856005718
 20
60.93185048243873
 30
0.0
 10
168.8495440202666
 20
61.57204046731656
 30
0.0
 10
168.1152730061087
 20
61.9959720349988
 30
0.0
 10
165.9255326413709
 20
63.26021922403553
 30
0.0
 10
164.483085030943
 20
64.09301674020804
 30
0.0
 10
163.0525945438797
 20
64.9189108079872
 30
0.0
  0
SPLINE
  5
125
330
1F
100
AcDbEntity
  8
0
  6
Continuous
 62
     7
370
    25
100
AcDbSpline
210
0.0
220
0.0
230
1.0
 70
    24
 71
     3
 72
    14
 73
    10
 74
     0
 42
0.00000001
 43
0.00000001
 40
0.0
 40
0.0
 40
0.0
 40
0.0
 40
0.25
 40
0.25
 40
0.5
 40
0.5
 40
0.75
 40
0.75
 40
1.0
 40
1.0
 40
1.0
 40
1.0
 10
163.0525945438797
 20
64.91891080798719
 30
0.0
 10
163.0525945438797
 20
66.56365677839536
 30
0.0
 10
163.0525945438797
 20
68.223581907043
 30
0.0
 10
163.0525945438797
 20
71.58781979310308
 30
0.0
 10
163.0525945438797
 20
73.2940415295529
 30
0.0
 10
163.0525945438797
 20
76.75584330537583
 30
0.0
 10
163.0525945438797
 20
78.45936963712178
 30
0.0
 10
163.0525945438797
 20
81.82208464536788
 30
0.0
 10
163.0525945438797
 20
83.48160386669522
 30
0.0
 10
163.0525945438797
 20
85.1261702296241
 30
0.0
  0
CIRCLE
  5
126
330
1F
100
AcDbEntity
  8
0
  6
Continuous
 62
     7
370
    25
100
AcDbCircle
 10
180.5525945439
 20
75.0225405188
 30
0.0
 40
17.25000000000003
  0
CIRCLE
  5
127
330
1F
100
AcDbEntity
  8
0
  6
Continuous
 62
     7
370
    25
100
AcDbCircle
 10
180.5525945439
 20
75.0225405188
 30
0.0
 40
15.75000000000003
  0
CIRCLE
  5
128
330
1F
100
AcDbEntity
  8
0
  6
Continuous
 62
     7
370
    25
100
AcDbCircle
 10
180.5525945439
 20
75.0225405188
 30
0.0
 40
15.50000000000003
  0
CIRCLE
  5
129
330
1F
100
AcDbEntity
  8
0
  6
Continuous
 62
     7
370
    25
100
AcDbCircle
 10
180.5525945439
 20
75.0225405188
 30
0.0
 40
15.25000000000003
  0
CIRCLE
  5
12A
330
1F
100
AcDbEntity
  8
0
  6
Continuous
 62
     7
370
    25
100
AcDbCircle
 10
180.5525945439
 20
75.0225405188
 30
0.0
 40
13.49999999999997
  0
CIRCLE
  5
12B
330
1F
100
AcDbEntity
  8
0
  6
Continuous
 62
     7
370
    25
100
AcDbCircle
 10
180.5525945439
 20
75.0225405188
 30
0.0
 40
12.37065558838177
  0
CIRCLE
  5
12C
330
1F
100
AcDbEntity
  8
0
  6
Continuous
 62
     7
370
    25
100
AcDbCircle
 10
180.5525945439
 20
75.0225405188
 30
0.0
 40
11.86033785575989
  0
CIRCLE
  5
12D
330
1F
100
AcDbEntity
  8
0
  6
Continuous
 62
     7
370
    25
100
AcDbCircle
 10
180.5525945439
 20
75.0225405188
 30
0.0
 40
11.50000000000003
  0
INSERT
  5
139
330
1F
100
AcDbEntity
  8
FORMAT
100
AcDbBlockReference
  2
SW_CENTERMARKSYMBOL_0
 10
180.5525945439
 20
75.0225405188
 30
0.0
  0
ARC
  5
13A
330
1F
100
AcDbEntity
  8
0
  6
Continuous
 62
     7
370
    18
100
AcDbCircle
 10
180.5525945439
 20
75.0225405188
 30
0.0
 40
13.36379127495858
100
AcDbArc
 50
75.0
 51
345.0
  0
LINE
  5
13B
330
1F
100
AcDbEntity
  8
0
  6
Continuous
 62
     7
370
    25
100
AcDbLine
 10
138.6762603032
 20
146.9445547055
 30
0.0
 11
138.5319227359
 21
146.6945547055
 31
0.0
  0
LINE
  5
13C
330
1F
100
AcDbEntity
  8
0
  6
Continuous
 62
     7
370
    25
100
AcDbLine
 10
138.5319227359
 20
112.1945547055
 30
0.0
 11
138.6762603032
 21
111.9445547055
 31
0.0
  0
LINE
  5
13D
330
1F
100
AcDbEntity
  8
0
  6
Continuous
 62
     7
370
    25
100
AcDbLine
 10
149.3875851686
 20
111.9445547055
 30
0.0
 11
149.5319227359
 21
112.1945547055
 31
0.0
  0
LINE
  5
13E
330
1F
100
AcDbEntity
  8
0
  6
Continuous
 62
     7
370
    25
100
AcDbLine
 10
149.5319227359
 20
146.6945547055
 30
0.0
 11
149.3875851686
 21
146.9445547055
 31
0.0
  0
LINE
  5
13F
330
1F
100
AcDbEntity
  8
0
  6
Continuous
 62
     7
370
    25
100
AcDbLine
 10
138.5319227359
 20
146.4318672055
 30
0.0
 11
119.8276773831
 21
145.8473595383
 31
0.0
  0
LINE
  5
140
330
1F
100
AcDbEntity
  8
0
  6
Continuous
 62
     7
370
    25
100
AcDbLine
 10
119.8276773831
 20
113.0417498728
 30
0.0
 11
138.5319227359
 21
112.4572422055
 31
0.0
  0
LINE
  5
141
330
1F
100
AcDbEntity
  8
0
  6
Continuous
 62
     7
370
    25
100
AcDbLine
 10
119.8276773831
 20
145.8473595383
 30
0.0
 11
116.5319227359
 21
143.9445547055
 31
0.0
  0
LINE
  5
142
330
1F
100
AcDbEntity
  8
0
  6
Continuous
 62
     7
370
    25
100
AcDbLine
 10
116.5319227359
 20
114.9445547055
 30
0.0
 11
119.8276773831
 21
113.0417498728
 31
0.0
  0
SPLINE
  5
143
330
1F
100
AcDbEntity
  8
0
  6
Continuous
 62
     7
370
    25
100
AcDbSpline
210
0.0
220
0.0
230
1.0
 70
     8
 71
     3
 72
    18
 73
    14
 74
     0
 42
0.00000001
 43
0.00000001
 40
0.0
 40
0.0
 40
0.0
 40
0.0
 40
0.2499999999999996
 40
0.2499999999999996
 40
0.4999999999999991
 40
0.4999999999999991
 40
0.5624999999999991
 40
0.5624999999999991
 40
0.6249999999999991
 40
0.6249999999999991
 40
0.7499999999999994
 40
0.7499999999999994
 40
1.0
 40
1.0
 40
1.0
 40
1.0
 10
140.2392972590411
 20
129.4445547055426
 30
0.0
 10
139.7630608091477
 20
130.8732640552228
 30
0.0
 10
139.3705558350999
 20
132.3123895295051
 30
0.0
 10
138.8268091052759
 20
135.2206534178641
 30
0.0
 10
138.6773609325114
 20
136.6900149521467
 30
0.0
 10
138.6759928346158
 20
138.5497857122566
 30
0.0
 10
138.6849175076889
 20
138.9236251173564
 30
0.0
 10
138.720876644085
 20
139.6679127812749
 30
0.0
 10
138.7478695218609
 20
140.0387636488506
 30
0.0
 10
138.8547178499505
 20
141.1476052291558
 30
0.0
 10
138.9605034768321
 20
141.8818762433137
 30
0.0
 10
139.3689905486461
 20
144.0716166080515
 30
0.0
 10
139.7624670966867
 20
145.5140642184795
 30
0.0
 10
140.2392972590412
 20
146.9445547055427
 30
0.0
  0
LINE
  5
144
330
1F
100
AcDbEntity
  8
0
  6
Continuous
 62
     7
370
    25
100
AcDbLine
 10
140.239297259
 20
146.9445547055
 30
0.0
 11
147.8245482128
 21
146.9445547055
 31
0.0
  0
SPLINE
  5
145
330
1F
100
AcDbEntity
  8
0
  6
Continuous
 62
     7
370
    25
100
AcDbSpline
210
0.0
220
0.0
230
1.0
 70
     8
 71
     3
 72
    18
 73
    14
 74
     0
 42
0.00000001
 43
0.00000001
 40
0.0
 40
0.0
 40
0.0
 40
0.0
 40
0.2499999999999996
 40
0.2499999999999996
 40
0.4999999999999991
 40
0.4999999999999991
 40
0.5624999999999991
 40
0.5624999999999991
 40
0.6249999999999991
 40
0.6249999999999991
 40
0.7499999999999994
 40
0.7499999999999994
 40
1.0
 40
1.0
 40
1.0
 40
1.0
 10
147.8245482127502
 20
129.4445547055426
 30
0.0
 10
148.3007846626436
 20
130.8732640552228
 30
0.0
 10
148.6932896366914
 20
132.3123895295051
 30
0.0
 10
149.2370363665153
 20
135.2206534178641
 30
0.0
 10
149.3864845392799
 20
136.6900149521467
 30
0.0
 10
149.3878526371755
 20
138.5497857122566
 30
0.0
 10
149.3789279641024
 20
138.9236251173564
 30
0.0
 10
149.3429688277063
 20
139.6679127812749
 30
0.0
 10
149.3159759499303
 20
140.0387636488506
 30
0.0
 10
149.2091276218408
 20
141.1476052291558
 30
0.0
 10
149.1033419949592
 20
141.8818762433137
 30
0.0
 10
148.6948549231452
 20
144.0716166080515
 30
0.0
 10
148.3013783751045
 20
145.5140642184795
 30
0.0
 10
147.8245482127501
 20
146.9445547055427
 30
0.0
  0
LINE
  5
146
330
1F
100
AcDbEntity
  8
0
  6
Continuous
 62
     7
370
    25
100
AcDbLine
 10
140.239297259
 20
129.4445547055
 30
0.0
 11
147.8245482128
 21
129.4445547055
 31
0.0
  0
SPLINE
  5
147
330
1F
100
AcDbEntity
  8
0
  6
Continuous
 62
     7
370
    25
100
AcDbSpline
210
0.0
220
0.0
230
1.0
 70
    24
 71
     3
 72
    13
 73
     9
 74
     0
 42
0.00000001
 43
0.00000001
 40
0.0
 40
0.0
 40
0.0
 40
0.0
 40
0.1587427395074892
 40
0.3248499032264132
 40
0.4908526096830553
 40
0.6605220556109567
 40
0.8302864759863259
 40
1.0
 40
1.0
 40
1.0
 40
1.0
 10
138.6782741919944
 20
111.9445547055427
 30
0.0
 10
138.6861390343537
 20
111.9445547055427
 30
0.0
 10
138.7022335863771
 20
111.9445547055427
 30
0.0
 10
138.8443338502107
 20
111.9445547055427
 30
0.0
 10
139.0701688601409
 20
111.9445547055427
 30
0.0
 10
139.3852335087151
 20
111.9445547055427
 30
0.0
 10
139.7723584682129
 20
111.9445547055427
 30
0.0
 10
140.0836665530934
 20
111.9445547055427
 30
0.0
 10
140.2392972590413
 20
111.9445547055427
 30
0.0
  0
SPLINE
  5
148
330
1F
100
AcDbEntity
  8
0
  6
Continuous
 62
     7
370
    25
100
AcDbSpline
210
0.0
220
0.0
230
1.0
 70
    24
 71
     3
 72
    14
 73
    10
 74
     0
 42
0.00000001
 43
0.00000001
 40
0.0
 40
0.0
 40
0.0
 40
0.0
 40
0.1639469055449046
 40
0.3279395409926725
 40
0.4918482763620393
 40
0.6587971852996386
 40
0.8258503269467583
 40
0.9927684684310456
 40
1.0
 40
1.0
 40
1.0
 40
1.0
 10
140.2392972590413
 20
146.9445547055427
 30
0.0
 10
140.0888002128805
 20
146.9445547055427
 30
0.0
 10
139.7877641422411
 20
146.9445547055427
 30
0.0
 10
139.4100701355571
 20
146.9445547055427
 30
0.0
 10
139.0962612581443
 20
146.9445547055427
 30
0.0
 10
138.859536213019
 20
146.9445547055427
 30
0.0
 10
138.7207104675886
 20
146.9445547055427
 30
0.0
 10
138.6615316288357
 20
146.9445547055427
 30
0.0
 10
138.6776066786526
 20
146.9445547055427
 30
0.0
 10
138.6782741919944
 20
146.9445547055427
 30
0.0
  0
SPLINE
  5
149
330
1F
100
AcDbEntity
  8
0
  6
Continuous
 62
     7
370
    25
100
AcDbSpline
210
0.0
220
0.0
230
1.0
 70
     8
 71
     3
 72
    18
 73
    14
 74
     0
 42
0.00000001
 43
0.00000001
 40
0.0
 40
0.0
 40
0.0
 40
0.0
 40
0.2500000000000004
 40
0.2500000000000004
 40
0.5000000000000009
 40
0.5000000000000009
 40
0.562500000000001
 40
0.562500000000001
 40
0.625000000000001
 40
0.625000000000001
 40
0.7500000000000007
 40
0.7500000000000007
 40
1.0
 40
1.0
 40
1.0
 40
1.0
 10
140.2392972590411
 20
111.9445547055427
 30
0.0
 10
139.7630608091477
 20
113.3732640552228
 30
0.0
 10
139.3705558350999
 20
114.8123895295052
 30
0.0
 10
138.8268091052759
 20
117.7206534178641
 30
0.0
 10
138.6773609325114
 20
119.1900149521467
 30
0.0
 10
138.6759928346158
 20
121.0497857122566
 30
0.0
 10
138.6849175076889
 20
121.4236251173564
 30
0.0
 10
138.720876644085
 20
122.1679127812749
 30
0.0
 10
138.7478695218609
 20
122.5387636488506
 30
0.0
 10
138.8547178499505
 20
123.6476052291558
 30
0.0
 10
138.9605034768321
 20
124.3818762433137
 30
0.0
 10
139.3689905486461
 20
126.5716166080515
 30
0.0
 10
139.7624670966867
 20
128.0140642184795
 30
0.0
 10
140.2392972590412
 20
129.4445547055427
 30
0.0
  0
LINE
  5
14A
330
1F
100
AcDbEntity
  8
0
  6
Continuous
 62
     7
370
    25
100
AcDbLine
 10
138.5319227359
 20
112.1945547055
 30
0.0
 11
138.5319227359
 21
146.6945547055
 31
0.0
  0
SPLINE
  5
14B
330
1F
100
AcDbEntity
  8
0
  6
Continuous
 62
     7
370
    25
100
AcDbSpline
210
0.0
220
0.0
230
1.0
 70
     8
 71
     3
 72
    18
 73
    14
 74
     0
 42
0.00000001
 43
0.00000001
 40
0.0
 40
0.0
 40
0.0
 40
0.0
 40
0.2500000000000004
 40
0.2500000000000004
 40
0.5000000000000009
 40
0.5000000000000009
 40
0.562500000000001
 40
0.562500000000001
 40
0.625000000000001
 40
0.625000000000001
 40
0.7500000000000007
 40
0.7500000000000007
 40
1.0
 40
1.0
 40
1.0
 40
1.0
 10
147.8245482127502
 20
111.9445547055427
 30
0.0
 10
148.3007846626436
 20
113.3732640552228
 30
0.0
 10
148.6932896366914
 20
114.8123895295052
 30
0.0
 10
149.2370363665153
 20
117.7206534178641
 30
0.0
 10
149.3864845392799
 20
119.1900149521467
 30
0.0
 10
149.3878526371755
 20
121.0497857122566
 30
0.0
 10
149.3789279641024
 20
121.4236251173564
 30
0.0
 10
149.3429688277063
 20
122.1679127812749
 30
0.0
 10
149.3159759499303
 20
122.5387636488506
 30
0.0
 10
149.2091276218408
 20
123.6476052291558
 30
0.0
 10
149.1033419949592
 20
124.3818762433137
 30
0.0
 10
148.6948549231452
 20
126.5716166080515
 30
0.0
 10
148.3013783751045
 20
128.0140642184795
 30
0.0
 10
147.8245482127501
 20
129.4445547055427
 30
0.0
  0
SPLINE
  5
14C
330
1F
100
AcDbEntity
  8
0
  6
Continuous
 62
     7
370
    25
100
AcDbSpline
210
0.0
220
0.0
230
1.0
 70
    24
 71
     3
 72
    14
 73
    10
 74
     0
 42
0.00000001
 43
0.00000001
 40
0.0
 40
0.0
 40
0.0
 40
0.0
 40
0.1639469055449046
 40
0.3279395409926725
 40
0.4918482763620393
 40
0.6587971852996386
 40
0.8258503269467583
 40
0.9927684684310456
 40
1.0
 40
1.0
 40
1.0
 40
1.0
 10
147.82454821275
 20
146.9445547055427
 30
0.0
 10
147.9750452589108
 20
146.9445547055427
 30
0.0
 10
148.2760813295502
 20
146.9445547055427
 30
0.0
 10
148.6537753362342
 20
146.9445547055427
 30
0.0
 10
148.967584213647
 20
146.9445547055427
 30
0.0
 10
149.2043092587723
 20
146.9445547055427
 30
0.0
 10
149.3431350042028
 20
146.9445547055427
 30
0.0
 10
149.4023138429556
 20
146.9445547055427
 30
0.0
 10
149.3862387931386
 20
146.9445547055427
 30
0.0
 10
149.3855712797969
 20
146.9445547055427
 30
0.0
  0
SPLINE
  5
14D
330
1F
100
AcDbEntity
  8
0
  6
Continuous
 62
     7
370
    25
100
AcDbSpline
210
0.0
220
0.0
230
1.0
 70
    24
 71
     3
 72
    13
 73
     9
 74
     0
 42
0.00000001
 43
0.00000001
 40
0.0
 40
0.0
 40
0.0
 40
0.0
 40
0.1587427395074892
 40
0.3248499032264132
 40
0.4908526096830553
 40
0.6605220556109567
 40
0.8302864759863259
 40
1.0
 40
1.0
 40
1.0
 40
1.0
 10
149.3855712797969
 20
111.9445547055427
 30
0.0
 10
149.3777064374375
 20
111.9445547055427
 30
0.0
 10
149.3616118854142
 20
111.9445547055427
 30
0.0
 10
149.2195116215806
 20
111.9445547055427
 30
0.0
 10
148.9936766116504
 20
111.9445547055427
 30
0.0
 10
148.6786119630762
 20
111.9445547055427
 30
0.0
 10
148.2914870035784
 20
111.9445547055427
 30
0.0
 10
147.9801789186979
 20
111.9445547055427
 30
0.0
 10
147.82454821275
 20
111.9445547055427
 30
0.0
  0
LINE
  5
14E
330
1F
100
AcDbEntity
  8
0
  6
Continuous
 62
     7
370
    25
100
AcDbLine
 10
149.5319227359
 20
112.1945547055
 30
0.0
 11
149.5319227359
 21
146.6945547055
 31
0.0
  0
LINE
  5
14F
330
1F
100
AcDbEntity
  8
0
  6
Continuous
 62
     7
370
    25
100
AcDbLine
 10
140.239297259
 20
111.9445547055
 30
0.0
 11
147.8245482128
 21
111.9445547055
 31
0.0
  0
LINE
  5
150
330
1F
100
AcDbEntity
  8
0
  6
Continuous
 62
     7
370
    25
100
AcDbLine
 10
119.8276773831
 20
129.4445547055
 30
0.0
 11
119.8276773831
 21
145.8473595383
 31
0.0
  0
LINE
  5
151
330
1F
100
AcDbEntity
  8
0
  6
Continuous
 62
     7
370
    25
100
AcDbLine
 10
119.8276773831
 20
113.0417498728
 30
0.0
 11
119.8276773831
 21
129.4445547055
 31
0.0
  0
LINE
  5
152
330
1F
100
AcDbEntity
  8
0
  6
Continuous
 62
     7
370
    25
100
AcDbLine
 10
116.5319227359
 20
114.9445547055
 30
0.0
 11
116.5319227359
 21
143.9445547055
 31
0.0
  0
LINE
  5
153
330
1F
100
AcDbEntity
  8
0
  6
Continuous
 62
     7
370
    18
100
AcDbLine
 10
116.9787411702
 20
144.2025254489
 30
0.0
 11
136.2319227359
 21
144.8041873728
 31
0.0
  0
LINE
  5
154
330
1F
100
AcDbEntity
  8
0
  6
Continuous
 62
     7
370
    18
100
AcDbLine
 10
116.9787411702
 20
114.6865839622
 30
0.0
 11
136.2319227359
 21
114.0849220383
 31
0.0
  0
LINE
  5
155
330
1F
100
AcDbEntity
  8
0
  6
Continuous
 62
     7
370
    25
100
AcDbLine
 10
136.2319227359
 20
112.5291172055
 30
0.0
 11
136.2319227359
 21
146.3599922055
 31
0.0
  0
LINE
  5
156
330
1F
100
AcDbEntity
  8
FORMAT
  6
CENTERX2
370
    18
100
AcDbLine
 10
151.1991370651
 20
129.4445547055
 30
0.0
 11
114.5319227359
 21
129.4445547055
 31
0.0
  0
ENDSEC
  0
SECTION
  2
OBJECTS
  0
DICTIONARY
  5
C
330
0
100
AcDbDictionary
281
     1
  3
ACAD_GROUP
350
D
  3
ACAD_LAYOUT
350
1A
  3
ACAD_MLINESTYLE
350
17
  3
ACAD_PLOTSETTINGS
350
19
  3
ACAD_PLOTSTYLENAME
350
E
  3
ACAD_SCALELIST
350
47
  3
DWGPROPS
350
157
  0
DICTIONARY
  5
D
102
{ACAD_REACTORS
330
C
102
}
330
C
100
AcDbDictionary
281
     1
  0
DICTIONARY
  5
1A
102
{ACAD_REACTORS
330
C
102
}
330
C
100
AcDbDictionary
281
     1
  3
Layout1
350
1E
  3
Layout2
350
26
  3
Model
350
22
  0
DICTIONARY
  5
17
102
{ACAD_REACTORS
330
C
102
}
330
C
100
AcDbDictionary
281
     1
  3
Standard
350
18
  0
DICTIONARY
  5
19
102
{ACAD_REACTORS
330
C
102
}
330
C
100
AcDbDictionary
281
     1
  0
ACDBDICTIONARYWDFLT
  5
E
102
{ACAD_REACTORS
330
C
102
}
330
C
100
AcDbDictionary
281
     1
  3
Normal
350
F
100
AcDbDictionaryWithDefault
340
F
  0
DICTIONARY
  5
47
102
{ACAD_REACTORS
330
C
102
}
330
C
100
AcDbDictionary
281
     1
  3
A0
350
48
  3
A1
350
49
  3
A2
350
4A
  3
A3
350
4B
  3
A4
350
4C
  3
A5
350
4D
  3
A6
350
4E
  3
A7
350
4F
  3
A8
350
50
  3
A9
350
51
  3
B0
350
52
  3
B1
350
53
  3
B2
350
54
  3
B3
350
55
  3
B4
350
56
  3
B5
350
57
  3
B6
350
58
  0
XRECORD
  5
157
102
{ACAD_REACTORS
330
C
102
}
330
C
100
AcDbXrecord
280
     1
  1
DWGPROPS COOKIE
  2

  3

  4

  6

  7

  8
user28
  9

300
=
301
=
302
=
303
=
304
=
305
=
306
=
307
=
308
=
309
=
 40
0.0
 41
2460406.308676366
 42
2460406.308676898
  1

 90
        0
  0
LAYOUT
  5
1E
102
{ACAD_REACTORS
330
1A
102
}
330
1A
100
AcDbPlotSettings
  1

  2
none_device
  4

  6

 40
0.0
 41
0.0
 42
0.0
 43
0.0
 44
0.0
 45
0.0
 46
0.0
 47
0.0
 48
0.0
 49
0.0
140
0.0
141
0.0
142
1.0
143
1.0
 70
   688
 72
     1
 73
     0
 74
     5
  7

 75
    16
147
1.0
148
0.0
149
0.0
100
AcDbLayout
  1
Layout1
 70
     1
 71
     1
 10
0.0
 20
0.0
 11
420.0
 21
297.0
 12
0.0
 22
0.0
 32
0.0
 14
1.0000000000E+20
 24
1.0000000000E+20
 34
1.0000000000E+20
 15
-1.0000000000E+20
 25
-1.0000000000E+20
 35
-1.0000000000E+20
146
0.0
 13
0.0
 23
0.0
 33
0.0
 16
1.0
 26
0.0
 36
0.0
 17
0.0
 27
1.0
 37
0.0
 76
     0
330
1B
  0
LAYOUT
  5
26
102
{ACAD_REACTORS
330
1A
102
}
330
1A
100
AcDbPlotSettings
  1

  2
none_device
  4

  6

 40
0.0
 41
0.0
 42
0.0
 43
0.0
 44
0.0
 45
0.0
 46
0.0
 47
0.0
 48
0.0
 49
0.0
140
0.0
141
0.0
142
1.0
143
1.0
 70
   688
 72
     1
 73
     0
 74
     5
  7

 75
    16
147
1.0
148
0.0
149
0.0
100
AcDbLayout
  1
Layout2
 70
     1
 71
     2
 10
0.0
 20
0.0
 11
0.0
 21
0.0
 12
0.0
 22
0.0
 32
0.0
 14
0.0
 24
0.0
 34
0.0
 15
0.0
 25
0.0
 35
0.0
146
0.0
 13
0.0
 23
0.0
 33
0.0
 16
1.0
 26
0.0
 36
0.0
 17
0.0
 27
1.0
 37
0.0
 76
     0
330
23
  0
LAYOUT
  5
22
102
{ACAD_REACTORS
330
1A
102
}
330
1A
100
AcDbPlotSettings
  1

  2
none_device
  4
Letter_(8.50_x_11.00_Inches)
  6

 40
6.35
 41
6.35
 42
6.35000508
 43
6.35000508
 44
215.9
 45
279.4
 46
0.0
 47
0.0
 48
0.0
 49
0.0
140
0.0
141
0.0
142
1.0
143
1.0
 70
  1712
 72
     1
 73
     0
 74
     0
  7

 75
     0
147
1.0
148
0.0
149
0.0
100
AcDbLayout
  1
Model
 70
     1
 71
     0
 10
0.0
 20
0.0
 11
297.0
 21
210.0
 12
0.0
 22
0.0
 32
0.0
 14
0.0
 24
0.0
 34
0.0
 15
297.0
 25
210.0
 35
0.0
146
0.0
 13
0.0
 23
0.0
 33
0.0
 16
1.0
 26
0.0
 36
0.0
 17
0.0
 27
1.0
 37
0.0
 76
     0
330
1F
331
29
  0
MLINESTYLE
  5
18
102
{ACAD_REACTORS
330
17
102
}
330
17
100
AcDbMlineStyle
  2
Standard
 70
     0
  3

 62
   256
 51
90.0
 52
90.0
 71
     2
 49
0.5
 62
   256
  6
BYLAYER
 49
-0.5
 62
   256
  6
BYLAYER
  0
ACDBPLACEHOLDER
  5
F
102
{ACAD_REACTORS
330
E
102
}
330
E
  0
SCALE
  5
48
102
{ACAD_REACTORS
330
47
102
}
330
47
100
AcDbScale
 70
     0
300
1:1
140
1.0
141
1.0
290
     1
  0
SCALE
  5
49
102
{ACAD_REACTORS
330
47
102
}
330
47
100
AcDbScale
 70
     0
300
1:2
140
1.0
141
2.0
290
     0
  0
SCALE
  5
4A
102
{ACAD_REACTORS
330
47
102
}
330
47
100
AcDbScale
 70
     0
300
1:4
140
1.0
141
4.0
290
     0
  0
SCALE
  5
4B
102
{ACAD_REACTORS
330
47
102
}
330
47
100
AcDbScale
 70
     0
300
1:5
140
1.0
141
5.0
290
     0
  0
SCALE
  5
4C
102
{ACAD_REACTORS
330
47
102
}
330
47
100
AcDbScale
 70
     0
300
1:8
140
1.0
141
8.0
290
     0
  0
SCALE
  5
4D
102
{ACAD_REACTORS
330
47
102
}
330
47
100
AcDbScale
 70
     0
300
1:10
140
1.0
141
10.0
290
     0
  0
SCALE
  5
4E
102
{ACAD_REACTORS
330
47
102
}
330
47
100
AcDbScale
 70
     0
300
1:16
140
1.0
141
16.0
290
     0
  0
SCALE
  5
4F
102
{ACAD_REACTORS
330
47
102
}
330
47
100
AcDbScale
 70
     0
300
1:20
140
1.0
141
20.0
290
     0
  0
SCALE
  5
50
102
{ACAD_REACTORS
330
47
102
}
330
47
100
AcDbScale
 70
     0
300
1:30
140
1.0
141
30.0
290
     0
  0
SCALE
  5
51
102
{ACAD_REACTORS
330
47
102
}
330
47
100
AcDbScale
 70
     0
300
1:40
140
1.0
141
40.0
290
     0
  0
SCALE
  5
52
102
{ACAD_REACTORS
330
47
102
}
330
47
100
AcDbScale
 70
     0
300
1:50
140
1.0
141
50.0
290
     0
  0
SCALE
  5
53
102
{ACAD_REACTORS
330
47
102
}
330
47
100
AcDbScale
 70
     0
300
1:100
140
1.0
141
100.0
290
     0
  0
SCALE
  5
54
102
{ACAD_REACTORS
330
47
102
}
330
47
100
AcDbScale
 70
     0
300
2:1
140
2.0
141
1.0
290
     0
  0
SCALE
  5
55
102
{ACAD_REACTORS
330
47
102
}
330
47
100
AcDbScale
 70
     0
300
4:1
140
4.0
141
1.0
290
     0
  0
SCALE
  5
56
102
{ACAD_REACTORS
330
47
102
}
330
47
100
AcDbScale
 70
     0
300
8:1
140
8.0
141
1.0
290
     0
  0
SCALE
  5
57
102
{ACAD_REACTORS
330
47
102
}
330
47
100
AcDbScale
 70
     0
300
10:1
140
10.0
141
1.0
290
     0
  0
SCALE
  5
58
102
{ACAD_REACTORS
330
47
102
}
330
47
100
AcDbScale
 70
     0
300
100:1
140
100.0
141
1.0
290
     0
  0
ENDSEC
  0
EOF
