  0
SECTION
  2
HEADER
  9
$ACADVER
  1
AC1015
  9
$ACADMAINTVER
 70
     6
  9
$DWGCODEPAGE
  3
DOS932
  9
$INSBASE
 10
0.0
 20
0.0
 30
0.0
  9
$EXTMIN
 10
0.0
 20
0.0
 30
0.0
  9
$EXTMAX
 10
148.5
 20
105.0
 30
0.0
  9
$LIMMIN
 10
0.0
 20
0.0
  9
$LIMMAX
 10
148.5
 20
105.0
  9
$ORTHOMODE
 70
     0
  9
$REGENMODE
 70
     1
  9
$FILLMODE
 70
     1
  9
$QTEXTMODE
 70
     0
  9
$MIRRTEXT
 70
     1
  9
$LTSCALE
 40
0.5
  9
$ATTMODE
 70
     1
  9
$TEXTSIZE
 40
1.7638888889
  9
$TRACEWID
 40
1.0
  9
$TEXTSTYLE
  7
Standard
  9
$CLAYER
  8
0
  9
$CELTYPE
  6
ByLayer
  9
$CECOLOR
 62
   256
  9
$CELTSCALE
 40
1.0
  9
$DISPSILH
 70
     0
  9
$DIMSCALE
 40
1.0
  9
$DIMASZ
 40
1.3642578125
  9
$DIMEXO
 40
0.5
  9
$DIMDLI
 40
3.75
  9
$DIMRND
 40
0.0
  9
$DIMDLE
 40
0.0
  9
$DIMEXE
 40
0.5
  9
$DIMTP
 40
0.0
  9
$DIMTM
 40
0.0
  9
$DIMTXT
 40
1.7638888889
  9
$DIMCEN
 40
2.5
  9
$DIMTSZ
 40
0.0
  9
$DIMTOL
 70
     0
  9
$DIMLIM
 70
     0
  9
$DIMTIH
 70
     1
  9
$DIMTOH
 70
     1
  9
$DIMSE1
 70
     0
  9
$DIMSE2
 70
     0
  9
$DIMTAD
 70
     1
  9
$DIMZIN
 70
     0
  9
$DIMBLK
  1

  9
$DIMASO
 70
     1
  9
$DIMSHO
 70
     1
  9
$DIMPOST
  1

  9
$DIMAPOST
  1

  9
$DIMALT
 70
     0
  9
$DIMALTD
 70
     3
  9
$DIMALTF
 40
0.0393700787
  9
$DIMLFAC
 40
1.0
  9
$DIMTOFL
 70
     1
  9
$DIMTVP
 40
0.0
  9
$DIMTIX
 70
     0
  9
$DIMSOXD
 70
     0
  9
$DIMSAH
 70
     0
  9
$DIMBLK1
  1

  9
$DIMBLK2
  1

  9
$DIMSTYLE
  2
ISO-25
  9
$DIMCLRD
 70
     0
  9
$DIMCLRE
 70
     0
  9
$DIMCLRT
 70
     0
  9
$DIMTFAC
 40
1.0
  9
$DIMGAP
 40
0.762
  9
$DIMJUST
 70
     0
  9
$DIMSD1
 70
     0
  9
$DIMSD2
 70
     0
  9
$DIMTOLJ
 70
     0
  9
$DIMTZIN
 70
     0
  9
$DIMALTZ
 70
     0
  9
$DIMALTTZ
 70
     0
  9
$DIMUPT
 70
     0
  9
$DIMDEC
 70
     2
  9
$DIMTDEC
 70
     2
  9
$DIMALTU
 70
     2
  9
$DIMALTTD
 70
     3
  9
$DIMTXSTY
  7
Standard
  9
$DIMAUNIT
 70
     0
  9
$DIMADEC
 70
     2
  9
$DIMALTRND
 40
0.0
  9
$DIMAZIN
 70
     0
  9
$DIMDSEP
 70
    44
  9
$DIMATFIT
 70
     3
  9
$DIMFRAC
 70
     0
  9
$DIMLDRBLK
  1

  9
$DIMLUNIT
 70
     2
  9
$DIMLWD
 70
    -2
  9
$DIMLWE
 70
    -2
  9
$DIMTMOVE
 70
     0
  9
$LUNITS
 70
     2
  9
$LUPREC
 70
     2
  9
$SKETCHINC
 40
1.0
  9
$FILLETRAD
 40
0.0
  9
$AUNITS
 70
     0
  9
$AUPREC
 70
     2
  9
$MENU
  1
.
  9
$ELEVATION
 40
0.0
  9
$PELEVATION
 40
0.0
  9
$THICKNESS
 40
0.0
  9
$LIMCHECK
 70
     0
  9
$CHAMFERA
 40
0.0
  9
$CHAMFERB
 40
0.0
  9
$CHAMFERC
 40
0.0
  9
$CHAMFERD
 40
0.0
  9
$SKPOLY
 70
     0
  9
$TDCREATE
 40
2460406.680354329
  9
$TDUCREATE
 40
2460406.305354329
  9
$TDUPDATE
 40
2460406.680354873
  9
$TDUUPDATE
 40
2460406.305354873
  9
$TDINDWG
 40
0.0000000116
  9
$TDUSRTIMER
 40
0.0000000116
  9
$USRTIMER
 70
     1
  9
$ANGBASE
 50
0.0
  9
$ANGDIR
 70
     0
  9
$PDMODE
 70
     0
  9
$PDSIZE
 40
-1.0
  9
$PLINEWID
 40
0.0
  9
$SPLFRAME
 70
     0
  9
$SPLINETYPE
 70
     6
  9
$SPLINESEGS
 70
     8
  9
$HANDSEED
  5
150
  9
$SURFTAB1
 70
     6
  9
$SURFTAB2
 70
     6
  9
$SURFTYPE
 70
     6
  9
$SURFU
 70
     6
  9
$SURFV
 70
     6
  9
$UCSBASE
  2

  9
$UCSNAME
  2

  9
$UCSORG
 10
0.0
 20
0.0
 30
0.0
  9
$UCSXDIR
 10
1.0
 20
0.0
 30
0.0
  9
$UCSYDIR
 10
0.0
 20
1.0
 30
0.0
  9
$UCSORTHOREF
  2

  9
$UCSORTHOVIEW
 70
     0
  9
$UCSORGTOP
 10
0.0
 20
0.0
 30
0.0
  9
$UCSORGBOTTOM
 10
0.0
 20
0.0
 30
0.0
  9
$UCSORGLEFT
 10
0.0
 20
0.0
 30
0.0
  9
$UCSORGRIGHT
 10
0.0
 20
0.0
 30
0.0
  9
$UCSORGFRONT
 10
0.0
 20
0.0
 30
0.0
  9
$UCSORGBACK
 10
0.0
 20
0.0
 30
0.0
  9
$PUCSBASE
  2

  9
$PUCSNAME
  2

  9
$PUCSORG
 10
0.0
 20
0.0
 30
0.0
  9
$PUCSXDIR
 10
1.0
 20
0.0
 30
0.0
  9
$PUCSYDIR
 10
0.0
 20
1.0
 30
0.0
  9
$PUCSORTHOREF
  2

  9
$PUCSORTHOVIEW
 70
     0
  9
$PUCSORGTOP
 10
0.0
 20
0.0
 30
0.0
  9
$PUCSORGBOTTOM
 10
0.0
 20
0.0
 30
0.0
  9
$PUCSORGLEFT
 10
0.0
 20
0.0
 30
0.0
  9
$PUCSORGRIGHT
 10
0.0
 20
0.0
 30
0.0
  9
$PUCSORGFRONT
 10
0.0
 20
0.0
 30
0.0
  9
$PUCSORGBACK
 10
0.0
 20
0.0
 30
0.0
  9
$USERI1
 70
     0
  9
$USERI2
 70
     0
  9
$USERI3
 70
     0
  9
$USERI4
 70
     0
  9
$USERI5
 70
     0
  9
$USERR1
 40
0.0
  9
$USERR2
 40
0.0
  9
$USERR3
 40
0.0
  9
$USERR4
 40
0.0
  9
$USERR5
 40
0.0
  9
$WORLDVIEW
 70
     1
  9
$SHADEDGE
 70
     3
  9
$SHADEDIF
 70
    70
  9
$TILEMODE
 70
     1
  9
$MAXACTVP
 70
    64
  9
$PINSBASE
 10
0.0
 20
0.0
 30
0.0
  9
$PLIMCHECK
 70
     0
  9
$PEXTMIN
 10
1.0000000000E+20
 20
1.0000000000E+20
 30
1.0000000000E+20
  9
$PEXTMAX
 10
-1.0000000000E+20
 20
-1.0000000000E+20
 30
-1.0000000000E+20
  9
$PLIMMIN
 10
0.0
 20
0.0
  9
$PLIMMAX
 10
420.0
 20
297.0
  9
$UNITMODE
 70
     0
  9
$VISRETAIN
 70
     1
  9
$PLINEGEN
 70
     0
  9
$PSLTSCALE
 70
     1
  9
$TREEDEPTH
 70
  3020
  9
$CMLSTYLE
  2
Standard
  9
$CMLJUST
 70
     0
  9
$CMLSCALE
 40
20.0
  9
$PROXYGRAPHICS
 70
     1
  9
$MEASUREMENT
 70
     1
  9
$CELWEIGHT
370
    -1
  9
$ENDCAPS
280
     0
  9
$JOINSTYLE
280
     0
  9
$LWDISPLAY
290
     1
  9
$INSUNITS
 70
     4
  9
$HYPERLINKBASE
  1

  9
$STYLESHEET
  1

  9
$XEDIT
290
     1
  9
$CEPSNTYPE
380
     0
  9
$PSTYLEMODE
290
     1
  9
$FINGERPRINTGUID
  2
{e02c5384-ba2b-4dd8-9866-2339c1829c80}
  9
$VERSIONGUID
  2
{FAEB1C32-E019-11D5-929B-00C0DF256EC4}
  9
$EXTNAMES
290
     1
  9
$PSVPSCALE
 40
0.0
  9
$OLESTARTUP
290
     0
  0
ENDSEC
  0
SECTION
  2
CLASSES
  0
CLASS
  1
ACDBDICTIONARYWDFLT
  2
AcDbDictionaryWithDefault
  3
ObjectDBX Classes
 90
        0
280
     0
281
     0
  0
CLASS
  1
VISUALSTYLE
  2
AcDbVisualStyle
  3
ObjectDBX Classes
 90
     4095
280
     0
281
     0
  0
CLASS
  1
MATERIAL
  2
AcDbMaterial
  3
ObjectDBX Classes
 90
     1153
280
     0
281
     0
  0
CLASS
  1
SCALE
  2
AcDbScale
  3
ObjectDBX Classes
 90
     1153
280
     0
281
     0
  0
CLASS
  1
TABLESTYLE
  2
AcDbTableStyle
  3
ObjectDBX Classes
 90
     4095
280
     0
281
     0
  0
CLASS
  1
MLEADERSTYLE
  2
AcDbMLeaderStyle
  3
ACDB_MLEADERSTYLE_CLASS
 90
     4095
280
     0
281
     0
  0
CLASS
  1
SUN
  2
AcDbSun
  3
SCENEOE
 90
     1153
280
     0
281
     0
  0
CLASS
  1
ACDBPLACEHOLDER
  2
AcDbPlaceHolder
  3
ObjectDBX Classes
 90
        0
280
     0
281
     0
  0
CLASS
  1
LAYOUT
  2
AcDbLayout
  3
ObjectDBX Classes
 90
        0
280
     0
281
     0
  0
ENDSEC
  0
SECTION
  2
TABLES
  0
TABLE
  2
VPORT
  5
8
330
0
100
AcDbSymbolTable
 70
     1
  0
VPORT
  5
29
330
8
100
AcDbSymbolTableRecord
100
AcDbViewportTableRecord
  2
*Active
 70
     0
 10
0.0
 20
0.0
 11
1.0
 21
1.0
 12
74.25
 22
52.5
 13
0.0
 23
0.0
 14
10.0
 24
10.0
 15
10.0
 25
10.0
 16
0.0
 26
0.0
 36
1.0
 17
0.0
 27
0.0
 37
0.0
 40
105.0
 41
1.4142857143
 42
50.0
 43
0.0
 44
0.0
 50
0.0
 51
0.0
 71
     0
 72
  2000
 73
     1
 74
     3
 75
     0
 76
     0
 77
     0
 78
     0
281
     0
 65
     1
110
0.0
120
0.0
130
0.0
111
1.0
121
0.0
131
0.0
112
0.0
122
1.0
132
0.0
 79
     0
146
0.0
  0
ENDTAB
  0
TABLE
  2
LTYPE
  5
5
330
0
100
AcDbSymbolTable
 70
     6
  0
LTYPE
  5
14
330
5
100
AcDbSymbolTableRecord
100
AcDbLinetypeTableRecord
  2
ByBlock
 70
     0
  3

 72
    65
 73
     0
 40
0.0
  0
LTYPE
  5
15
330
5
100
AcDbSymbolTableRecord
100
AcDbLinetypeTableRecord
  2
ByLayer
 70
     0
  3

 72
    65
 73
     0
 40
0.0
  0
LTYPE
  5
16
330
5
100
AcDbSymbolTableRecord
100
AcDbLinetypeTableRecord
  2
Continuous
 70
     0
  3
Solid line
 72
    65
 73
     0
 40
0.0
  0
LTYPE
  5
5E
330
5
100
AcDbSymbolTableRecord
100
AcDbLinetypeTableRecord
  2
HIDDEN
 70
     0
  3
Hidden __ __ __ __ __ __ __ __ __ __ __ __ __ __
 72
    65
 73
     2
 40
1.905
 49
1.27
 74
     0
 49
-0.635
 74
     0
  0
LTYPE
  5
5F
330
5
100
AcDbSymbolTableRecord
100
AcDbLinetypeTableRecord
  2
PHANTOM
 70
     0
  3
Phantom ______  __  __  ______  __  __  ______
 72
    65
 73
     6
 40
12.7
 49
6.35
 74
     0
 49
-1.27
 74
     0
 49
1.27
 74
     0
 49
-1.27
 74
     0
 49
1.27
 74
     0
 49
-1.27
 74
     0
  0
LTYPE
  5
60
330
5
100
AcDbSymbolTableRecord
100
AcDbLinetypeTableRecord
  2
CENTER
 70
     0
  3
Center ____ _ ____ _ ____ _ ____ _ ____ _ ____
 72
    65
 73
     4
 40
10.16
 49
6.35
 74
     0
 49
-1.27
 74
     0
 49
1.27
 74
     0
 49
-1.27
 74
     0
  0
LTYPE
  5
61
330
5
100
AcDbSymbolTableRecord
100
AcDbLinetypeTableRecord
  2
CENTERX2
 70
     0
  3
Center (2x) ________  __  ________  __  _____
 72
    65
 73
     4
 40
20.32
 49
12.7
 74
     0
 49
-2.54
 74
     0
 49
2.54
 74
     0
 49
-2.54
 74
     0
  0
LTYPE
  5
62
330
5
100
AcDbSymbolTableRecord
100
AcDbLinetypeTableRecord
  2
DOT2
 70
     0
  3
Dot (.5x) ........................................
 72
    65
 73
     2
 40
0.635
 49
0.0
 74
     0
 49
-0.635
 74
     0
  0
ENDTAB
  0
TABLE
  2
LAYER
  5
2
330
0
100
AcDbSymbolTable
 70
     2
  0
LAYER
  5
10
330
2
100
AcDbSymbolTableRecord
100
AcDbLayerTableRecord
  2
0
 70
     0
 62
     7
  6
Continuous
370
    -3
390
F
  0
LAYER
  5
63
330
2
100
AcDbSymbolTableRecord
100
AcDbLayerTableRecord
  2
FORMAT
 70
     0
 62
     7
  6
Continuous
370
    -3
390
F
  0
ENDTAB
  0
TABLE
  2
STYLE
  5
3
330
0
100
AcDbSymbolTable
 70
     2
  0
STYLE
  5
11
330
3
100
AcDbSymbolTableRecord
100
AcDbTextStyleTableRecord
  2
Standard
 70
     0
 40
0.0
 41
1.0
 50
0.0
 71
     0
 42
1.7638888889
  3
txt
  4
bigfont
  0
STYLE
  5
64
330
3
100
AcDbSymbolTableRecord
100
AcDbTextStyleTableRecord
  2
SLDTEXTSTYLE0
 70
     0
 40
0.0
 41
0.7
 50
0.0
 71
     0
 42
1.7638888889
  3
TXT
  4
bigfont
  0
ENDTAB
  0
TABLE
  2
VIEW
  5
6
330
0
100
AcDbSymbolTable
 70
     0
  0
ENDTAB
  0
TABLE
  2
UCS
  5
7
330
0
100
AcDbSymbolTable
 70
     0
  0
ENDTAB
  0
TABLE
  2
APPID
  5
9
330
0
100
AcDbSymbolTable
 70
     1
  0
APPID
  5
12
330
9
100
AcDbSymbolTableRecord
100
AcDbRegAppTableRecord
  2
ACAD
 70
     0
  0
ENDTAB
  0
TABLE
  2
DIMSTYLE
  5
A
330
0
100
AcDbSymbolTable
 70
     1
100
AcDbDimStyleTable
  0
DIMSTYLE
105
27
330
A
100
AcDbSymbolTableRecord
100
AcDbDimStyleTableRecord
  2
ISO-25
 70
     0
 41
2.5
 42
0.625
 43
3.75
 44
1.25
 73
     0
 74
     0
 77
     1
 78
     8
140
2.5
141
2.5
143
0.0393700787
147
0.625
171
     3
172
     1
178
     0
271
     2
272
     2
274
     3
278
    44
283
     0
284
     8
340
11
  0
ENDTAB
  0
TABLE
  2
BLOCK_RECORD
  5
1
330
0
100
AcDbSymbolTable
 70
     2
  0
BLOCK_RECORD
  5
1F
330
1
100
AcDbSymbolTableRecord
100
AcDbBlockTableRecord
  2
*Model_Space
340
22
  0
BLOCK_RECORD
  5
1B
330
1
100
AcDbSymbolTableRecord
100
AcDbBlockTableRecord
  2
*Paper_Space
340
1E
  0
BLOCK_RECORD
  5
23
330
1
100
AcDbSymbolTableRecord
100
AcDbBlockTableRecord
  2
*Paper_Space0
340
26
  0
BLOCK_RECORD
  5
126
330
1
100
AcDbSymbolTableRecord
100
AcDbBlockTableRecord
  2
SW_CENTERMARKSYMBOL_0
340
0
102
{BLKREFS
331
131
102
}
  0
ENDTAB
  0
ENDSEC
  0
SECTION
  2
BLOCKS
  0
BLOCK
  5
20
330
1F
100
AcDbEntity
  8
0
100
AcDbBlockBegin
  2
*Model_Space
 70
     0
 10
0.0
 20
0.0
 30
0.0
  3
*Model_Space
  1

  0
ENDBLK
  5
21
330
1F
100
AcDbEntity
  8
0
100
AcDbBlockEnd
  0
BLOCK
  5
1C
330
1B
100
AcDbEntity
 67
     1
  8
0
100
AcDbBlockBegin
  2
*Paper_Space
 70
     0
 10
0.0
 20
0.0
 30
0.0
  3
*Paper_Space
  1

  0
ENDBLK
  5
1D
330
1B
100
AcDbEntity
 67
     1
  8
0
100
AcDbBlockEnd
  0
BLOCK
  5
24
330
23
100
AcDbEntity
  8
0
100
AcDbBlockBegin
  2
*Paper_Space0
 70
     0
 10
0.0
 20
0.0
 30
0.0
  3
*Paper_Space0
  1

  0
ENDBLK
  5
25
330
23
100
AcDbEntity
  8
0
100
AcDbBlockEnd
  0
BLOCK
  5
127
330
126
100
AcDbEntity
  8
0
100
AcDbBlockBegin
  2
SW_CENTERMARKSYMBOL_0
 70
     0
 10
0.0
 20
0.0
 30
0.0
  3
SW_CENTERMARKSYMBOL_0
  1

  0
LINE
  5
129
330
126
100
AcDbEntity
  8
FORMAT
 62
     0
100
AcDbLine
 10
0.0
 20
0.0
 30
0.0
 11
0.0
 21
2.5
 31
0.0
  0
LINE
  5
12A
330
126
100
AcDbEntity
  8
FORMAT
 62
     0
100
AcDbLine
 10
0.0
 20
0.0
 30
0.0
 11
-2.5
 21
0.0
 31
0.0
  0
LINE
  5
12B
330
126
100
AcDbEntity
  8
FORMAT
 62
     0
100
AcDbLine
 10
0.0
 20
0.0
 30
0.0
 11
0.0
 21
-2.5
 31
0.0
  0
LINE
  5
12C
330
126
100
AcDbEntity
  8
FORMAT
 62
     0
100
AcDbLine
 10
0.0
 20
0.0
 30
0.0
 11
2.5
 21
0.0
 31
0.0
  0
LINE
  5
12D
330
126
100
AcDbEntity
  8
FORMAT
 62
     0
100
AcDbLine
 10
0.0
 20
5.0
 30
0.0
 11
0.0
 21
12.2609490147
 31
0.0
  0
LINE
  5
12E
330
126
100
AcDbEntity
  8
FORMAT
 62
     0
100
AcDbLine
 10
-5.0
 20
0.0
 30
0.0
 11
-11.0388125
 21
0.0
 31
0.0
  0
LINE
  5
12F
330
126
100
AcDbEntity
  8
FORMAT
 62
     0
100
AcDbLine
 10
0.0
 20
-5.0
 30
0.0
 11
0.0
 21
-12.2609490147
 31
0.0
  0
LINE
  5
130
330
126
100
AcDbEntity
  8
FORMAT
 62
     0
100
AcDbLine
 10
5.0
 20
0.0
 30
0.0
 11
11.0388125
 21
0.0
 31
0.0
  0
ENDBLK
  5
128
330
126
100
AcDbEntity
  8
0
100
AcDbBlockEnd
  0
ENDSEC
  0
SECTION
  2
ENTITIES
  0
MTEXT
  5
65
330
1F
100
AcDbEntity
  8
FORMAT
100
AcDbMText
 10
72.4900315243
 20
51.672390386
 30
0.0
 40
2.1166666667
 41
0.0
 71
     1
 72
     1
  1
5R-NB1332
  7
SLDTEXTSTYLE0
 73
     1
 44
1.0
  0
LINE
  5
66
330
1F
100
AcDbEntity
  8
0
  6
Continuous
 62
     7
370
    25
100
AcDbLine
 10
57.933864395
 20
42.8817076014
 30
0.0
 11
56.9410210516
 21
41.1620524868
 31
0.0
  0
LINE
  5
67
330
1F
100
AcDbEntity
  8
0
  6
Continuous
 62
     7
370
    25
100
AcDbLine
 10
56.9410210516
 20
22.6620524868
 30
0.0
 11
57.933864395
 21
20.9423973722
 31
0.0
  0
LINE
  5
68
330
1F
100
AcDbEntity
  8
0
  6
Continuous
 62
     7
370
    25
100
AcDbLine
 10
61.9481777083
 20
20.9423973722
 30
0.0
 11
62.9410210516
 21
22.6620524868
 31
0.0
  0
LINE
  5
69
330
1F
100
AcDbEntity
  8
0
  6
Continuous
 62
     7
370
    25
100
AcDbLine
 10
62.9410210516
 20
41.1620524868
 30
0.0
 11
61.9481777083
 21
42.8817076014
 31
0.0
  0
LINE
  5
6A
330
1F
100
AcDbEntity
  8
0
  6
Continuous
 62
     7
370
    25
100
AcDbLine
 10
56.9410210516
 20
40.4508649868
 30
0.0
 11
46.0149304853
 21
40.1094246566
 31
0.0
  0
LINE
  5
6B
330
1F
100
AcDbEntity
  8
0
  6
Continuous
 62
     7
370
    25
100
AcDbLine
 10
46.0149304853
 20
23.714680317
 30
0.0
 11
56.9410210516
 21
23.3732399868
 31
0.0
  0
LINE
  5
6C
330
1F
100
AcDbEntity
  8
0
  6
Continuous
 62
     7
370
    25
100
AcDbLine
 10
46.0149304853
 20
40.1094246566
 30
0.0
 11
43.9410210516
 21
38.9120524868
 31
0.0
  0
LINE
  5
6D
330
1F
100
AcDbEntity
  8
0
  6
Continuous
 62
     7
370
    25
100
AcDbLine
 10
43.9410210516
 20
24.9120524868
 30
0.0
 11
46.0149304853
 21
23.714680317
 31
0.0
  0
SPLINE
  5
6E
330
1F
100
AcDbEntity
  8
0
  6
Continuous
 62
     7
370
    25
100
AcDbSpline
210
0.0
220
0.0
230
1.0
 70
     8
 71
     3
 72
    16
 73
    12
 74
     0
 42
0.00000001
 43
0.00000001
 40
0.0
 40
0.0
 40
0.0
 40
0.0
 40
0.2499999999999999
 40
0.2499999999999999
 40
0.4999999999999998
 40
0.4999999999999998
 40
0.6249999999999998
 40
0.6249999999999998
 40
0.7499999999999997
 40
0.7499999999999997
 40
1.0
 40
1.0
 40
1.0
 40
1.0
 10
57.93386439495467
 20
37.39688004412812
 30
0.0
 10
57.67533611947233
 20
37.84466415245671
 30
0.0
 10
57.46226197272968
 20
38.29571297439355
 30
0.0
 10
57.1670850859428
 20
39.20721755544977
 30
0.0
 10
57.0859560078002
 20
39.66774324721
 30
0.0
 10
57.08506493155311
 20
40.36720834978168
 30
0.0
 10
57.10489784826976
 20
40.60146048187919
 30
0.0
 10
57.18223574890177
 20
41.06483590249299
 30
0.0
 10
57.23966224616614
 20
41.29497008736683
 30
0.0
 10
57.46141236413366
 20
41.98127541775317
 30
0.0
 10
57.67501384876432
 20
42.43336530386065
 30
0.0
 10
57.93386439495485
 20
42.8817076014296
 30
0.0
  0
LINE
  5
6F
330
1F
100
AcDbEntity
  8
0
  6
Continuous
 62
     7
370
    25
100
AcDbLine
 10
57.933864395
 20
42.8817076014
 30
0.0
 11
61.9481777083
 21
42.8817076014
 31
0.0
  0
SPLINE
  5
70
330
1F
100
AcDbEntity
  8
0
  6
Continuous
 62
     7
370
    25
100
AcDbSpline
210
0.0
220
0.0
230
1.0
 70
     8
 71
     3
 72
    16
 73
    12
 74
     0
 42
0.00000001
 43
0.00000001
 40
0.0
 40
0.0
 40
0.0
 40
0.0
 40
0.2499999999999999
 40
0.2499999999999999
 40
0.4999999999999998
 40
0.4999999999999998
 40
0.6249999999999998
 40
0.6249999999999998
 40
0.7499999999999997
 40
0.7499999999999997
 40
1.0
 40
1.0
 40
1.0
 40
1.0
 10
61.94817770829682
 20
37.39688004412812
 30
0.0
 10
62.20670598377916
 20
37.84466415245671
 30
0.0
 10
62.41978013052181
 20
38.29571297439355
 30
0.0
 10
62.71495701730868
 20
39.20721755544977
 30
0.0
 10
62.79608609545129
 20
39.66774324721
 30
0.0
 10
62.79697717169838
 20
40.36720834978168
 30
0.0
 10
62.77714425498174
 20
40.60146048187919
 30
0.0
 10
62.69980635434971
 20
41.06483590249299
 30
0.0
 10
62.64237985708534
 20
41.29497008736683
 30
0.0
 10
62.42062973911784
 20
41.98127541775317
 30
0.0
 10
62.20702825448717
 20
42.43336530386065
 30
0.0
 10
61.94817770829664
 20
42.8817076014296
 30
0.0
  0
LINE
  5
71
330
1F
100
AcDbEntity
  8
0
  6
Continuous
 62
     7
370
    25
100
AcDbLine
 10
57.933864395
 20
37.3968800441
 30
0.0
 11
61.9481777083
 21
37.3968800441
 31
0.0
  0
SPLINE
  5
72
330
1F
100
AcDbEntity
  8
0
  6
Continuous
 62
     7
370
    25
100
AcDbSpline
210
0.0
220
0.0
230
1.0
 70
     8
 71
     3
 72
    14
 73
    10
 74
     0
 42
0.00000001
 43
0.00000001
 40
0.0
 40
0.0
 40
0.0
 40
0.0
 40
0.25
 40
0.25
 40
0.5
 40
0.5
 40
0.75
 40
0.75
 40
1.0
 40
1.0
 40
1.0
 40
1.0
 10
57.93386439495504
 20
26.42722492952525
 30
0.0
 10
57.67611988672029
 20
27.32007809679409
 30
0.0
 10
57.46296380637038
 20
28.22117945752682
 30
0.0
 10
57.16704857422839
 20
30.04750366397984
 30
0.0
 10
57.08527981595022
 20
30.97383518869882
 30
0.0
 10
57.08543753780678
 20
32.85303184986961
 30
0.0
 10
57.16720344113099
 20
33.77778225603738
 30
0.0
 10
57.46305009287743
 20
35.60323273233772
 30
0.0
 10
57.67614448518628
 20
36.50411208844503
 30
0.0
 10
57.93386439495504
 20
37.39688004412815
 30
0.0
  0
SPLINE
  5
73
330
1F
100
AcDbEntity
  8
0
  6
Continuous
 62
     7
370
    25
100
AcDbSpline
210
0.0
220
0.0
230
1.0
 70
     8
 71
     3
 72
    14
 73
    10
 74
     0
 42
0.00000001
 43
0.00000001
 40
0.0
 40
0.0
 40
0.0
 40
0.0
 40
0.25
 40
0.25
 40
0.5
 40
0.5
 40
0.75
 40
0.75
 40
1.0
 40
1.0
 40
1.0
 40
1.0
 10
61.94817770829646
 20
26.42722492952525
 30
0.0
 10
62.20592221653119
 20
27.32007809679409
 30
0.0
 10
62.41907829688111
 20
28.22117945752682
 30
0.0
 10
62.7149935290231
 20
30.04750366397984
 30
0.0
 10
62.79676228730127
 20
30.97383518869882
 30
0.0
 10
62.79660456544471
 20
32.85303184986961
 30
0.0
 10
62.71483866212049
 20
33.77778225603738
 30
0.0
 10
62.41899201037405
 20
35.60323273233772
 30
0.0
 10
62.20589761806521
 20
36.50411208844503
 30
0.0
 10
61.94817770829646
 20
37.39688004412815
 30
0.0
  0
LINE
  5
74
330
1F
100
AcDbEntity
  8
0
  6
Continuous
 62
     7
370
    25
100
AcDbLine
 10
57.933864395
 20
26.4272249295
 30
0.0
 11
61.9481777083
 21
26.4272249295
 31
0.0
  0
LINE
  5
75
330
1F
100
AcDbEntity
  8
0
  6
Continuous
 62
     7
370
    25
100
AcDbLine
 10
59.4711368817
 20
28.9624527597
 30
0.0
 11
60.7585886192
 21
28.9624527597
 31
0.0
  0
LINE
  5
76
330
1F
100
AcDbEntity
  8
0
  6
Continuous
 62
     7
370
    25
100
AcDbLine
 10
59.4711368817
 20
28.7842674315
 30
0.0
 11
59.4711368817
 21
28.9624527597
 31
0.0
  0
LINE
  5
77
330
1F
100
AcDbEntity
  8
0
  6
Continuous
 62
     7
370
    25
100
AcDbLine
 10
60.0288374394
 20
28.7842674315
 30
0.0
 11
59.4711368817
 21
28.7842674315
 31
0.0
  0
LINE
  5
78
330
1F
100
AcDbEntity
  8
0
  6
Continuous
 62
     7
370
    25
100
AcDbLine
 10
60.0288374394
 20
28.39276164
 30
0.0
 11
60.0288374394
 21
28.7842674315
 31
0.0
  0
LINE
  5
79
330
1F
100
AcDbEntity
  8
0
  6
Continuous
 62
     7
370
    25
100
AcDbLine
 10
59.4711368817
 20
28.121719169
 30
0.0
 11
60.0288374394
 21
28.39276164
 31
0.0
  0
LINE
  5
7A
330
1F
100
AcDbEntity
  8
0
  6
Continuous
 62
     7
370
    25
100
AcDbLine
 10
59.4711368817
 20
27.9334952307
 30
0.0
 11
59.4711368817
 21
28.121719169
 31
0.0
  0
LINE
  5
7B
330
1F
100
AcDbEntity
  8
0
  6
Continuous
 62
     7
370
    25
100
AcDbLine
 10
60.0508666115
 20
28.2271245744
 30
0.0
 11
59.4711368817
 21
27.9334952307
 31
0.0
  0
SPLINE
  5
7C
330
1F
100
AcDbEntity
  8
0
  6
Continuous
 62
     7
370
    25
100
AcDbSpline
210
0.0
220
0.0
230
1.0
 70
     8
 71
     3
 72
    11
 73
     7
 74
     0
 42
0.00000001
 43
0.00000001
 40
0.0
 40
0.0
 40
0.0
 40
0.0
 40
0.2256209836966676
 40
0.4629707984282289
 40
0.7196090303667878
 40
1.0
 40
1.0
 40
1.0
 40
1.0
 10
60.11862722923192
 20
28.07654542379353
 30
0.0
 10
60.11022938171128
 20
28.08601597449164
 30
0.0
 10
60.09299712738807
 20
28.10544939928407
 30
0.0
 10
60.07414747430797
 20
28.14133371790694
 30
0.0
 10
60.05897436005093
 20
28.1820482125409
 30
0.0
 10
60.0536477264546
 20
28.21166250817125
 30
0.0
 10
60.05086661147131
 20
28.22712457437268
 30
0.0
  0
SPLINE
  5
7D
330
1F
100
AcDbEntity
  8
0
  6
Continuous
 62
     7
370
    25
100
AcDbSpline
210
0.0
220
0.0
230
1.0
 70
     8
 71
     3
 72
    15
 73
    11
 74
     0
 42
0.00000001
 43
0.00000001
 40
0.0
 40
0.0
 40
0.0
 40
0.0
 40
0.1423455204062217
 40
0.2780244263979213
 40
0.4068124412900596
 40
0.5301826523562199
 40
0.6505629722368651
 40
0.7677901753368298
 40
0.8838874421453783
 40
1.0
 40
1.0
 40
1.0
 40
1.0
 10
60.3896697002744
 20
27.97866897591708
 30
0.0
 10
60.37561712774082
 20
27.97886655769404
 30
0.0
 10
60.3481701212814
 20
27.97925246769703
 30
0.0
 10
60.30829545918582
 20
27.98429114522067
 30
0.0
 10
60.27065783775578
 20
27.99147500829897
 30
0.0
 10
60.23557932977219
 20
28.0026644253524
 30
0.0
 10
60.202558856376
 20
28.01612872042296
 30
0.0
 10
60.17188981233648
 20
28.03294719918116
 30
0.0
 10
60.14381357622957
 20
28.05313175071048
 30
0.0
 10
60.12702304678396
 20
28.06874052348596
 30
0.0
 10
60.11862722923192
 20
28.07654542379353
 30
0.0
  0
SPLINE
  5
7E
330
1F
100
AcDbEntity
  8
0
  6
Continuous
 62
     7
370
    25
100
AcDbSpline
210
0.0
220
0.0
230
1.0
 70
     8
 71
     3
 72
    15
 73
    11
 74
     0
 42
0.00000001
 43
0.00000001
 40
0.0
 40
0.0
 40
0.0
 40
0.0
 40
0.1161090580639846
 40
0.2322028255427886
 40
0.3494264952551897
 40
0.4689336287943349
 40
0.593199820590994
 40
0.7219839536369563
 40
0.8576587700816362
 40
1.0
 40
1.0
 40
1.0
 40
1.0
 10
60.66071217131686
 20
28.07654542379353
 30
0.0
 10
60.65231601665198
 20
28.0687413733638
 30
0.0
 10
60.63552481302507
 20
28.05313430023207
 30
0.0
 10
60.60745364916896
 20
28.03293696131245
 30
0.0
 10
60.57684042310228
 20
28.01620919787264
 30
0.0
 10
60.5438991936471
 20
28.00253938543965
 30
0.0
 10
60.50875394459987
 20
27.99153632883047
 30
0.0
 10
60.47104821836777
 20
27.98427835464799
 30
0.0
 10
60.43116812418566
 20
27.97925592202019
 30
0.0
 10
60.4037218816746
 20
27.97886772739571
 30
0.0
 10
60.3896697002744
 20
27.97866897591708
 30
0.0
  0
SPLINE
  5
7F
330
1F
100
AcDbEntity
  8
0
  6
Continuous
 62
     7
370
    25
100
AcDbSpline
210
0.0
220
0.0
230
1.0
 70
     8
 71
     3
 72
    15
 73
    11
 74
     0
 42
0.00000001
 43
0.00000001
 40
0.0
 40
0.0
 40
0.0
 40
0.0
 40
0.1342477572737634
 40
0.2634617725756846
 40
0.3884666271730288
 40
0.511879051186958
 40
0.6324080741525895
 40
0.7535525248235476
 40
0.8755084805282752
 40
1.0
 40
1.0
 40
1.0
 40
1.0
 10
60.75858861919331
 20
28.32500102224913
 30
0.0
 10
60.75838700802645
 20
28.31271276985284
 30
0.0
 10
60.7579913452871
 20
28.28859702427969
 30
0.0
 10
60.75292499895197
 20
28.25336003584993
 30
0.0
 10
60.74560693365172
 20
28.21956254237311
 30
0.0
 10
60.73463815900099
 20
28.18757226292978
 30
0.0
 10
60.72084501164037
 20
28.15711883616502
 30
0.0
 10
60.70419033285845
 20
28.12824981863311
 30
0.0
 10
60.6838689162477
 20
28.10135677128092
 30
0.0
 10
60.66848384915082
 20
28.0848724058402
 30
0.0
 10
60.66071217131686
 20
28.07654542379353
 30
0.0
  0
LINE
  5
80
330
1F
100
AcDbEntity
  8
0
  6
Continuous
 62
     7
370
    25
100
AcDbLine
 10
60.7585886192
 20
28.9624527597
 30
0.0
 11
60.7585886192
 21
28.3250010222
 31
0.0
  0
LINE
  5
81
330
1F
100
AcDbEntity
  8
0
  6
Continuous
 62
     7
370
    25
100
AcDbLine
 10
60.314380125
 20
29.7780898253
 30
0.0
 11
60.314380125
 21
29.9512558485
 31
0.0
  0
SPLINE
  5
82
330
1F
100
AcDbEntity
  8
0
  6
Continuous
 62
     7
370
    25
100
AcDbSpline
210
0.0
220
0.0
230
1.0
 70
     8
 71
     3
 72
    15
 73
    11
 74
     0
 42
0.00000001
 43
0.00000001
 40
0.0
 40
0.0
 40
0.0
 40
0.0
 40
0.1046424622149467
 40
0.2111208971546076
 40
0.3233806047009376
 40
0.4420520864308677
 40
0.5671630372768657
 40
0.7019710430082279
 40
0.8453718683440631
 40
1.0
 40
1.0
 40
1.0
 40
1.0
 10
60.57789363849833
 20
29.6952712925194
 30
0.0
 10
60.57062971530386
 20
29.70199034078594
 30
0.0
 10
60.55597442194379
 20
29.71554632435161
 30
0.0
 10
60.53030765954628
 20
29.73233492826502
 30
0.0
 10
60.50172144302684
 20
29.74651266787413
 30
0.0
 10
60.47013235328046
 20
29.7582108005707
 30
0.0
 10
60.43544563893289
 20
29.76708252745046
 30
0.0
 10
60.39784763757522
 20
29.77333797404308
 30
0.0
 10
60.35712851387824
 20
29.77731441175791
 30
0.0
 10
60.32898301903346
 20
29.77782494325357
 30
0.0
 10
60.31438012498482
 20
29.77808982533793
 30
0.0
  0
SPLINE
  5
83
330
1F
100
AcDbEntity
  8
0
  6
Continuous
 62
     7
370
    25
100
AcDbSpline
210
0.0
220
0.0
230
1.0
 70
     8
 71
     3
 72
    11
 73
     7
 74
     0
 42
0.00000001
 43
0.00000001
 40
0.0
 40
0.0
 40
0.0
 40
0.0
 40
0.2497828004743481
 40
0.4924940338313435
 40
0.7395338078652269
 40
1.0
 40
1.0
 40
1.0
 40
1.0
 10
60.62306738367207
 20
29.58986588711399
 30
0.0
 10
60.62255318628359
 20
29.59968982852854
 30
0.0
 10
60.62153934887942
 20
29.61905958707952
 30
0.0
 10
60.6127438394622
 20
29.64702140451191
 30
0.0
 10
60.59832047477472
 20
29.6729843293554
 30
0.0
 10
60.58482162436962
 20
29.68771242418438
 30
0.0
 10
60.57789363849833
 20
29.6952712925194
 30
0.0
  0
SPLINE
  5
84
330
1F
100
AcDbEntity
  8
0
  6
Continuous
 62
     7
370
    25
100
AcDbSpline
210
0.0
220
0.0
230
1.0
 70
     8
 71
     3
 72
    11
 73
     7
 74
     0
 42
0.00000001
 43
0.00000001
 40
0.0
 40
0.0
 40
0.0
 40
0.0
 40
0.2490517621318982
 40
0.4918163964483701
 40
0.7399854914835435
 40
1.0
 40
1.0
 40
1.0
 40
1.0
 10
60.57789363849833
 20
29.47693152417963
 30
0.0
 10
60.58484918269917
 20
29.48466389117714
 30
0.0
 10
60.59858468352401
 20
29.49993342727752
 30
0.0
 10
60.61298313376536
 20
29.52750811598569
 30
0.0
 10
60.6215608225742
 20
29.55784057043966
 30
0.0
 10
60.62255745304707
 20
29.57902617422699
 30
0.0
 10
60.62306738367207
 20
29.58986588711399
 30
0.0
  0
SPLINE
  5
85
330
1F
100
AcDbEntity
  8
0
  6
Continuous
 62
     7
370
    25
100
AcDbSpline
210
0.0
220
0.0
230
1.0
 70
     8
 71
     3
 72
    15
 73
    11
 74
     0
 42
0.00000001
 43
0.00000001
 40
0.0
 40
0.0
 40
0.0
 40
0.0
 40
0.1322900133483162
 40
0.2607898618052663
 40
0.3858441649046997
 40
0.5080904451166507
 40
0.6294055086180652
 40
0.7510893117646902
 40
0.8732553966668087
 40
0.9999999999999999
 40
0.9999999999999999
 40
0.9999999999999999
 40
0.9999999999999999
 10
60.42731448791918
 20
29.41669986394797
 30
0.0
 10
60.43467365401699
 20
29.41679236060713
 30
0.0
 10
60.44918114298817
 20
29.41697470385699
 30
0.0
 10
60.47036741880586
 20
29.42045894149304
 30
0.0
 10
60.49088489481809
 20
29.42450867463174
 30
0.0
 10
60.51015991775704
 20
29.43154964086358
 30
0.0
 10
60.52880872016653
 20
29.4396593480725
 30
0.0
 10
60.54592951004749
 20
29.45061384777237
 30
0.0
 10
60.5628102519367
 20
29.46246493907164
 30
0.0
 10
60.57280456378121
 20
29.47205055582313
 30
0.0
 10
60.57789363849833
 20
29.47693152417963
 30
0.0
  0
SPLINE
  5
86
330
1F
100
AcDbEntity
  8
0
  6
Continuous
 62
     7
370
    25
100
AcDbSpline
210
0.0
220
0.0
230
1.0
 70
     8
 71
     3
 72
    15
 73
    11
 74
     0
 42
0.00000001
 43
0.00000001
 40
0.0
 40
0.0
 40
0.0
 40
0.0
 40
0.1414377028612578
 40
0.2759868619651536
 40
0.4050827468357281
 40
0.5293092515363201
 40
0.6494060973408684
 40
0.7665008015291713
 40
0.8835214776401928
 40
1.0
 40
1.0
 40
1.0
 40
1.0
 10
60.1412141018188
 20
29.54469214194025
 30
0.0
 10
60.1523826530666
 20
29.53444995106349
 30
0.0
 10
60.17417580545261
 20
29.51446440221378
 30
0.0
 10
60.2090359248403
 20
29.48854357917194
 30
0.0
 10
60.24414370112139
 20
29.46625810659866
 30
0.0
 10
60.27999782836452
 20
29.44841144048873
 30
0.0
 10
60.3161009693961
 20
29.43430587240517
 30
0.0
 10
60.35270793628329
 20
29.4241887629626
 30
0.0
 10
60.38981422181335
 20
29.41776603463515
 30
0.0
 10
60.41483376322122
 20
29.41705470363872
 30
0.0
 10
60.42731448791918
 20
29.41669986394797
 30
0.0
  0
SPLINE
  5
87
330
1F
100
AcDbEntity
  8
0
  6
Continuous
 62
     7
370
    25
100
AcDbSpline
210
0.0
220
0.0
230
1.0
 70
     8
 71
     3
 72
    15
 73
    11
 74
     0
 42
0.00000001
 43
0.00000001
 40
0.0
 40
0.0
 40
0.0
 40
0.0
 40
0.1476613860734707
 40
0.2888924423695143
 40
0.4241065500574239
 40
0.5519955532306791
 40
0.6738679309355685
 40
0.7893162665477802
 40
0.8978915155028958
 40
1.0
 40
1.0
 40
1.0
 40
1.0
 10
59.80241101301571
 20
29.85337940062751
 30
0.0
 10
59.81893861373521
 20
29.83802366638132
 30
0.0
 10
59.85127407438155
 20
29.80798090646472
 30
0.0
 10
59.89903920020765
 20
29.76419661309212
 30
0.0
 10
59.94464974287779
 20
29.72253306684289
 30
0.0
 10
59.98799434155652
 20
29.68277452550596
 30
0.0
 10
60.02917620138649
 20
29.64512519888219
 30
0.0
 10
60.0684689719609
 20
29.60978523261011
 30
0.0
 10
60.10563171135851
 20
29.57659358271156
 30
0.0
 10
60.12959851883369
 20
29.55510610873197
 30
0.0
 10
60.1412141018188
 20
29.54469214194025
 30
0.0
  0
SPLINE
  5
88
330
1F
100
AcDbEntity
  8
0
  6
Continuous
 62
     7
370
    25
100
AcDbSpline
210
0.0
220
0.0
230
1.0
 70
     8
 71
     3
 72
    15
 73
    11
 74
     0
 42
0.00000001
 43
0.00000001
 40
0.0
 40
0.0
 40
0.0
 40
0.0
 40
0.0824284987423308
 40
0.1761528009252872
 40
0.2809817587265288
 40
0.3985256681357571
 40
0.529184275464853
 40
0.6726050610319605
 40
0.8293989194531031
 40
1.0
 40
1.0
 40
1.0
 40
1.0
 10
59.59160020220489
 20
29.98137167861978
 30
0.0
 10
59.59824328449987
 20
29.97974849307692
 30
0.0
 10
59.61243980112809
 20
29.97627968454395
 30
0.0
 10
59.63413129612363
 20
29.96762435810842
 30
0.0
 10
59.65763959500832
 20
29.9560410431641
 30
0.0
 10
59.68302558910525
 20
29.94144814394077
 30
0.0
 10
59.7102380648705
 20
29.92374524599814
 30
0.0
 10
59.7396504318983
 20
29.90347414238732
 30
0.0
 10
59.7705300898419
 20
29.87959224801128
 30
0.0
 10
59.79148939973136
 20
29.86235927177635
 30
0.0
 10
59.80241101301571
 20
29.85337940062751
 30
0.0
  0
LINE
  5
89
330
1F
100
AcDbEntity
  8
0
  6
Continuous
 62
     7
370
    25
100
AcDbLine
 10
59.4641656248
 20
29.9813716786
 30
0.0
 11
59.5916002022
 21
29.9813716786
 31
0.0
  0
LINE
  5
8A
330
1F
100
AcDbEntity
  8
0
  6
Continuous
 62
     7
370
    25
100
AcDbLine
 10
59.4641656248
 20
29.2134180107
 30
0.0
 11
59.4641656248
 21
29.9813716786
 31
0.0
  0
LINE
  5
8B
330
1F
100
AcDbEntity
  8
0
  6
Continuous
 62
     7
370
    25
100
AcDbLine
 10
59.6066581173
 20
29.2134180107
 30
0.0
 11
59.4641656248
 21
29.2134180107
 31
0.0
  0
LINE
  5
8C
330
1F
100
AcDbEntity
  8
0
  6
Continuous
 62
     7
370
    25
100
AcDbLine
 10
59.6066581173
 20
29.7780898253
 30
0.0
 11
59.6066581173
 21
29.2134180107
 31
0.0
  0
SPLINE
  5
8D
330
1F
100
AcDbEntity
  8
0
  6
Continuous
 62
     7
370
    25
100
AcDbSpline
210
0.0
220
0.0
230
1.0
 70
     8
 71
     3
 72
     9
 73
     5
 74
     0
 42
0.00000001
 43
0.00000001
 40
0.0
 40
0.0
 40
0.0
 40
0.0
 40
0.5155288090837096
 40
1.0
 40
1.0
 40
1.0
 40
1.0
 10
59.72712143772613
 20
29.68774233499044
 30
0.0
 10
59.70737597970443
 20
29.70454509121433
 30
0.0
 10
59.66907461288694
 20
29.7371383351375
 30
0.0
 10
59.62702833000448
 20
29.76472491980887
 30
0.0
 10
59.60665811726281
 20
29.77808982533793
 30
0.0
  0
LINE
  5
8E
330
1F
100
AcDbEntity
  8
0
  6
Continuous
 62
     7
370
    25
100
AcDbLine
 10
59.8626426732
 20
29.5672790145
 30
0.0
 11
59.7271214377
 21
29.687742335
 31
0.0
  0
SPLINE
  5
8F
330
1F
100
AcDbEntity
  8
0
  6
Continuous
 62
     7
370
    25
100
AcDbSpline
210
0.0
220
0.0
230
1.0
 70
     8
 71
     3
 72
     9
 73
     5
 74
     0
 42
0.00000001
 43
0.00000001
 40
0.0
 40
0.0
 40
0.0
 40
0.0
 40
0.5004988252029436
 40
1.0
 40
1.0
 40
1.0
 40
1.0
 10
60.11109827170296
 20
29.34893924618735
 30
0.0
 10
60.06880283577124
 20
29.38440415232787
 30
0.0
 10
59.98429627191553
 20
29.45526327197942
 30
0.0
 10
59.90316689321756
 20
29.52996527583938
 30
0.0
 10
59.86264267324736
 20
29.56727901452712
 30
0.0
  0
SPLINE
  5
90
330
1F
100
AcDbEntity
  8
0
  6
Continuous
 62
     7
370
    25
100
AcDbSpline
210
0.0
220
0.0
230
1.0
 70
     8
 71
     3
 72
    15
 73
    11
 74
     0
 42
0.00000001
 43
0.00000001
 40
0.0
 40
0.0
 40
0.0
 40
0.0
 40
0.1293972986426974
 40
0.2563931032053937
 40
0.3803289534191737
 40
0.5027804241113404
 40
0.625708954009904
 40
0.7486563126058705
 40
0.872965143435674
 40
1.0
 40
1.0
 40
1.0
 40
1.0
 10
60.42731448791918
 20
29.23600488325299
 30
0.0
 10
60.4125201185869
 20
29.23630357198045
 30
0.0
 10
60.383205949722
 20
29.2368954060491
 30
0.0
 10
60.33998923222437
 20
29.24229871370634
 30
0.0
 10
60.29822386699333
 20
29.25128623548322
 30
0.0
 10
60.25779602250881
 20
29.26359633598352
 30
0.0
 10
60.21870676478271
 20
29.27941969262877
 30
0.0
 10
60.18125486520883
 20
29.29920386750565
 30
0.0
 10
60.14494741283875
 20
29.32197261145446
 30
0.0
 10
60.12246260738655
 20
29.33988560762879
 30
0.0
 10
60.11109827170296
 20
29.34893924618735
 30
0.0
  0
SPLINE
  5
91
330
1F
100
AcDbEntity
  8
0
  6
Continuous
 62
     7
370
    25
100
AcDbSpline
210
0.0
220
0.0
230
1.0
 70
     8
 71
     3
 72
    15
 73
    11
 74
     0
 42
0.00000001
 43
0.00000001
 40
0.0
 40
0.0
 40
0.0
 40
0.0
 40
0.1270527522076903
 40
0.2522753243044995
 40
0.3739697899787144
 40
0.4948832629277701
 40
0.6176556772794566
 40
0.7419399124466164
 40
0.8684128160693878
 40
1.0
 40
1.0
 40
1.0
 40
1.0
 10
60.66824112884582
 20
29.33388133112944
 30
0.0
 10
60.66002277952417
 20
29.32608941090048
 30
0.0
 10
60.64370446524649
 20
29.31061781214673
 30
0.0
 10
60.61693421196539
 20
29.29066379444076
 30
0.0
 10
60.58882712746896
 20
29.27371817534015
 30
0.0
 10
60.55924625836263
 20
29.2600289308897
 30
0.0
 10
60.5283143994289
 20
29.24897277226151
 30
0.0
 10
60.49579361933449
 20
29.241731259337
 30
0.0
 10
60.4620552947259
 20
29.2365899609515
 30
0.0
 10
60.43904675263584
 20
29.23620246894744
 30
0.0
 10
60.42731448791918
 20
29.23600488325299
 30
0.0
  0
SPLINE
  5
92
330
1F
100
AcDbEntity
  8
0
  6
Continuous
 62
     7
370
    25
100
AcDbSpline
210
0.0
220
0.0
230
1.0
 70
     8
 71
     3
 72
    15
 73
    11
 74
     0
 42
0.00000001
 43
0.00000001
 40
0.0
 40
0.0
 40
0.0
 40
0.0
 40
0.1401156952848873
 40
0.273436951589746
 40
0.4007170918852059
 40
0.524411154423871
 40
0.6451326608364114
 40
0.7627629456192484
 40
0.8809824433211497
 40
1.0
 40
1.0
 40
1.0
 40
1.0
 10
60.76611757672227
 20
29.59739484464295
 30
0.0
 10
60.76592082069285
 20
29.58389932514815
 30
0.0
 10
60.76553684965531
 20
29.55756270594731
 30
0.0
 10
60.76048701805303
 20
29.51926414452149
 30
0.0
 10
60.75323253528593
 20
29.48294245322883
 30
0.0
 10
60.7421221641897
 20
29.44887037989915
 30
0.0
 10
60.72867126989146
 20
29.41666463488813
 30
0.0
 10
60.71168369372435
 20
29.38675492225082
 30
0.0
 10
60.69158543158836
 20
29.3590289043292
 30
0.0
 10
60.67603999456864
 20
29.34228263352869
 30
0.0
 10
60.66824112884582
 20
29.33388133112944
 30
0.0
  0
LINE
  5
93
330
1F
100
AcDbEntity
  8
0
  6
Continuous
 62
     7
370
    25
100
AcDbLine
 10
60.3821407427
 20
30.7493253466
 30
0.0
 11
60.3821407427
 21
30.9149624122
 31
0.0
  0
SPLINE
  5
94
330
1F
100
AcDbEntity
  8
0
  6
Continuous
 62
     7
370
    25
100
AcDbSpline
210
0.0
220
0.0
230
1.0
 70
     8
 71
     3
 72
    15
 73
    11
 74
     0
 42
0.00000001
 43
0.00000001
 40
0.0
 40
0.0
 40
0.0
 40
0.0
 40
0.1017738366845019
 40
0.2081280746103131
 40
0.3195222361320725
 40
0.4377158324105371
 40
0.5640612668215815
 40
0.7002741501736239
 40
0.8452618826189012
 40
1.0
 40
1.0
 40
1.0
 40
1.0
 10
60.57789363849833
 20
30.68156472881283
 30
0.0
 10
60.57262723045652
 20
30.68645891014476
 30
0.0
 10
60.56185739607118
 20
30.69646753879229
 30
0.0
 10
60.5429215324515
 20
30.70887203789895
 30
0.0
 10
60.52183000908403
 20
30.71970209241135
 30
0.0
 10
60.49860540858787
 20
30.7293762836053
 30
0.0
 10
60.4727062775885
 20
30.73663051795887
 30
0.0
 10
60.44463140625179
 20
30.74289951538065
 30
0.0
 10
60.41410524469703
 20
30.74689341872932
 30
0.0
 10
60.39302417292232
 20
30.74849731187024
 30
0.0
 10
60.38214074274543
 20
30.74932534657345
 30
0.0
  0
SPLINE
  5
95
330
1F
100
AcDbEntity
  8
0
  6
Continuous
 62
     7
370
    25
100
AcDbSpline
210
0.0
220
0.0
230
1.0
 70
     8
 71
     3
 72
    11
 73
     7
 74
     0
 42
0.00000001
 43
0.00000001
 40
0.0
 40
0.0
 40
0.0
 40
0.0
 40
0.2450868805219025
 40
0.487555245697643
 40
0.7346288455311493
 40
1.0
 40
1.0
 40
1.0
 40
1.0
 10
60.63059634120103
 20
30.56110140834951
 30
0.0
 10
60.62994163781829
 20
30.57214317231551
 30
0.0
 10
60.62863922592275
 20
30.59410872972075
 30
0.0
 10
60.6184356308615
 20
30.62588801900624
 30
0.0
 10
60.60160632599728
 20
30.65570457391229
 30
0.0
 10
60.58598380891809
 20
30.67274189672196
 30
0.0
 10
60.57789363849833
 20
30.68156472881283
 30
0.0
  0
SPLINE
  5
96
330
1F
100
AcDbEntity
  8
0
  6
Continuous
 62
     7
370
    25
100
AcDbSpline
210
0.0
220
0.0
230
1.0
 70
     8
 71
     3
 72
    11
 73
     7
 74
     0
 42
0.00000001
 43
0.00000001
 40
0.0
 40
0.0
 40
0.0
 40
0.0
 40
0.2388203430261976
 40
0.4777994110081066
 40
0.7288233729769934
 40
0.9999999999999999
 40
0.9999999999999999
 40
0.9999999999999999
 40
0.9999999999999999
 10
60.58542259602729
 20
30.44063808788619
 30
0.0
 10
60.59240563230213
 20
30.44854596005469
 30
0.0
 10
60.60637634592263
 20
30.46436696012762
 30
0.0
 10
60.62066102369972
 20
30.4934772201475
 30
0.0
 10
60.6291625937731
 20
30.52613074770612
 30
0.0
 10
60.6301062857978
 20
30.54914842355664
 30
0.0
 10
60.63059634120103
 20
30.56110140834951
 30
0.0
  0
SPLINE
  5
97
330
1F
100
AcDbEntity
  8
0
  6
Continuous
 62
     7
370
    25
100
AcDbSpline
210
0.0
220
0.0
230
1.0
 70
     8
 71
     3
 72
    15
 73
    11
 74
     0
 42
0.00000001
 43
0.00000001
 40
0.0
 40
0.0
 40
0.0
 40
0.0
 40
0.1380420997033145
 40
0.2691721599589625
 40
0.3953313456434699
 40
0.5186017941434374
 40
0.6392985515224104
 40
0.7600805617867301
 40
0.8784957553092655
 40
1.0
 40
1.0
 40
1.0
 40
1.0
 10
60.42731448791918
 20
30.38040642765453
 30
0.0
 10
60.43532357138751
 20
30.38049255890749
 30
0.0
 10
60.4509407077618
 20
30.38066050865216
 30
0.0
 10
60.47361990767696
 20
30.38413577443265
 30
0.0
 10
60.4953230585613
 20
30.38822633756595
 30
0.0
 10
60.51565483813346
 20
30.39518935571486
 30
0.0
 10
60.53518650340708
 20
30.4033780262742
 30
0.0
 10
60.55307865100339
 20
30.41416457048275
 30
0.0
 10
60.57029914107324
 20
30.42610289269067
 30
0.0
 10
60.58033835816955
 20
30.43575161254657
 30
0.0
 10
60.58542259602729
 20
30.44063808788619
 30
0.0
  0
SPLINE
  5
98
330
1F
100
AcDbEntity
  8
0
  6
Continuous
 62
     7
370
    25
100
AcDbSpline
210
0.0
220
0.0
230
1.0
 70
     8
 71
     3
 72
    15
 73
    11
 74
     0
 42
0.00000001
 43
0.00000001
 40
0.0
 40
0.0
 40
0.0
 40
0.0
 40
0.1133059292696162
 40
0.2263015370273195
 40
0.3429947497841047
 40
0.4612849748553941
 40
0.5864354642724742
 40
0.7160226876888952
 40
0.854754001970278
 40
1.0
 40
1.0
 40
1.0
 40
1.0
 10
60.25414846475316
 20
30.44063808788619
 30
0.0
 10
60.25931210817995
 20
30.43573029090179
 30
0.0
 10
60.26962525288187
 20
30.42592813837414
 30
0.0
 10
60.28769619333757
 20
30.41410673467101
 30
0.0
 10
60.30671279443447
 20
30.40331537881961
 30
0.0
 10
60.32779594396648
 20
30.39503651768995
 30
0.0
 10
60.35022946167972
 20
30.38821428808525
 30
0.0
 10
60.37459826407142
 20
30.38406756063047
 30
0.0
 10
60.40035797034751
 20
30.38067647451232
 30
0.0
 10
60.41819260147039
 20
30.38049780951668
 30
0.0
 10
60.42731448791918
 20
30.38040642765453
 30
0.0
  0
SPLINE
  5
99
330
1F
100
AcDbEntity
  8
0
  6
Continuous
 62
     7
370
    25
100
AcDbSpline
210
0.0
220
0.0
230
1.0
 70
     8
 71
     3
 72
    11
 73
     7
 74
     0
 42
0.00000001
 43
0.00000001
 40
0.0
 40
0.0
 40
0.0
 40
0.0
 40
0.2322932923175289
 40
0.4682186081034734
 40
0.7217939329173702
 40
1.0
 40
1.0
 40
1.0
 40
1.0
 10
60.1939168045215
 20
30.56863036587847
 30
0.0
 10
60.19471292951619
 20
30.55738384231763
 30
0.0
 10
60.19631762732374
 20
30.53471495009469
 30
0.0
 10
60.20828328073173
 20
30.50150740090617
 30
0.0
 10
60.22765375887025
 20
30.4695786532911
 30
0.0
 10
60.24504833876912
 20
30.4505782922575
 30
0.0
 10
60.25414846475316
 20
30.44063808788619
 30
0.0
  0
LINE
  5
9A
330
1F
100
AcDbEntity
  8
0
  6
Continuous
 62
     7
370
    25
100
AcDbLine
 10
60.1939168045
 20
30.6138041111
 30
0.0
 11
60.1939168045
 21
30.5686303659
 31
0.0
  0
LINE
  5
9B
330
1F
100
AcDbEntity
  8
0
  6
Continuous
 62
     7
370
    25
100
AcDbLine
 10
60.0659245265
 20
30.6138041111
 30
0.0
 11
60.1939168045
 21
30.6138041111
 31
0.0
  0
LINE
  5
9C
330
1F
100
AcDbEntity
  8
0
  6
Continuous
 62
     7
370
    25
100
AcDbLine
 10
60.0659245265
 20
30.5535724508
 30
0.0
 11
60.0659245265
 21
30.6138041111
 31
0.0
  0
SPLINE
  5
9D
330
1F
100
AcDbEntity
  8
0
  6
Continuous
 62
     7
370
    25
100
AcDbSpline
210
0.0
220
0.0
230
1.0
 70
     8
 71
     3
 72
    11
 73
     7
 74
     0
 42
0.00000001
 43
0.00000001
 40
0.0
 40
0.0
 40
0.0
 40
0.0
 40
0.2676320905605547
 40
0.5177929452577186
 40
0.757031548782956
 40
0.9999999999999999
 40
0.9999999999999999
 40
0.9999999999999999
 40
0.9999999999999999
 10
60.00569286629756
 20
30.41805121529932
 30
0.0
 10
60.01499690232982
 20
30.42801748867736
 30
0.0
 10
60.03299759951766
 20
30.44729942917577
 30
0.0
 10
60.05153687383881
 20
30.48125602358327
 30
0.0
 10
60.06410136777477
 20
30.5166311740715
 30
0.0
 10
60.06531368121626
 20
30.5411953576563
 30
0.0
 10
60.06592452652922
 20
30.55357245082056
 30
0.0
  0
SPLINE
  5
9E
330
1F
100
AcDbEntity
  8
0
  6
Continuous
 62
     7
370
    25
100
AcDbSpline
210
0.0
220
0.0
230
1.0
 70
     8
 71
     3
 72
    15
 73
    11
 74
     0
 42
0.00000001
 43
0.00000001
 40
0.0
 40
0.0
 40
0.0
 40
0.0
 40
0.1417962611116216
 40
0.2768819513476974
 40
0.4055805706087828
 40
0.5298229690785615
 40
0.6485572024501448
 40
0.7672114666371231
 40
0.8821786188665559
 40
0.9999999999999999
 40
0.9999999999999999
 40
0.9999999999999999
 40
0.9999999999999999
 10
59.84005580066049
 20
30.35781955506766
 30
0.0
 10
59.84862130697902
 20
30.35790760409366
 30
0.0
 10
59.86534695323486
 20
30.35807953518649
 30
0.0
 10
59.88961069629934
 20
30.36152839750682
 30
0.0
 10
59.91269639491585
 20
30.36561746240752
 30
0.0
 10
59.93409526158572
 20
30.37248932246417
 30
0.0
 10
59.95431703248322
 20
30.38080523352038
 30
0.0
 10
59.97273893538005
 20
30.39149417272379
 30
0.0
 10
59.99027816558723
 20
30.40351577083828
 30
0.0
 10
60.0005128036343
 20
30.41316662398864
 30
0.0
 10
60.00569286629756
 20
30.41805121529932
 30
0.0
  0
SPLINE
  5
9F
330
1F
100
AcDbEntity
  8
0
  6
Continuous
 62
     7
370
    25
100
AcDbSpline
210
0.0
220
0.0
230
1.0
 70
     8
 71
     3
 72
    15
 73
    11
 74
     0
 42
0.00000001
 43
0.00000001
 40
0.0
 40
0.0
 40
0.0
 40
0.0
 40
0.106234453290817
 40
0.2134351374465928
 40
0.3266362515327414
 40
0.4454478074346341
 40
0.570912586560857
 40
0.7047818913259153
 40
0.8472638984122982
 40
1.0
 40
1.0
 40
1.0
 40
1.0
 10
59.65183186243655
 20
30.41805121529932
 30
0.0
 10
59.65708474609717
 20
30.41313517083568
 30
0.0
 10
59.66763828980512
 20
30.40325836916459
 30
0.0
 10
59.68635070786138
 20
30.39139715527601
 30
0.0
 10
59.70658705238113
 20
30.38053805359673
 30
0.0
 10
59.72942855997887
 20
30.37249430219759
 30
0.0
 10
59.75404839798326
 20
30.36551318452286
 30
0.0
 10
59.78094418834824
 20
30.36151564086449
 30
0.0
 10
59.80975901953983
 20
30.35805490787527
 30
0.0
 10
59.82972569965235
 20
30.35789980181946
 30
0.0
 10
59.84005580066049
 20
30.35781955506766
 30
0.0
  0
SPLINE
  5
A0
330
1F
100
AcDbEntity
  8
0
  6
Continuous
 62
     7
370
    25
100
AcDbSpline
210
0.0
220
0.0
230
1.0
 70
     8
 71
     3
 72
    15
 73
    11
 74
     0
 42
0.00000001
 43
0.00000001
 40
0.0
 40
0.0
 40
0.0
 40
0.0
 40
0.1380420997033144
 40
0.2691721599589623
 40
0.3953313456434699
 40
0.5186017941434361
 40
0.6392985515224104
 40
0.7600805617867297
 40
0.8784957553092648
 40
1.0
 40
1.0
 40
1.0
 40
1.0
 10
59.59160020220489
 20
30.57615932340743
 30
0.0
 10
59.59168633345785
 20
30.5681502399391
 30
0.0
 10
59.59185428320252
 20
30.55253310356482
 30
0.0
 10
59.59532954898302
 20
30.52985390364966
 30
0.0
 10
59.59942011211631
 20
30.50815075276531
 30
0.0
 10
59.60638313026522
 20
30.48781897319315
 30
0.0
 10
59.61457180082456
 20
30.46828730791952
 30
0.0
 10
59.62535834503311
 20
30.45039516032323
 30
0.0
 10
59.63729666724103
 20
30.43317467025338
 30
0.0
 10
59.64694538709693
 20
30.42313545315707
 30
0.0
 10
59.65183186243655
 20
30.41805121529932
 30
0.0
  0
SPLINE
  5
A1
330
1F
100
AcDbEntity
  8
0
  6
Continuous
 62
     7
370
    25
100
AcDbSpline
210
0.0
220
0.0
230
1.0
 70
     8
 71
     3
 72
    11
 73
     7
 74
     0
 42
0.00000001
 43
0.00000001
 40
0.0
 40
0.0
 40
0.0
 40
0.0
 40
0.2550921435312739
 40
0.4983791954134787
 40
0.7437399667914611
 40
1.0
 40
1.0
 40
1.0
 40
1.0
 10
59.6443029049076
 20
30.70415160139971
 30
0.0
 10
59.63618195790747
 20
30.6951570635705
 30
0.0
 10
59.62031588310059
 20
30.67758423492756
 30
0.0
 10
59.60357818629394
 20
30.64622534026358
 30
0.0
 10
59.59346404227507
 20
30.61210586346169
 30
0.0
 10
59.59223041700181
 20
30.58831382196269
 30
0.0
 10
59.59160020220489
 20
30.57615932340743
 30
0.0
  0
SPLINE
  5
A2
330
1F
100
AcDbEntity
  8
0
  6
Continuous
 62
     7
370
    25
100
AcDbSpline
210
0.0
220
0.0
230
1.0
 70
     8
 71
     3
 72
    15
 73
    11
 74
     0
 42
0.00000001
 43
0.00000001
 40
0.0
 40
0.0
 40
0.0
 40
0.0
 40
0.1305521219623386
 40
0.2575145556980029
 40
0.3807268344757819
 40
0.5030306145961514
 40
0.6251462349433738
 40
0.7476378858044694
 40
0.8722881459663868
 40
1.0
 40
1.0
 40
1.0
 40
1.0
 10
59.80993997054466
 20
30.77191221916032
 30
0.0
 10
59.80193729599247
 20
30.77167776555526
 30
0.0
 10
59.78615199008762
 20
30.77121530493009
 30
0.0
 10
59.76296866952589
 20
30.76816136058032
 30
0.0
 10
59.74071515942519
 20
30.76285073796832
 30
0.0
 10
59.71948976150253
 20
30.75519253942794
 30
0.0
 10
59.69898693778556
 20
30.74583306886558
 30
0.0
 10
59.67973676975904
 20
30.73386243071902
 30
0.0
 10
59.66109902639492
 20
30.72033546941114
 30
0.0
 10
59.64994671110068
 20
30.70958967914759
 30
0.0
 10
59.6443029049076
 20
30.70415160139971
 30
0.0
  0
LINE
  5
A3
330
1F
100
AcDbEntity
  8
0
  6
Continuous
 62
     7
370
    25
100
AcDbLine
 10
59.8626426732
 20
30.7719122192
 30
0.0
 11
59.8099399705
 21
30.7719122192
 31
0.0
  0
LINE
  5
A4
330
1F
100
AcDbEntity
  8
0
  6
Continuous
 62
     7
370
    25
100
AcDbLine
 10
59.8626426732
 20
30.9500975473
 30
0.0
 11
59.8626426732
 21
30.7719122192
 31
0.0
  0
LINE
  5
A5
330
1F
100
AcDbEntity
  8
0
  6
Continuous
 62
     7
370
    25
100
AcDbLine
 10
59.802411013
 20
30.9500975473
 30
0.0
 11
59.8626426732
 21
30.9500975473
 31
0.0
  0
SPLINE
  5
A6
330
1F
100
AcDbEntity
  8
0
  6
Continuous
 62
     7
370
    25
100
AcDbSpline
210
0.0
220
0.0
230
1.0
 70
     8
 71
     3
 72
    15
 73
    11
 74
     0
 42
0.00000001
 43
0.00000001
 40
0.0
 40
0.0
 40
0.0
 40
0.0
 40
0.1339120169181254
 40
0.2615284644313485
 40
0.3861887226529775
 40
0.5091929985924205
 40
0.6296768122270384
 40
0.7512559744353481
 40
0.8742965747069021
 40
1.0
 40
1.0
 40
1.0
 40
1.0
 10
59.55395541456011
 20
30.83967283692094
 30
0.0
 10
59.56281316633724
 20
30.84848997402415
 30
0.0
 10
59.58011224280477
 20
30.86570973055051
 30
0.0
 10
59.60833365596403
 20
30.88821808504228
 30
0.0
 10
59.63773003034299
 20
30.90732098960725
 30
0.0
 10
59.66837744596292
 20
30.92295396650519
 30
0.0
 10
59.70026333679701
 20
30.93510954271162
 30
0.0
 10
59.73327350496089
 20
30.9436673691978
 30
0.0
 10
59.76745897567334
 20
30.94924147281688
 30
0.0
 10
59.79067748190248
 20
30.94981015988895
 30
0.0
 10
59.80241101301571
 20
30.95009754734565
 30
0.0
  0
SPLINE
  5
A7
330
1F
100
AcDbEntity
  8
0
  6
Continuous
 62
     7
370
    25
100
AcDbSpline
210
0.0
220
0.0
230
1.0
 70
     8
 71
     3
 72
    15
 73
    11
 74
     0
 42
0.00000001
 43
0.00000001
 40
0.0
 40
0.0
 40
0.0
 40
0.0
 40
0.1330514903197376
 40
0.261400860813741
 40
0.3859789426424559
 40
0.508465614902219
 40
0.6295593452611172
 40
0.7509246542250769
 40
0.8741074588764661
 40
0.9999999999999999
 40
0.9999999999999999
 40
0.9999999999999999
 40
0.9999999999999999
 10
59.4485500091547
 20
30.57615932340743
 30
0.0
 10
59.44884925108916
 20
30.58909859620304
 30
0.0
 10
59.44943715956784
 20
30.61451986009832
 30
0.0
 10
59.4547244502914
 20
30.65172790102803
 30
0.0
 10
59.46255477162491
 20
30.68742842807839
 30
0.0
 10
59.47451617930059
 20
30.72122735805993
 30
0.0
 10
59.48921338261867
 20
30.75358324350648
 30
0.0
 10
59.50767130308643
 20
30.78400626040012
 30
0.0
 10
59.52861978865582
 20
30.81340719728969
 30
0.0
 10
59.54544917592611
 20
30.83085435343756
 30
0.0
 10
59.55395541456011
 20
30.83967283692094
 30
0.0
  0
SPLINE
  5
A8
330
1F
100
AcDbEntity
  8
0
  6
Continuous
 62
     7
370
    25
100
AcDbSpline
210
0.0
220
0.0
230
1.0
 70
     8
 71
     3
 72
    15
 73
    11
 74
     0
 42
0.00000001
 43
0.00000001
 40
0.0
 40
0.0
 40
0.0
 40
0.0
 40
0.1158830802717858
 40
0.2315534497979614
 40
0.3480625771524271
 40
0.4678553783950305
 40
0.5925908197539047
 40
0.7213115030172618
 40
0.8571441704632067
 40
1.0
 40
1.0
 40
1.0
 40
1.0
 10
59.55395541456011
 20
30.28252997977808
 30
0.0
 10
59.54541961105458
 20
30.29151582813
 30
0.0
 10
59.52836367205237
 20
30.30947103073912
 30
0.0
 10
59.50746550960935
 20
30.34035347324638
 30
0.0
 10
59.48895438748597
 20
30.37312067490542
 30
0.0
 10
59.47432048755911
 20
30.4088771060911
 30
0.0
 10
59.46249862203118
 20
30.4470049997229
 30
0.0
 10
59.45463461916192
 20
30.48788047471559
 30
0.0
 10
59.44942371970274
 20
30.5311293700354
 30
0.0
 10
59.44884609817135
 20
30.56089926429081
 30
0.0
 10
59.4485500091547
 20
30.57615932340743
 30
0.0
  0
SPLINE
  5
A9
330
1F
100
AcDbEntity
  8
0
  6
Continuous
 62
     7
370
    25
100
AcDbSpline
210
0.0
220
0.0
230
1.0
 70
     8
 71
     3
 72
    15
 73
    11
 74
     0
 42
0.00000001
 43
0.00000001
 40
0.0
 40
0.0
 40
0.0
 40
0.0
 40
0.135465841810947
 40
0.2653728839126842
 40
0.39152662799182
 40
0.5146179992444258
 40
0.6353652389705202
 40
0.755435876357242
 40
0.8764282152102189
 40
1.0
 40
1.0
 40
1.0
 40
1.0
 10
59.82499788560258
 20
30.17712457437268
 30
0.0
 10
59.81150124074463
 20
30.17742005483008
 30
0.0
 10
59.78506178175469
 20
30.17799889079397
 30
0.0
 10
59.74637416533098
 20
30.1833068469869
 30
0.0
 10
59.70936932209226
 20
30.19108908950234
 30
0.0
 10
59.67444392521842
 20
30.20303904189318
 30
0.0
 10
59.64124111387022
 20
30.21772429363259
 30
0.0
 10
59.6102319227851
 20
30.23616636292493
 30
0.0
 10
59.5805116247518
 20
30.25719303524299
 30
0.0
 10
59.56286950909821
 20
30.27402515483272
 30
0.0
 10
59.55395541456011
 20
30.28252997977808
 30
0.0
  0
SPLINE
  5
AA
330
1F
100
AcDbEntity
  8
0
  6
Continuous
 62
     7
370
    25
100
AcDbSpline
210
0.0
220
0.0
230
1.0
 70
     8
 71
     3
 72
    15
 73
    11
 74
     0
 42
0.00000001
 43
0.00000001
 40
0.0
 40
0.0
 40
0.0
 40
0.0
 40
0.1195027114365311
 40
0.2380939422658885
 40
0.3566476293726335
 40
0.4775806195769141
 40
0.6003630199241494
 40
0.7278327340041408
 40
0.8606471500295814
 40
1.0
 40
1.0
 40
1.0
 40
1.0
 10
60.06592452652922
 20
30.26747206472017
 30
0.0
 10
60.05826881268231
 20
30.26023139815452
 30
0.0
 10
60.04301577725943
 20
30.24580529161246
 30
0.0
 10
60.01745472797315
 20
30.22734375710414
 30
0.0
 10
59.98982094491568
 20
30.21202947631743
 30
0.0
 10
59.96059112480528
 20
30.19905028744278
 30
0.0
 10
59.92927350157571
 20
30.18943148965229
 30
0.0
 10
59.89630329244057
 20
30.18204028115706
 30
0.0
 10
59.8612609470803
 20
30.1779026414773
 30
0.0
 10
59.83727762787886
 20
30.17738805084513
 30
0.0
 10
59.82499788560258
 20
30.17712457437268
 30
0.0
  0
SPLINE
  5
AB
330
1F
100
AcDbEntity
  8
0
  6
Continuous
 62
     7
370
    25
100
AcDbSpline
210
0.0
220
0.0
230
1.0
 70
     8
 71
     3
 72
    11
 73
     7
 74
     0
 42
0.00000001
 43
0.00000001
 40
0.0
 40
0.0
 40
0.0
 40
0.0
 40
0.2570374775372509
 40
0.5073419159098038
 40
0.7523129875772131
 40
1.0
 40
1.0
 40
1.0
 40
1.0
 10
60.1412141018188
 20
30.39546434271245
 30
0.0
 10
60.13716112947073
 20
30.38325230467915
 30
0.0
 10
60.12916135147766
 20
30.35914812021415
 30
0.0
 10
60.11182772854382
 20
30.32563268539227
 30
0.0
 10
60.09114700033656
 20
30.294628723318
 30
0.0
 10
60.07436286050709
 20
30.27655749213391
 30
0.0
 10
60.06592452652922
 20
30.26747206472017
 30
0.0
  0
SPLINE
  5
AC
330
1F
100
AcDbEntity
  8
0
  6
Continuous
 62
     7
370
    25
100
AcDbSpline
210
0.0
220
0.0
230
1.0
 70
     8
 71
     3
 72
    11
 73
     7
 74
     0
 42
0.00000001
 43
0.00000001
 40
0.0
 40
0.0
 40
0.0
 40
0.0
 40
0.2731656445547256
 40
0.5274113090719864
 40
0.7672619830757357
 40
1.0
 40
1.0
 40
1.0
 40
1.0
 10
60.20144576205045
 20
30.28252997977808
 30
0.0
 10
60.19333767130435
 20
30.29121525661093
 30
0.0
 10
60.17768307183432
 20
30.3079842512315
 30
0.0
 10
60.15979455351012
 20
30.33625020549957
 30
0.0
 10
60.14683194737175
 20
30.3652719640071
 30
0.0
 10
60.14306783317311
 20
30.3855017051604
 30
0.0
 10
60.1412141018188
 20
30.39546434271245
 30
0.0
  0
SPLINE
  5
AD
330
1F
100
AcDbEntity
  8
0
  6
Continuous
 62
     7
370
    25
100
AcDbSpline
210
0.0
220
0.0
230
1.0
 70
     8
 71
     3
 72
    15
 73
    11
 74
     0
 42
0.00000001
 43
0.00000001
 40
0.0
 40
0.0
 40
0.0
 40
0.0
 40
0.1495888260512937
 40
0.2896239650819629
 40
0.421929086193719
 40
0.5465682968532926
 40
0.6661289243466403
 40
0.7799971355270189
 40
0.8908038749321936
 40
1.0
 40
1.0
 40
1.0
 40
1.0
 10
60.42731448791918
 20
30.20724040448851
 30
0.0
 10
60.4151261465295
 20
30.20740743685875
 30
0.0
 10
60.39152788819541
 20
30.20773083385733
 30
0.0
 10
60.35734416541518
 20
30.21155670508627
 30
0.0
 10
60.3254435169958
 20
30.21710836616197
 30
0.0
 10
60.29601129227549
 20
30.22580649264144
 30
0.0
 10
60.26848675417621
 20
30.23564571279361
 30
0.0
 10
60.24382796122989
 20
30.24913837923484
 30
0.0
 10
60.22119796589828
 20
30.26434957874068
 30
0.0
 10
60.20799761728166
 20
30.27649949545542
 30
0.0
 10
60.20144576205045
 20
30.28252997977808
 30
0.0
  0
SPLINE
  5
AE
330
1F
100
AcDbEntity
  8
0
  6
Continuous
 62
     7
370
    25
100
AcDbSpline
210
0.0
220
0.0
230
1.0
 70
     8
 71
     3
 72
    15
 73
    11
 74
     0
 42
0.00000001
 43
0.00000001
 40
0.0
 40
0.0
 40
0.0
 40
0.0
 40
0.1195027114365314
 40
0.2380939422658887
 40
0.3566476293726337
 40
0.477580619576914
 40
0.6003630199241492
 40
0.7278327340041411
 40
0.8606471500295816
 40
1.0
 40
1.0
 40
1.0
 40
1.0
 10
60.66824112884582
 20
30.297587894836
 30
0.0
 10
60.66058541499891
 20
30.29034722827035
 30
0.0
 10
60.64533237957603
 20
30.27592112172829
 30
0.0
 10
60.61977133028975
 20
30.25745958721997
 30
0.0
 10
60.59213754723228
 20
30.24214530643325
 30
0.0
 10
60.56290772712188
 20
30.22916611755861
 30
0.0
 10
60.53159010389231
 20
30.21954731976812
 30
0.0
 10
60.49861989475717
 20
30.21215611127289
 30
0.0
 10
60.46357754939689
 20
30.20801847159313
 30
0.0
 10
60.43959423019547
 20
30.20750388096096
 30
0.0
 10
60.42731448791918
 20
30.20724040448851
 30
0.0
  0
SPLINE
  5
AF
330
1F
100
AcDbEntity
  8
0
  6
Continuous
 62
     7
370
    25
100
AcDbSpline
210
0.0
220
0.0
230
1.0
 70
     8
 71
     3
 72
    15
 73
    11
 74
     0
 42
0.00000001
 43
0.00000001
 40
0.0
 40
0.0
 40
0.0
 40
0.0
 40
0.1401156952848865
 40
0.2734369515897451
 40
0.4007170918852056
 40
0.5244111544238707
 40
0.6451326608364117
 40
0.7627629456192486
 40
0.8809824433211498
 40
1.0
 40
1.0
 40
1.0
 40
1.0
 10
60.76611757672227
 20
30.56110140834951
 30
0.0
 10
60.76592082069284
 20
30.54760588885472
 30
0.0
 10
60.76553684965531
 20
30.52126926965387
 30
0.0
 10
60.76048701805303
 20
30.48297070822806
 30
0.0
 10
60.75323253528593
 20
30.4466490169354
 30
0.0
 10
60.7421221641897
 20
30.41257694360571
 30
0.0
 10
60.72867126989146
 20
30.38037119859469
 30
0.0
 10
60.71168369372435
 20
30.35046148595739
 30
0.0
 10
60.69158543158836
 20
30.32273546803576
 30
0.0
 10
60.67603999456864
 20
30.30598919723525
 30
0.0
 10
60.66824112884582
 20
30.297587894836
 30
0.0
  0
SPLINE
  5
B0
330
1F
100
AcDbEntity
  8
0
  6
Continuous
 62
     7
370
    25
100
AcDbSpline
210
0.0
220
0.0
230
1.0
 70
     8
 71
     3
 72
    15
 73
    11
 74
     0
 42
0.00000001
 43
0.00000001
 40
0.0
 40
0.0
 40
0.0
 40
0.0
 40
0.1270527522076893
 40
0.2522753243044992
 40
0.3739697899787136
 40
0.4948832629277702
 40
0.6176556772794561
 40
0.741939912446616
 40
0.8684128160693884
 40
1.0
 40
1.0
 40
1.0
 40
1.0
 10
60.66824112884582
 20
30.80202804927616
 30
0.0
 10
60.67603304907478
 20
30.7938096999545
 30
0.0
 10
60.69150464782852
 20
30.77749138567683
 30
0.0
 10
60.71145866553449
 20
30.75072113239573
 30
0.0
 10
60.7284042846351
 20
30.72261404789929
 30
0.0
 10
60.74209352908556
 20
30.69303317879297
 30
0.0
 10
60.75314968771375
 20
30.66210131985923
 30
0.0
 10
60.76039120063825
 20
30.62958053976482
 30
0.0
 10
60.76553249902376
 20
30.59584221515623
 30
0.0
 10
60.76591999102781
 20
30.57283367306617
 30
0.0
 10
60.76611757672227
 20
30.56110140834951
 30
0.0
  0
SPLINE
  5
B1
330
1F
100
AcDbEntity
  8
0
  6
Continuous
 62
     7
370
    25
100
AcDbSpline
210
0.0
220
0.0
230
1.0
 70
     8
 71
     3
 72
    15
 73
    11
 74
     0
 42
0.00000001
 43
0.00000001
 40
0.0
 40
0.0
 40
0.0
 40
0.0
 40
0.1342207616992956
 40
0.2632543584014017
 40
0.3882486178889513
 40
0.5110181775835605
 40
0.6322369822528026
 40
0.7532951172272373
 40
0.8750618099117069
 40
1.0
 40
1.0
 40
1.0
 40
1.0
 10
60.38214074274543
 20
30.91496241221052
 30
0.0
 10
60.39628569818225
 20
30.91467301836753
 30
0.0
 10
60.42402895579002
 20
30.91410541474573
 30
0.0
 10
60.46466328887455
 20
30.90870164838593
 30
0.0
 10
60.50337033019361
 20
30.89969592650617
 30
0.0
 10
60.54034858471756
 20
30.88751352025097
 30
0.0
 10
60.57542464229332
 20
30.87153855954078
 30
0.0
 10
60.60839386256242
 20
30.85184121320306
 30
0.0
 10
60.63974861030579
 20
30.82892627925698
 30
0.0
 10
60.65866257362066
 20
30.8110706399116
 30
0.0
 10
60.66824112884582
 20
30.80202804927616
 30
0.0
  0
LINE
  5
B2
330
1F
100
AcDbEntity
  8
0
  6
Continuous
 62
     7
370
    25
100
AcDbLine
 10
60.3821407427
 20
31.7130319103
 30
0.0
 11
60.3821407427
 21
31.8786689759
 31
0.0
  0
SPLINE
  5
B3
330
1F
100
AcDbEntity
  8
0
  6
Continuous
 62
     7
370
    25
100
AcDbSpline
210
0.0
220
0.0
230
1.0
 70
     8
 71
     3
 72
    15
 73
    11
 74
     0
 42
0.00000001
 43
0.00000001
 40
0.0
 40
0.0
 40
0.0
 40
0.0
 40
0.1017738366845024
 40
0.2081280746103132
 40
0.3195222361320726
 40
0.4377158324105372
 40
0.5640612668215816
 40
0.7002741501736239
 40
0.8452618826189012
 40
1.0
 40
1.0
 40
1.0
 40
1.0
 10
60.57789363849833
 20
31.6452712925194
 30
0.0
 10
60.57262723045652
 20
31.65016547385133
 30
0.0
 10
60.56185739607118
 20
31.66017410249886
 30
0.0
 10
60.5429215324515
 20
31.67257860160551
 30
0.0
 10
60.52183000908403
 20
31.68340865611792
 30
0.0
 10
60.49860540858787
 20
31.69308284731186
 30
0.0
 10
60.4727062775885
 20
31.70033708166543
 30
0.0
 10
60.44463140625179
 20
31.70660607908722
 30
0.0
 10
60.41410524469703
 20
31.71059998243589
 30
0.0
 10
60.39302417292232
 20
31.71220387557681
 30
0.0
 10
60.38214074274543
 20
31.71303191028001
 30
0.0
  0
SPLINE
  5
B4
330
1F
100
AcDbEntity
  8
0
  6
Continuous
 62
     7
370
    25
100
AcDbSpline
210
0.0
220
0.0
230
1.0
 70
     8
 71
     3
 72
    11
 73
     7
 74
     0
 42
0.00000001
 43
0.00000001
 40
0.0
 40
0.0
 40
0.0
 40
0.0
 40
0.245086880521903
 40
0.4875552456976432
 40
0.7346288455311487
 40
1.0
 40
1.0
 40
1.0
 40
1.0
 10
60.63059634120103
 20
31.52480797205608
 30
0.0
 10
60.62994163781829
 20
31.53584973602208
 30
0.0
 10
60.62863922592275
 20
31.55781529342731
 30
0.0
 10
60.6184356308615
 20
31.58959458271281
 30
0.0
 10
60.60160632599728
 20
31.61941113761885
 30
0.0
 10
60.58598380891809
 20
31.63644846042853
 30
0.0
 10
60.57789363849833
 20
31.6452712925194
 30
0.0
  0
SPLINE
  5
B5
330
1F
100
AcDbEntity
  8
0
  6
Continuous
 62
     7
370
    25
100
AcDbSpline
210
0.0
220
0.0
230
1.0
 70
     8
 71
     3
 72
    11
 73
     7
 74
     0
 42
0.00000001
 43
0.00000001
 40
0.0
 40
0.0
 40
0.0
 40
0.0
 40
0.2388203430261978
 40
0.4777994110081061
 40
0.7288233729769943
 40
1.0
 40
1.0
 40
1.0
 40
1.0
 10
60.58542259602729
 20
31.40434465159276
 30
0.0
 10
60.59240563230213
 20
31.41225252376125
 30
0.0
 10
60.60637634592263
 20
31.42807352383419
 30
0.0
 10
60.62066102369972
 20
31.45718378385406
 30
0.0
 10
60.6291625937731
 20
31.48983731141269
 30
0.0
 10
60.6301062857978
 20
31.5128549872632
 30
0.0
 10
60.63059634120103
 20
31.52480797205608
 30
0.0
  0
SPLINE
  5
B6
330
1F
100
AcDbEntity
  8
0
  6
Continuous
 62
     7
370
    25
100
AcDbSpline
210
0.0
220
0.0
230
1.0
 70
     8
 71
     3
 72
    15
 73
    11
 74
     0
 42
0.00000001
 43
0.00000001
 40
0.0
 40
0.0
 40
0.0
 40
0.0
 40
0.1380420997033144
 40
0.2691721599589624
 40
0.3953313456434699
 40
0.5186017941434374
 40
0.6392985515224104
 40
0.7600805617867298
 40
0.8784957553092653
 40
1.0
 40
1.0
 40
1.0
 40
1.0
 10
60.42731448791918
 20
31.3441129913611
 30
0.0
 10
60.43532357138751
 20
31.34419912261405
 30
0.0
 10
60.4509407077618
 20
31.34436707235872
 30
0.0
 10
60.47361990767696
 20
31.34784233813921
 30
0.0
 10
60.4953230585613
 20
31.35193290127251
 30
0.0
 10
60.51565483813346
 20
31.35889591942142
 30
0.0
 10
60.53518650340708
 20
31.36708458998077
 30
0.0
 10
60.55307865100339
 20
31.37787113418931
 30
0.0
 10
60.57029914107324
 20
31.38980945639723
 30
0.0
 10
60.58033835816955
 20
31.39945817625313
 30
0.0
 10
60.58542259602729
 20
31.40434465159276
 30
0.0
  0
SPLINE
  5
B7
330
1F
100
AcDbEntity
  8
0
  6
Continuous
 62
     7
370
    25
100
AcDbSpline
210
0.0
220
0.0
230
1.0
 70
     8
 71
     3
 72
    15
 73
    11
 74
     0
 42
0.00000001
 43
0.00000001
 40
0.0
 40
0.0
 40
0.0
 40
0.0
 40
0.1133059292696166
 40
0.2263015370273198
 40
0.3429947497841047
 40
0.4612849748553941
 40
0.5864354642724742
 40
0.7160226876888953
 40
0.854754001970278
 40
0.9999999999999999
 40
0.9999999999999999
 40
0.9999999999999999
 40
0.9999999999999999
 10
60.25414846475316
 20
31.40434465159276
 30
0.0
 10
60.25931210817995
 20
31.39943685460836
 30
0.0
 10
60.26962525288187
 20
31.38963470208071
 30
0.0
 10
60.28769619333757
 20
31.37781329837757
 30
0.0
 10
60.30671279443447
 20
31.36702194252617
 30
0.0
 10
60.32779594396648
 20
31.35874308139651
 30
0.0
 10
60.35022946167972
 20
31.35192085179182
 30
0.0
 10
60.37459826407142
 20
31.34777412433703
 30
0.0
 10
60.40035797034751
 20
31.34438303821889
 30
0.0
 10
60.41819260147039
 20
31.34420437322325
 30
0.0
 10
60.42731448791918
 20
31.3441129913611
 30
0.0
  0
SPLINE
  5
B8
330
1F
100
AcDbEntity
  8
0
  6
Continuous
 62
     7
370
    25
100
AcDbSpline
210
0.0
220
0.0
230
1.0
 70
     8
 71
     3
 72
    11
 73
     7
 74
     0
 42
0.00000001
 43
0.00000001
 40
0.0
 40
0.0
 40
0.0
 40
0.0
 40
0.2322932923175288
 40
0.468218608103474
 40
0.7217939329173699
 40
1.0
 40
1.0
 40
1.0
 40
1.0
 10
60.1939168045215
 20
31.53233692958504
 30
0.0
 10
60.19471292951619
 20
31.5210904060242
 30
0.0
 10
60.19631762732374
 20
31.49842151380126
 30
0.0
 10
60.20828328073173
 20
31.46521396461274
 30
0.0
 10
60.22765375887025
 20
31.43328521699766
 30
0.0
 10
60.24504833876912
 20
31.41428485596406
 30
0.0
 10
60.25414846475316
 20
31.40434465159276
 30
0.0
  0
LINE
  5
B9
330
1F
100
AcDbEntity
  8
0
  6
Continuous
 62
     7
370
    25
100
AcDbLine
 10
60.1939168045
 20
31.5775106748
 30
0.0
 11
60.1939168045
 21
31.5323369296
 31
0.0
  0
LINE
  5
BA
330
1F
100
AcDbEntity
  8
0
  6
Continuous
 62
     7
370
    25
100
AcDbLine
 10
60.0659245265
 20
31.5775106748
 30
0.0
 11
60.1939168045
 21
31.5775106748
 31
0.0
  0
LINE
  5
BB
330
1F
100
AcDbEntity
  8
0
  6
Continuous
 62
     7
370
    25
100
AcDbLine
 10
60.0659245265
 20
31.5172790145
 30
0.0
 11
60.0659245265
 21
31.5775106748
 31
0.0
  0
SPLINE
  5
BC
330
1F
100
AcDbEntity
  8
0
  6
Continuous
 62
     7
370
    25
100
AcDbSpline
210
0.0
220
0.0
230
1.0
 70
     8
 71
     3
 72
    11
 73
     7
 74
     0
 42
0.00000001
 43
0.00000001
 40
0.0
 40
0.0
 40
0.0
 40
0.0
 40
0.2676320905605552
 40
0.5177929452577187
 40
0.7570315487829561
 40
1.0
 40
1.0
 40
1.0
 40
1.0
 10
60.00569286629756
 20
31.38175777900588
 30
0.0
 10
60.01499690232982
 20
31.39172405238392
 30
0.0
 10
60.03299759951766
 20
31.41100599288234
 30
0.0
 10
60.05153687383881
 20
31.44496258728983
 30
0.0
 10
60.06410136777477
 20
31.48033773777807
 30
0.0
 10
60.06531368121626
 20
31.50490192136286
 30
0.0
 10
60.06592452652922
 20
31.51727901452712
 30
0.0
  0
SPLINE
  5
BD
330
1F
100
AcDbEntity
  8
0
  6
Continuous
 62
     7
370
    25
100
AcDbSpline
210
0.0
220
0.0
230
1.0
 70
     8
 71
     3
 72
    15
 73
    11
 74
     0
 42
0.00000001
 43
0.00000001
 40
0.0
 40
0.0
 40
0.0
 40
0.0
 40
0.1417962611116216
 40
0.2768819513476976
 40
0.4055805706087828
 40
0.5298229690785616
 40
0.6485572024501447
 40
0.7672114666371235
 40
0.8821786188665559
 40
1.0
 40
1.0
 40
1.0
 40
1.0
 10
59.84005580066049
 20
31.32152611877422
 30
0.0
 10
59.84862130697902
 20
31.32161416780022
 30
0.0
 10
59.86534695323486
 20
31.32178609889306
 30
0.0
 10
59.88961069629934
 20
31.32523496121339
 30
0.0
 10
59.91269639491585
 20
31.32932402611409
 30
0.0
 10
59.93409526158572
 20
31.33619588617073
 30
0.0
 10
59.95431703248322
 20
31.34451179722694
 30
0.0
 10
59.97273893538005
 20
31.35520073643035
 30
0.0
 10
59.99027816558723
 20
31.36722233454485
 30
0.0
 10
60.0005128036343
 20
31.3768731876952
 30
0.0
 10
60.00569286629756
 20
31.38175777900588
 30
0.0
  0
SPLINE
  5
BE
330
1F
100
AcDbEntity
  8
0
  6
Continuous
 62
     7
370
    25
100
AcDbSpline
210
0.0
220
0.0
230
1.0
 70
     8
 71
     3
 72
    15
 73
    11
 74
     0
 42
0.00000001
 43
0.00000001
 40
0.0
 40
0.0
 40
0.0
 40
0.0
 40
0.106234453290817
 40
0.2134351374465925
 40
0.3266362515327413
 40
0.4454478074346339
 40
0.5709125865608569
 40
0.7047818913259152
 40
0.8472638984122981
 40
1.0
 40
1.0
 40
1.0
 40
1.0
 10
59.65183186243655
 20
31.38175777900588
 30
0.0
 10
59.65708474609717
 20
31.37684173454225
 30
0.0
 10
59.66763828980512
 20
31.36696493287116
 30
0.0
 10
59.68635070786138
 20
31.35510371898258
 30
0.0
 10
59.70658705238113
 20
31.34424461730329
 30
0.0
 10
59.72942855997887
 20
31.33620086590416
 30
0.0
 10
59.75404839798326
 20
31.32921974822943
 30
0.0
 10
59.78094418834824
 20
31.32522220457106
 30
0.0
 10
59.80975901953983
 20
31.32176147158183
 30
0.0
 10
59.82972569965235
 20
31.32160636552603
 30
0.0
 10
59.84005580066049
 20
31.32152611877422
 30
0.0
  0
SPLINE
  5
BF
330
1F
100
AcDbEntity
  8
0
  6
Continuous
 62
     7
370
    25
100
AcDbSpline
210
0.0
220
0.0
230
1.0
 70
     8
 71
     3
 72
    15
 73
    11
 74
     0
 42
0.00000001
 43
0.00000001
 40
0.0
 40
0.0
 40
0.0
 40
0.0
 40
0.1380420997033144
 40
0.2691721599589617
 40
0.3953313456434698
 40
0.5186017941434365
 40
0.6392985515224103
 40
0.7600805617867292
 40
0.8784957553092648
 40
1.0
 40
1.0
 40
1.0
 40
1.0
 10
59.59160020220489
 20
31.53986588711399
 30
0.0
 10
59.59168633345785
 20
31.53185680364567
 30
0.0
 10
59.59185428320252
 20
31.51623966727138
 30
0.0
 10
59.59532954898302
 20
31.49356046735622
 30
0.0
 10
59.59942011211631
 20
31.47185731647188
 30
0.0
 10
59.60638313026522
 20
31.45152553689971
 30
0.0
 10
59.61457180082456
 20
31.43199387162609
 30
0.0
 10
59.62535834503311
 20
31.41410172402979
 30
0.0
 10
59.63729666724103
 20
31.39688123395993
 30
0.0
 10
59.64694538709693
 20
31.38684201686363
 30
0.0
 10
59.65183186243655
 20
31.38175777900588
 30
0.0
  0
SPLINE
  5
C0
330
1F
100
AcDbEntity
  8
0
  6
Continuous
 62
     7
370
    25
100
AcDbSpline
210
0.0
220
0.0
230
1.0
 70
     8
 71
     3
 72
    11
 73
     7
 74
     0
 42
0.00000001
 43
0.00000001
 40
0.0
 40
0.0
 40
0.0
 40
0.0
 40
0.2550921435312737
 40
0.4983791954134782
 40
0.7437399667914607
 40
1.0
 40
1.0
 40
1.0
 40
1.0
 10
59.6443029049076
 20
31.66785816510627
 30
0.0
 10
59.63618195790747
 20
31.65886362727706
 30
0.0
 10
59.62031588310059
 20
31.64129079863413
 30
0.0
 10
59.60357818629394
 20
31.60993190397014
 30
0.0
 10
59.59346404227507
 20
31.57581242716825
 30
0.0
 10
59.59223041700181
 20
31.55202038566925
 30
0.0
 10
59.59160020220489
 20
31.53986588711399
 30
0.0
  0
SPLINE
  5
C1
330
1F
100
AcDbEntity
  8
0
  6
Continuous
 62
     7
370
    25
100
AcDbSpline
210
0.0
220
0.0
230
1.0
 70
     8
 71
     3
 72
    15
 73
    11
 74
     0
 42
0.00000001
 43
0.00000001
 40
0.0
 40
0.0
 40
0.0
 40
0.0
 40
0.1305521219623387
 40
0.2575145556980029
 40
0.3807268344757818
 40
0.5030306145961513
 40
0.6251462349433742
 40
0.7476378858044691
 40
0.8722881459663865
 40
1.0
 40
1.0
 40
1.0
 40
1.0
 10
59.80993997054466
 20
31.73561878286689
 30
0.0
 10
59.80193729599247
 20
31.73538432926182
 30
0.0
 10
59.78615199008762
 20
31.73492186863665
 30
0.0
 10
59.76296866952589
 20
31.73186792428689
 30
0.0
 10
59.74071515942519
 20
31.72655730167488
 30
0.0
 10
59.71948976150253
 20
31.7188991031345
 30
0.0
 10
59.69898693778556
 20
31.70953963257214
 30
0.0
 10
59.67973676975904
 20
31.69756899442558
 30
0.0
 10
59.66109902639492
 20
31.68404203311771
 30
0.0
 10
59.64994671110068
 20
31.67329624285415
 30
0.0
 10
59.6443029049076
 20
31.66785816510627
 30
0.0
  0
LINE
  5
C2
330
1F
100
AcDbEntity
  8
0
  6
Continuous
 62
     7
370
    25
100
AcDbLine
 10
59.8626426732
 20
31.7356187829
 30
0.0
 11
59.8099399705
 21
31.7356187829
 31
0.0
  0
LINE
  5
C3
330
1F
100
AcDbEntity
  8
0
  6
Continuous
 62
     7
370
    25
100
AcDbLine
 10
59.8626426732
 20
31.9138041111
 30
0.0
 11
59.8626426732
 21
31.7356187829
 31
0.0
  0
LINE
  5
C4
330
1F
100
AcDbEntity
  8
0
  6
Continuous
 62
     7
370
    25
100
AcDbLine
 10
59.802411013
 20
31.9138041111
 30
0.0
 11
59.8626426732
 21
31.9138041111
 31
0.0
  0
SPLINE
  5
C5
330
1F
100
AcDbEntity
  8
0
  6
Continuous
 62
     7
370
    25
100
AcDbSpline
210
0.0
220
0.0
230
1.0
 70
     8
 71
     3
 72
    15
 73
    11
 74
     0
 42
0.00000001
 43
0.00000001
 40
0.0
 40
0.0
 40
0.0
 40
0.0
 40
0.1339120169181254
 40
0.2615284644313488
 40
0.3861887226529778
 40
0.5091929985924207
 40
0.6296768122270384
 40
0.7512559744353482
 40
0.8742965747069023
 40
1.0
 40
1.0
 40
1.0
 40
1.0
 10
59.55395541456011
 20
31.80337940062751
 30
0.0
 10
59.56281316633724
 20
31.81219653773072
 30
0.0
 10
59.58011224280477
 20
31.82941629425708
 30
0.0
 10
59.60833365596403
 20
31.85192464874884
 30
0.0
 10
59.63773003034299
 20
31.87102755331381
 30
0.0
 10
59.66837744596292
 20
31.88666053021175
 30
0.0
 10
59.70026333679701
 20
31.89881610641818
 30
0.0
 10
59.73327350496089
 20
31.90737393290437
 30
0.0
 10
59.76745897567334
 20
31.91294803652345
 30
0.0
 10
59.79067748190248
 20
31.91351672359551
 30
0.0
 10
59.80241101301571
 20
31.91380411105222
 30
0.0
  0
SPLINE
  5
C6
330
1F
100
AcDbEntity
  8
0
  6
Continuous
 62
     7
370
    25
100
AcDbSpline
210
0.0
220
0.0
230
1.0
 70
     8
 71
     3
 72
    15
 73
    11
 74
     0
 42
0.00000001
 43
0.00000001
 40
0.0
 40
0.0
 40
0.0
 40
0.0
 40
0.1330514903197376
 40
0.2614008608137412
 40
0.3859789426424562
 40
0.508465614902219
 40
0.6295593452611172
 40
0.7509246542250767
 40
0.8741074588764663
 40
1.0
 40
1.0
 40
1.0
 40
1.0
 10
59.4485500091547
 20
31.53986588711399
 30
0.0
 10
59.44884925108916
 20
31.55280515990961
 30
0.0
 10
59.44943715956784
 20
31.57822642380488
 30
0.0
 10
59.4547244502914
 20
31.61543446473459
 30
0.0
 10
59.46255477162491
 20
31.65113499178496
 30
0.0
 10
59.47451617930059
 20
31.68493392176649
 30
0.0
 10
59.48921338261867
 20
31.71728980721304
 30
0.0
 10
59.50767130308643
 20
31.74771282410667
 30
0.0
 10
59.52861978865582
 20
31.77711376099625
 30
0.0
 10
59.54544917592611
 20
31.79456091714412
 30
0.0
 10
59.55395541456011
 20
31.80337940062751
 30
0.0
  0
SPLINE
  5
C7
330
1F
100
AcDbEntity
  8
0
  6
Continuous
 62
     7
370
    25
100
AcDbSpline
210
0.0
220
0.0
230
1.0
 70
     8
 71
     3
 72
    15
 73
    11
 74
     0
 42
0.00000001
 43
0.00000001
 40
0.0
 40
0.0
 40
0.0
 40
0.0
 40
0.115883080271786
 40
0.231553449797961
 40
0.3480625771524269
 40
0.4678553783950304
 40
0.5925908197539046
 40
0.7213115030172621
 40
0.8571441704632067
 40
1.0
 40
1.0
 40
1.0
 40
1.0
 10
59.55395541456011
 20
31.24623654348465
 30
0.0
 10
59.54541961105458
 20
31.25522239183657
 30
0.0
 10
59.52836367205237
 20
31.27317759444568
 30
0.0
 10
59.50746550960935
 20
31.30406003695294
 30
0.0
 10
59.48895438748597
 20
31.33682723861199
 30
0.0
 10
59.47432048755911
 20
31.37258366979767
 30
0.0
 10
59.46249862203118
 20
31.41071156342946
 30
0.0
 10
59.45463461916192
 20
31.45158703842216
 30
0.0
 10
59.44942371970274
 20
31.49483593374196
 30
0.0
 10
59.44884609817136
 20
31.52460582799738
 30
0.0
 10
59.4485500091547
 20
31.53986588711399
 30
0.0
  0
SPLINE
  5
C8
330
1F
100
AcDbEntity
  8
0
  6
Continuous
 62
     7
370
    25
100
AcDbSpline
210
0.0
220
0.0
230
1.0
 70
     8
 71
     3
 72
    15
 73
    11
 74
     0
 42
0.00000001
 43
0.00000001
 40
0.0
 40
0.0
 40
0.0
 40
0.0
 40
0.135465841810947
 40
0.2653728839126842
 40
0.39152662799182
 40
0.5146179992444259
 40
0.6353652389705201
 40
0.7554358763572422
 40
0.8764282152102189
 40
1.0
 40
1.0
 40
1.0
 40
1.0
 10
59.82499788560258
 20
31.14083113807924
 30
0.0
 10
59.81150124074463
 20
31.14112661853664
 30
0.0
 10
59.78506178175469
 20
31.14170545450053
 30
0.0
 10
59.74637416533098
 20
31.14701341069346
 30
0.0
 10
59.70936932209226
 20
31.1547956532089
 30
0.0
 10
59.67444392521842
 20
31.16674560559975
 30
0.0
 10
59.64124111387022
 20
31.18143085733915
 30
0.0
 10
59.6102319227851
 20
31.1998729266315
 30
0.0
 10
59.5805116247518
 20
31.22089959894955
 30
0.0
 10
59.56286950909821
 20
31.23773171853928
 30
0.0
 10
59.55395541456011
 20
31.24623654348465
 30
0.0
  0
SPLINE
  5
C9
330
1F
100
AcDbEntity
  8
0
  6
Continuous
 62
     7
370
    25
100
AcDbSpline
210
0.0
220
0.0
230
1.0
 70
     8
 71
     3
 72
    15
 73
    11
 74
     0
 42
0.00000001
 43
0.00000001
 40
0.0
 40
0.0
 40
0.0
 40
0.0
 40
0.1195027114365311
 40
0.2380939422658885
 40
0.3566476293726337
 40
0.4775806195769139
 40
0.6003630199241493
 40
0.727832734004141
 40
0.8606471500295815
 40
1.0
 40
1.0
 40
1.0
 40
1.0
 10
60.06592452652922
 20
31.23117862842674
 30
0.0
 10
60.05826881268231
 20
31.22393796186108
 30
0.0
 10
60.04301577725943
 20
31.20951185531902
 30
0.0
 10
60.01745472797315
 20
31.19105032081071
 30
0.0
 10
59.98982094491568
 20
31.17573604002399
 30
0.0
 10
59.96059112480528
 20
31.16275685114934
 30
0.0
 10
59.92927350157571
 20
31.15313805335885
 30
0.0
 10
59.89630329244057
 20
31.14574684486363
 30
0.0
 10
59.8612609470803
 20
31.14160920518386
 30
0.0
 10
59.83727762787886
 20
31.14109461455169
 30
0.0
 10
59.82499788560258
 20
31.14083113807924
 30
0.0
  0
SPLINE
  5
CA
330
1F
100
AcDbEntity
  8
0
  6
Continuous
 62
     7
370
    25
100
AcDbSpline
210
0.0
220
0.0
230
1.0
 70
     8
 71
     3
 72
    11
 73
     7
 74
     0
 42
0.00000001
 43
0.00000001
 40
0.0
 40
0.0
 40
0.0
 40
0.0
 40
0.2570374775372501
 40
0.5073419159098046
 40
0.7523129875772131
 40
1.0
 40
1.0
 40
1.0
 40
1.0
 10
60.1412141018188
 20
31.35917090641901
 30
0.0
 10
60.13716112947073
 20
31.34695886838571
 30
0.0
 10
60.12916135147766
 20
31.32285468392071
 30
0.0
 10
60.11182772854382
 20
31.28933924909884
 30
0.0
 10
60.09114700033656
 20
31.25833528702457
 30
0.0
 10
60.07436286050709
 20
31.24026405584047
 30
0.0
 10
60.06592452652922
 20
31.23117862842674
 30
0.0
  0
SPLINE
  5
CB
330
1F
100
AcDbEntity
  8
0
  6
Continuous
 62
     7
370
    25
100
AcDbSpline
210
0.0
220
0.0
230
1.0
 70
     8
 71
     3
 72
    11
 73
     7
 74
     0
 42
0.00000001
 43
0.00000001
 40
0.0
 40
0.0
 40
0.0
 40
0.0
 40
0.273165644554725
 40
0.5274113090719873
 40
0.7672619830757366
 40
1.0
 40
1.0
 40
1.0
 40
1.0
 10
60.20144576205045
 20
31.24623654348465
 30
0.0
 10
60.19333767130435
 20
31.25492182031749
 30
0.0
 10
60.17768307183432
 20
31.27169081493807
 30
0.0
 10
60.15979455351012
 20
31.29995676920613
 30
0.0
 10
60.14683194737175
 20
31.32897852771367
 30
0.0
 10
60.14306783317311
 20
31.34920826886697
 30
0.0
 10
60.1412141018188
 20
31.35917090641901
 30
0.0
  0
SPLINE
  5
CC
330
1F
100
AcDbEntity
  8
0
  6
Continuous
 62
     7
370
    25
100
AcDbSpline
210
0.0
220
0.0
230
1.0
 70
     8
 71
     3
 72
    15
 73
    11
 74
     0
 42
0.00000001
 43
0.00000001
 40
0.0
 40
0.0
 40
0.0
 40
0.0
 40
0.1495888260512937
 40
0.289623965081963
 40
0.4219290861937191
 40
0.5465682968532924
 40
0.6661289243466405
 40
0.7799971355270189
 40
0.8908038749321938
 40
1.0
 40
1.0
 40
1.0
 40
1.0
 10
60.42731448791918
 20
31.17094696819508
 30
0.0
 10
60.4151261465295
 20
31.17111400056531
 30
0.0
 10
60.39152788819541
 20
31.1714373975639
 30
0.0
 10
60.35734416541518
 20
31.17526326879283
 30
0.0
 10
60.3254435169958
 20
31.18081492986854
 30
0.0
 10
60.29601129227549
 20
31.18951305634801
 30
0.0
 10
60.26848675417621
 20
31.19935227650017
 30
0.0
 10
60.24382796122989
 20
31.21284494294141
 30
0.0
 10
60.22119796589828
 20
31.22805614244724
 30
0.0
 10
60.20799761728166
 20
31.24020605916198
 30
0.0
 10
60.20144576205045
 20
31.24623654348465
 30
0.0
  0
SPLINE
  5
CD
330
1F
100
AcDbEntity
  8
0
  6
Continuous
 62
     7
370
    25
100
AcDbSpline
210
0.0
220
0.0
230
1.0
 70
     8
 71
     3
 72
    15
 73
    11
 74
     0
 42
0.00000001
 43
0.00000001
 40
0.0
 40
0.0
 40
0.0
 40
0.0
 40
0.1195027114365316
 40
0.2380939422658889
 40
0.356647629372634
 40
0.4775806195769139
 40
0.6003630199241491
 40
0.727832734004141
 40
0.8606471500295814
 40
1.0
 40
1.0
 40
1.0
 40
1.0
 10
60.66824112884582
 20
31.26129445854257
 30
0.0
 10
60.66058541499891
 20
31.25405379197691
 30
0.0
 10
60.64533237957603
 20
31.23962768543485
 30
0.0
 10
60.61977133028975
 20
31.22116615092653
 30
0.0
 10
60.59213754723228
 20
31.20585187013982
 30
0.0
 10
60.56290772712188
 20
31.19287268126517
 30
0.0
 10
60.53159010389231
 20
31.18325388347468
 30
0.0
 10
60.49861989475717
 20
31.17586267497945
 30
0.0
 10
60.46357754939689
 20
31.17172503529969
 30
0.0
 10
60.43959423019547
 20
31.17121044466752
 30
0.0
 10
60.42731448791918
 20
31.17094696819508
 30
0.0
  0
SPLINE
  5
CE
330
1F
100
AcDbEntity
  8
0
  6
Continuous
 62
     7
370
    25
100
AcDbSpline
210
0.0
220
0.0
230
1.0
 70
     8
 71
     3
 72
    15
 73
    11
 74
     0
 42
0.00000001
 43
0.00000001
 40
0.0
 40
0.0
 40
0.0
 40
0.0
 40
0.1401156952848869
 40
0.2734369515897455
 40
0.4007170918852058
 40
0.5244111544238709
 40
0.6451326608364121
 40
0.7627629456192486
 40
0.8809824433211502
 40
1.0
 40
1.0
 40
1.0
 40
1.0
 10
60.76611757672227
 20
31.52480797205608
 30
0.0
 10
60.76592082069284
 20
31.51131245256128
 30
0.0
 10
60.76553684965531
 20
31.48497583336044
 30
0.0
 10
60.76048701805303
 20
31.44667727193462
 30
0.0
 10
60.75323253528593
 20
31.41035558064196
 30
0.0
 10
60.7421221641897
 20
31.37628350731228
 30
0.0
 10
60.72867126989146
 20
31.34407776230125
 30
0.0
 10
60.71168369372435
 20
31.31416804966395
 30
0.0
 10
60.69158543158836
 20
31.28644203174232
 30
0.0
 10
60.67603999456864
 20
31.26969576094181
 30
0.0
 10
60.66824112884582
 20
31.26129445854257
 30
0.0
  0
SPLINE
  5
CF
330
1F
100
AcDbEntity
  8
0
  6
Continuous
 62
     7
370
    25
100
AcDbSpline
210
0.0
220
0.0
230
1.0
 70
     8
 71
     3
 72
    15
 73
    11
 74
     0
 42
0.00000001
 43
0.00000001
 40
0.0
 40
0.0
 40
0.0
 40
0.0
 40
0.1270527522076898
 40
0.2522753243044994
 40
0.3739697899787143
 40
0.49488326292777
 40
0.6176556772794562
 40
0.7419399124466164
 40
0.868412816069388
 40
1.0
 40
1.0
 40
1.0
 40
1.0
 10
60.66824112884582
 20
31.76573461298272
 30
0.0
 10
60.67603304907478
 20
31.75751626366106
 30
0.0
 10
60.69150464782852
 20
31.74119794938339
 30
0.0
 10
60.71145866553449
 20
31.71442769610229
 30
0.0
 10
60.7284042846351
 20
31.68632061160585
 30
0.0
 10
60.74209352908556
 20
31.65673974249953
 30
0.0
 10
60.75314968771375
 20
31.62580788356579
 30
0.0
 10
60.76039120063825
 20
31.59328710347139
 30
0.0
 10
60.76553249902376
 20
31.55954877886279
 30
0.0
 10
60.76591999102781
 20
31.53654023677273
 30
0.0
 10
60.76611757672227
 20
31.52480797205608
 30
0.0
  0
SPLINE
  5
D0
330
1F
100
AcDbEntity
  8
0
  6
Continuous
 62
     7
370
    25
100
AcDbSpline
210
0.0
220
0.0
230
1.0
 70
     8
 71
     3
 72
    15
 73
    11
 74
     0
 42
0.00000001
 43
0.00000001
 40
0.0
 40
0.0
 40
0.0
 40
0.0
 40
0.1342207616992956
 40
0.2632543584014017
 40
0.3882486178889514
 40
0.5110181775835606
 40
0.6322369822528029
 40
0.7532951172272374
 40
0.8750618099117069
 40
1.0
 40
1.0
 40
1.0
 40
1.0
 10
60.38214074274543
 20
31.87866897591708
 30
0.0
 10
60.39628569818225
 20
31.8783795820741
 30
0.0
 10
60.42402895579002
 20
31.8778119784523
 30
0.0
 10
60.46466328887455
 20
31.87240821209249
 30
0.0
 10
60.50337033019361
 20
31.86340249021273
 30
0.0
 10
60.54034858471756
 20
31.85122008395754
 30
0.0
 10
60.57542464229332
 20
31.83524512324734
 30
0.0
 10
60.60839386256242
 20
31.81554777690963
 30
0.0
 10
60.63974861030579
 20
31.79263284296354
 30
0.0
 10
60.65866257362066
 20
31.77477720361817
 30
0.0
 10
60.66824112884582
 20
31.76573461298272
 30
0.0
  0
SPLINE
  5
D1
330
1F
100
AcDbEntity
  8
0
  6
Continuous
 62
     7
370
    25
100
AcDbSpline
210
0.0
220
0.0
230
1.0
 70
     8
 71
     3
 72
    15
 73
    11
 74
     0
 42
0.00000001
 43
0.00000001
 40
0.0
 40
0.0
 40
0.0
 40
0.0
 40
0.1418032572055069
 40
0.2768956124422272
 40
0.4056005815718937
 40
0.5283792299702862
 40
0.6485398625937332
 40
0.76719998107028
 40
0.882172805670652
 40
0.9999999999999999
 40
0.9999999999999999
 40
0.9999999999999999
 40
0.9999999999999999
 10
60.56283572344041
 20
32.69932534657345
 30
0.0
 10
60.56292258659142
 20
32.6907594419895
 30
0.0
 10
60.56309220205632
 20
32.6740330180509
 30
0.0
 10
60.56655754261958
 20
32.64977480905577
 30
0.0
 10
60.57057286193337
 20
32.62675699187189
 30
0.0
 10
60.57763114978589
 20
32.60542549995806
 30
0.0
 10
60.58573855898752
 20
32.58512259787528
 30
0.0
 10
60.59652051142918
 20
32.56664624962362
 30
0.0
 10
60.60852935727257
 20
32.54910195657965
 30
0.0
 10
60.61818192470893
 20
32.53886799912902
 30
0.0
 10
60.62306738367207
 20
32.53368828093638
 30
0.0
  0
LINE
  5
D2
330
1F
100
AcDbEntity
  8
0
  6
Continuous
 62
     7
370
    25
100
AcDbLine
 10
60.5628357234
 20
32.7670859643
 30
0.0
 11
60.5628357234
 21
32.6993253466
 31
0.0
  0
LINE
  5
D3
330
1F
100
AcDbEntity
  8
0
  6
Continuous
 62
     7
370
    25
100
AcDbLine
 10
60.4738824845
 20
32.7670859643
 30
0.0
 11
60.5628357234
 21
32.7670859643
 31
0.0
  0
LINE
  5
D4
330
1F
100
AcDbEntity
  8
0
  6
Continuous
 62
     7
370
    25
100
AcDbLine
 10
60.4738824845
 20
32.5462365435
 30
0.0
 11
60.4738824845
 21
32.7670859643
 31
0.0
  0
LINE
  5
D5
330
1F
100
AcDbEntity
  8
0
  6
Continuous
 62
     7
370
    25
100
AcDbLine
 10
59.4711368817
 20
32.5462365435
 30
0.0
 11
60.4738824845
 21
32.5462365435
 31
0.0
  0
LINE
  5
D6
330
1F
100
AcDbEntity
  8
0
  6
Continuous
 62
     7
370
    25
100
AcDbLine
 10
59.4711368817
 20
32.3680512153
 30
0.0
 11
59.4711368817
 21
32.5462365435
 31
0.0
  0
LINE
  5
D7
330
1F
100
AcDbEntity
  8
0
  6
Continuous
 62
     7
370
    25
100
AcDbLine
 10
60.7736465343
 20
32.3680512153
 30
0.0
 11
59.4711368817
 21
32.3680512153
 31
0.0
  0
LINE
  5
D8
330
1F
100
AcDbEntity
  8
0
  6
Continuous
 62
     7
370
    25
100
AcDbLine
 10
60.7736465343
 20
32.4583987056
 30
0.0
 11
60.7736465343
 21
32.3680512153
 31
0.0
  0
SPLINE
  5
D9
330
1F
100
AcDbEntity
  8
0
  6
Continuous
 62
     7
370
    25
100
AcDbSpline
210
0.0
220
0.0
230
1.0
 70
     8
 71
     3
 72
    11
 73
     7
 74
     0
 42
0.00000001
 43
0.00000001
 40
0.0
 40
0.0
 40
0.0
 40
0.0
 40
0.268282338961293
 40
0.5197997967341372
 40
0.7604656312619604
 40
1.0
 40
1.0
 40
1.0
 40
1.0
 10
60.62306738367207
 20
32.53368828093638
 30
0.0
 10
60.63435658873143
 20
32.52322567247307
 30
0.0
 10
60.65622953988378
 20
32.50295426074466
 30
0.0
 10
60.6936593918806
 20
32.48028305689748
 30
0.0
 10
60.73273934236008
 20
32.46431000521607
 30
0.0
 10
60.76003223980486
 20
32.46036604119775
 30
0.0
 10
60.77364653425123
 20
32.45839870564681
 30
0.0
  0
LINE
  5
DA
330
1F
100
AcDbEntity
  8
0
  6
Continuous
 62
     7
370
    25
100
AcDbLine
 10
60.0617417723
 20
33.8813716786
 30
0.0
 11
60.186387847
 21
33.8813716786
 31
0.0
  0
LINE
  5
DB
330
1F
100
AcDbEntity
  8
0
  6
Continuous
 62
     7
370
    25
100
AcDbLine
 10
60.0617417723
 20
33.0230705203
 30
0.0
 11
60.0617417723
 21
33.8813716786
 31
0.0
  0
LINE
  5
DC
330
1F
100
AcDbEntity
  8
0
  6
Continuous
 62
     7
370
    25
100
AcDbLine
 10
60.186387847
 20
33.0230705203
 30
0.0
 11
60.0617417723
 21
33.0230705203
 31
0.0
  0
LINE
  5
DD
330
1F
100
AcDbEntity
  8
0
  6
Continuous
 62
     7
370
    25
100
AcDbLine
 10
60.186387847
 20
33.8813716786
 30
0.0
 11
60.186387847
 21
33.0230705203
 31
0.0
  0
LINE
  5
DE
330
1F
100
AcDbEntity
  8
0
  6
Continuous
 62
     7
370
    25
100
AcDbLine
 10
59.4641656248
 20
35.0425042398
 30
0.0
 11
60.7510596617
 21
35.0425042398
 31
0.0
  0
LINE
  5
DF
330
1F
100
AcDbEntity
  8
0
  6
Continuous
 62
     7
370
    25
100
AcDbLine
 10
59.4641656248
 20
34.4426972899
 30
0.0
 11
59.4641656248
 21
35.0425042398
 31
0.0
  0
SPLINE
  5
E0
330
1F
100
AcDbEntity
  8
0
  6
Continuous
 62
     7
370
    25
100
AcDbSpline
210
0.0
220
0.0
230
1.0
 70
     8
 71
     3
 72
    15
 73
    11
 74
     0
 42
0.00000001
 43
0.00000001
 40
0.0
 40
0.0
 40
0.0
 40
0.0
 40
0.1086277469152502
 40
0.2195300404679353
 40
0.3340583594962493
 40
0.4525037346025803
 40
0.578166032102879
 40
0.7098017975268045
 40
0.8504665399585404
 40
1.0
 40
1.0
 40
1.0
 40
1.0
 10
59.55395541456011
 20
34.17165481890292
 30
0.0
 10
59.5467950055839
 20
34.17949197713497
 30
0.0
 10
59.53232425647096
 20
34.19533039515145
 30
0.0
 10
59.51383083807094
 20
34.22235050701147
 30
0.0
 10
59.49861310649136
 20
34.25236030289913
 30
0.0
 10
59.48601831225962
 20
34.28508560054954
 30
0.0
 10
59.47596572612989
 20
34.32043186625519
 30
0.0
 10
59.46913376231919
 20
34.35873220432624
 30
0.0
 10
59.46490062140732
 20
34.39975125136518
 30
0.0
 10
59.4644155649034
 20
34.4280932250317
 30
0.0
 10
59.46416562477032
 20
34.44269728994539
 30
0.0
  0
SPLINE
  5
E1
330
1F
100
AcDbEntity
  8
0
  6
Continuous
 62
     7
370
    25
100
AcDbSpline
210
0.0
220
0.0
230
1.0
 70
     8
 71
     3
 72
    15
 73
    11
 74
     0
 42
0.00000001
 43
0.00000001
 40
0.0
 40
0.0
 40
0.0
 40
0.0
 40
0.1319114978615548
 40
0.25855939557945
 40
0.3829282045992122
 40
0.5051155152535458
 40
0.6266776175559879
 40
0.7489849223246642
 40
0.8728415720964464
 40
0.9999999999999999
 40
0.9999999999999999
 40
0.9999999999999999
 40
0.9999999999999999
 10
59.83252684313153
 20
34.05872045596856
 30
0.0
 10
59.81893808059562
 20
34.05900565847511
 30
0.0
 10
59.79230278128573
 20
34.05956468319172
 30
0.0
 10
59.75316381970271
 20
34.06504414546318
 30
0.0
 10
59.71574088150395
 20
34.07397613056537
 30
0.0
 10
59.67980459106747
 20
34.08622837418739
 30
0.0
 10
59.64557669700604
 20
34.10220792020371
 30
0.0
 10
59.61319308983178
 20
34.12192216701821
 30
0.0
 10
59.58215867361034
 20
34.14475754697302
 30
0.0
 10
59.56343858043418
 20
34.16261078286379
 30
0.0
 10
59.55395541456011
 20
34.17165481890292
 30
0.0
  0
SPLINE
  5
E2
330
1F
100
AcDbEntity
  8
0
  6
Continuous
 62
     7
370
    25
100
AcDbSpline
210
0.0
220
0.0
230
1.0
 70
     8
 71
     3
 72
    15
 73
    11
 74
     0
 42
0.00000001
 43
0.00000001
 40
0.0
 40
0.0
 40
0.0
 40
0.0
 40
0.1263812889588913
 40
0.249104946497317
 40
0.3706105362999231
 40
0.4913917559424305
 40
0.6138158455532667
 40
0.7388355742356976
 40
0.867118175426879
 40
1.0
 40
1.0
 40
1.0
 40
1.0
 10
60.05839556900026
 20
34.14906794631605
 30
0.0
 10
60.05071307199199
 20
34.14186233728886
 30
0.0
 10
60.03557041897764
 20
34.1276596585064
 30
0.0
 10
60.01086873130257
 20
34.10898130585101
 30
0.0
 10
59.98444365070269
 20
34.09384826200517
 30
0.0
 10
59.95702386471629
 20
34.08062025715567
 30
0.0
 10
59.92778483236318
 20
34.07111683461184
 30
0.0
 10
59.89734657159742
 20
34.06367618154136
 30
0.0
 10
59.86536049611767
 20
34.05951236257062
 30
0.0
 10
59.84359913658049
 20
34.05898750582396
 30
0.0
 10
59.83252684313153
 20
34.05872045596856
 30
0.0
  0
SPLINE
  5
E3
330
1F
100
AcDbEntity
  8
0
  6
Continuous
 62
     7
370
    25
100
AcDbSpline
210
0.0
220
0.0
230
1.0
 70
     8
 71
     3
 72
    11
 73
     7
 74
     0
 42
0.00000001
 43
0.00000001
 40
0.0
 40
0.0
 40
0.0
 40
0.0
 40
0.275886418446541
 40
0.531007687771311
 40
0.7722766677115273
 40
1.0
 40
1.0
 40
1.0
 40
1.0
 10
60.1412141018188
 20
34.29211813936625
 30
0.0
 10
60.136044010287
 20
34.27767182641855
 30
0.0
 10
60.12609296461639
 20
34.24986653147737
 30
0.0
 10
60.106545811899
 20
34.21156116024923
 30
0.0
 10
60.08449593584653
 20
34.17772934273859
 30
0.0
 10
60.0669265422301
 20
34.15843599876721
 30
0.0
 10
60.05839556900026
 20
34.14906794631605
 30
0.0
  0
SPLINE
  5
E4
330
1F
100
AcDbEntity
  8
0
  6
Continuous
 62
     7
370
    25
100
AcDbSpline
210
0.0
220
0.0
230
1.0
 70
     8
 71
     3
 72
    11
 73
     7
 74
     0
 42
0.00000001
 43
0.00000001
 40
0.0
 40
0.0
 40
0.0
 40
0.0
 40
0.240927797421733
 40
0.4854864172424116
 40
0.7380410464993888
 40
1.0
 40
1.0
 40
1.0
 40
1.0
 10
60.20897471957941
 20
34.17918377643188
 30
0.0
 10
60.2017045221702
 20
34.18700697643664
 30
0.0
 10
60.18705456425494
 20
34.20277127338504
 30
0.0
 10
60.16859818499815
 20
34.22989385339255
 30
0.0
 10
60.15327416502139
 20
34.25989987666566
 30
0.0
 10
60.14528281177076
 20
34.28124864690316
 30
0.0
 10
60.1412141018188
 20
34.29211813936625
 30
0.0
  0
SPLINE
  5
E5
330
1F
100
AcDbEntity
  8
0
  6
Continuous
 62
     7
370
    25
100
AcDbSpline
210
0.0
220
0.0
230
1.0
 70
     8
 71
     3
 72
    15
 73
    11
 74
     0
 42
0.00000001
 43
0.00000001
 40
0.0
 40
0.0
 40
0.0
 40
0.0
 40
0.1312072932871416
 40
0.2585055422472038
 40
0.3817646425439859
 40
0.5033692670500662
 40
0.6250492974901221
 40
0.7476118725723031
 40
0.8722462138971587
 40
0.9999999999999999
 40
0.9999999999999999
 40
0.9999999999999999
 40
0.9999999999999999
 10
60.41225657286126
 20
34.09636524361335
 30
0.0
 10
60.4023910890976
 20
34.09664644326783
 30
0.0
 10
60.38295404283313
 20
34.09720046482669
 30
0.0
 10
60.354468820022
 20
34.10117530707273
 30
0.0
 10
60.32720805596936
 20
34.10761681095079
 30
0.0
 10
60.30106993501823
 20
34.11651025748544
 30
0.0
 10
60.27617833166723
 20
34.12834649683946
 30
0.0
 10
60.25240779398742
 20
34.14267785362997
 30
0.0
 10
60.22955959136218
 20
34.15931762525021
 30
0.0
 10
60.2158926499972
 20
34.17250738548835
 30
0.0
 10
60.20897471957941
 20
34.17918377643188
 30
0.0
  0
SPLINE
  5
E6
330
1F
100
AcDbEntity
  8
0
  6
Continuous
 62
     7
370
    25
100
AcDbSpline
210
0.0
220
0.0
230
1.0
 70
     8
 71
     3
 72
    15
 73
    11
 74
     0
 42
0.00000001
 43
0.00000001
 40
0.0
 40
0.0
 40
0.0
 40
0.0
 40
0.1195027114365308
 40
0.2380939422658886
 40
0.3566476293726343
 40
0.4775806195769142
 40
0.6003630199241491
 40
0.7278327340041412
 40
0.8606471500295815
 40
1.0
 40
1.0
 40
1.0
 40
1.0
 10
60.65318321378791
 20
34.18671273396084
 30
0.0
 10
60.645527499941
 20
34.17947206739519
 30
0.0
 10
60.63027446451812
 20
34.16504596085312
 30
0.0
 10
60.60471341523183
 20
34.14658442634481
 30
0.0
 10
60.57707963217437
 20
34.13127014555809
 30
0.0
 10
60.54784981206397
 20
34.11829095668345
 30
0.0
 10
60.5165321888344
 20
34.10867215889295
 30
0.0
 10
60.48356197969926
 20
34.10128095039773
 30
0.0
 10
60.44851963433899
 20
34.09714331071797
 30
0.0
 10
60.42453631513755
 20
34.0966287200858
 30
0.0
 10
60.41225657286126
 20
34.09636524361335
 30
0.0
  0
SPLINE
  5
E7
330
1F
100
AcDbEntity
  8
0
  6
Continuous
 62
     7
370
    25
100
AcDbSpline
210
0.0
220
0.0
230
1.0
 70
     8
 71
     3
 72
    15
 73
    11
 74
     0
 42
0.00000001
 43
0.00000001
 40
0.0
 40
0.0
 40
0.0
 40
0.0
 40
0.1342477572737634
 40
0.2634617725756846
 40
0.3884666271730288
 40
0.5118790511869581
 40
0.6324080741525896
 40
0.7535525248235477
 40
0.875508480528274
 40
1.0
 40
1.0
 40
1.0
 40
1.0
 10
60.75105966166435
 20
34.43516833241644
 30
0.0
 10
60.75085805049748
 20
34.42288008002015
 30
0.0
 10
60.75046238775814
 20
34.39876433444699
 30
0.0
 10
60.74539604142301
 20
34.36352734601724
 30
0.0
 10
60.73807797612277
 20
34.32972985254042
 30
0.0
 10
60.72710920147203
 20
34.29773957309708
 30
0.0
 10
60.71331605411142
 20
34.26728614633233
 30
0.0
 10
60.6966613753295
 20
34.23841712880041
 30
0.0
 10
60.67633995871874
 20
34.21152408144823
 30
0.0
 10
60.66095489162186
 20
34.19503971600751
 30
0.0
 10
60.65318321378791
 20
34.18671273396084
 30
0.0
  0
LINE
  5
E8
330
1F
100
AcDbEntity
  8
0
  6
Continuous
 62
     7
370
    25
100
AcDbLine
 10
60.7510596617
 20
35.0425042398
 30
0.0
 11
60.7510596617
 21
34.4351683324
 31
0.0
  0
LINE
  5
E9
330
1F
100
AcDbEntity
  8
0
  6
Continuous
 62
     7
370
    25
100
AcDbLine
 10
59.4636079242
 20
36.0881927854
 30
0.0
 11
59.4636079242
 21
36.2663781136
 31
0.0
  0
LINE
  5
EA
330
1F
100
AcDbEntity
  8
0
  6
Continuous
 62
     7
370
    25
100
AcDbLine
 10
60.4800171906
 20
36.0881927854
 30
0.0
 11
59.4636079242
 21
36.0881927854
 31
0.0
  0
LINE
  5
EB
330
1F
100
AcDbEntity
  8
0
  6
Continuous
 62
     7
370
    25
100
AcDbLine
 10
60.7510596617
 20
35.2976522449
 30
0.0
 11
59.4636079242
 21
35.2976522449
 31
0.0
  0
LINE
  5
EC
330
1F
100
AcDbEntity
  8
0
  6
Continuous
 62
     7
370
    25
100
AcDbLine
 10
60.7510596617
 20
35.4758375731
 30
0.0
 11
60.7510596617
 21
35.2976522449
 31
0.0
  0
LINE
  5
ED
330
1F
100
AcDbEntity
  8
0
  6
Continuous
 62
     7
370
    25
100
AcDbLine
 10
59.7346503953
 20
35.4758375731
 30
0.0
 11
60.7510596617
 21
35.4758375731
 31
0.0
  0
LINE
  5
EE
330
1F
100
AcDbEntity
  8
0
  6
Continuous
 62
     7
370
    25
100
AcDbLine
 10
60.7510596617
 20
36.0731348704
 30
0.0
 11
59.7346503953
 21
35.4758375731
 31
0.0
  0
SPLINE
  5
EF
330
1F
100
AcDbEntity
  8
0
  6
Continuous
 62
     7
370
    25
100
AcDbSpline
210
0.0
220
0.0
230
1.0
 70
     8
 71
     3
 72
    15
 73
    11
 74
     0
 42
0.00000001
 43
0.00000001
 40
0.0
 40
0.0
 40
0.0
 40
0.0
 40
0.1305450777958556
 40
0.2575006610529
 40
0.3807062916981827
 40
0.5030034727056809
 40
0.6241056847467472
 40
0.7465907263580775
 40
0.8722950368812804
 40
1.0
 40
1.0
 40
1.0
 40
1.0
 10
60.66824112884582
 20
29.83079252804063
 30
0.0
 10
60.67600954675584
 20
29.82255547282281
 30
0.0
 10
60.69133278054559
 20
29.8063078501661
 30
0.0
 10
60.71145933214196
 20
29.78006953924105
 30
0.0
 10
60.72841256126797
 20
29.75250923625045
 30
0.0
 10
60.74190459115859
 20
29.72369067005472
 30
0.0
 10
60.75316810115314
 20
29.69396675057437
 30
0.0
 10
60.76041701631323
 20
29.66272674369214
 30
0.0
 10
60.76548877676333
 20
29.63046542978904
 30
0.0
 10
60.76590687644445
 20
29.6084762408466
 30
0.0
 10
60.76611757672227
 20
29.59739484464295
 30
0.0
  0
LINE
  5
F0
330
1F
100
AcDbEntity
  8
0
  6
Continuous
 62
     7
370
    25
100
AcDbLine
 10
60.7510596617
 20
36.2663781136
 30
0.0
 11
60.7510596617
 21
36.0731348704
 31
0.0
  0
LINE
  5
F1
330
1F
100
AcDbEntity
  8
0
  6
Continuous
 62
     7
370
    25
100
AcDbLine
 10
59.4636079242
 20
36.2663781136
 30
0.0
 11
60.7510596617
 21
36.2663781136
 31
0.0
  0
SPLINE
  5
F2
330
1F
100
AcDbEntity
  8
0
  6
Continuous
 62
     7
370
    25
100
AcDbSpline
210
0.0
220
0.0
230
1.0
 70
     8
 71
     3
 72
    15
 73
    11
 74
     0
 42
0.00000001
 43
0.00000001
 40
0.0
 40
0.0
 40
0.0
 40
0.0
 40
0.147627072439686
 40
0.2864810592714896
 40
0.4181894659268068
 40
0.5428808841137349
 40
0.6619178330920032
 40
0.7770087505932001
 40
0.8893050437597239
 40
1.0
 40
1.0
 40
1.0
 40
1.0
 10
60.31438012498482
 20
29.95125584850395
 30
0.0
 10
60.33326234776163
 20
29.95087788926539
 30
0.0
 10
60.36990467286572
 20
29.95014443190395
 30
0.0
 10
60.42317292073125
 20
29.94457670017107
 30
0.0
 10
60.47288276127188
 20
29.93512845893597
 30
0.0
 10
60.51920335313325
 20
29.92218771026959
 30
0.0
 10
60.56185905712118
 20
29.90502294645846
 30
0.0
 10
60.60115817684561
 20
29.88442127811489
 30
0.0
 10
60.63697477588581
 20
29.85990573539022
 30
0.0
 10
60.65786902621128
 20
29.84045035973712
 30
0.0
 10
60.66824112884582
 20
29.83079252804063
 30
0.0
  0
LINE
  5
F3
330
1F
100
AcDbEntity
  8
0
  6
Continuous
 62
     7
370
    25
100
AcDbLine
 10
59.4636079242
 20
35.4858761831
 30
0.0
 11
60.4800171906
 21
36.0881927854
 31
0.0
  0
LINE
  5
F4
330
1F
100
AcDbEntity
  8
0
  6
Continuous
 62
     7
370
    25
100
AcDbLine
 10
59.4636079242
 20
35.2976522449
 30
0.0
 11
59.4636079242
 21
35.4858761831
 31
0.0
  0
SPLINE
  5
F5
330
1F
100
AcDbEntity
  8
0
  6
Continuous
 62
     7
370
    25
100
AcDbSpline
210
0.0
220
0.0
230
1.0
 70
     8
 71
     3
 72
    16
 73
    12
 74
     0
 42
0.00000001
 43
0.00000001
 40
0.0
 40
0.0
 40
0.0
 40
0.0
 40
0.25
 40
0.25
 40
0.5
 40
0.5
 40
0.625
 40
0.625
 40
0.75
 40
0.75
 40
1.0
 40
1.0
 40
1.0
 40
1.0
 10
57.93386439495467
 20
20.94239737222378
 30
0.0
 10
57.67533611947232
 20
21.39018148055237
 30
0.0
 10
57.46226197272968
 20
21.8412303024892
 30
0.0
 10
57.16708508594279
 20
22.75273488354544
 30
0.0
 10
57.0859560078002
 20
23.21326057530566
 30
0.0
 10
57.08506493155311
 20
23.91272567787733
 30
0.0
 10
57.10489784826975
 20
24.14697780997485
 30
0.0
 10
57.18223574890177
 20
24.61035323058864
 30
0.0
 10
57.23966224616614
 20
24.84048741546249
 30
0.0
 10
57.46141236413364
 20
25.52679274584881
 30
0.0
 10
57.67501384876432
 20
25.9788826319563
 30
0.0
 10
57.93386439495485
 20
26.42722492952527
 30
0.0
  0
LINE
  5
F6
330
1F
100
AcDbEntity
  8
0
  6
Continuous
 62
     7
370
    25
100
AcDbLine
 10
56.9410210516
 20
31.9120524868
 30
0.0
 11
56.9410210516
 21
41.1620524868
 31
0.0
  0
LINE
  5
F7
330
1F
100
AcDbEntity
  8
0
  6
Continuous
 62
     7
370
    25
100
AcDbLine
 10
56.9410210516
 20
22.6620524868
 30
0.0
 11
56.9410210516
 21
31.9120524868
 31
0.0
  0
LINE
  5
F8
330
1F
100
AcDbEntity
  8
0
  6
Continuous
 62
     7
370
    25
100
AcDbLine
 10
60.6085671692
 20
34.8643189116
 30
0.0
 11
60.2089747196
 21
34.8643189116
 31
0.0
  0
LINE
  5
F9
330
1F
100
AcDbEntity
  8
0
  6
Continuous
 62
     7
370
    25
100
AcDbLine
 10
60.6085671692
 20
34.4426972899
 30
0.0
 11
60.6085671692
 21
34.8643189116
 31
0.0
  0
SPLINE
  5
FA
330
1F
100
AcDbEntity
  8
0
  6
Continuous
 62
     7
370
    25
100
AcDbSpline
210
0.0
220
0.0
230
1.0
 70
     8
 71
     3
 72
    11
 73
     7
 74
     0
 42
0.00000001
 43
0.00000001
 40
0.0
 40
0.0
 40
0.0
 40
0.0
 40
0.249969553888687
 40
0.4922399851273389
 40
0.7405148106355965
 40
1.0
 40
1.0
 40
1.0
 40
1.0
 10
60.56283572344041
 20
34.32976292701103
 30
0.0
 10
60.56991000860261
 20
34.33747842363555
 30
0.0
 10
60.58384068923493
 20
34.35267177772455
 30
0.0
 10
60.5981145181789
 20
34.38039723823083
 30
0.0
 10
60.60715290153642
 20
34.41061805786452
 30
0.0
 10
60.60808885858332
 20
34.4318479740224
 30
0.0
 10
60.60856716917186
 20
34.44269728994539
 30
0.0
  0
SPLINE
  5
FB
330
1F
100
AcDbEntity
  8
0
  6
Continuous
 62
     7
370
    25
100
AcDbSpline
210
0.0
220
0.0
230
1.0
 70
     8
 71
     3
 72
    11
 73
     7
 74
     0
 42
0.00000001
 43
0.00000001
 40
0.0
 40
0.0
 40
0.0
 40
0.0
 40
0.2516095171558485
 40
0.4964930798665581
 40
0.7426069856111277
 40
1.0
 40
1.0
 40
1.0
 40
1.0
 10
60.41978553039022
 20
34.26953126677937
 30
0.0
 10
60.43315657730383
 20
34.27030326137935
 30
0.0
 10
60.45954124008693
 20
34.27182661383803
 30
0.0
 10
60.49762141585922
 20
34.28335307628383
 30
0.0
 10
60.53274278588708
 20
34.30266064821117
 30
0.0
 10
60.55265605124274
 20
34.32059491828794
 30
0.0
 10
60.56283572344041
 20
34.32976292701103
 30
0.0
  0
SPLINE
  5
FC
330
1F
100
AcDbEntity
  8
0
  6
Continuous
 62
     7
370
    25
100
AcDbSpline
210
0.0
220
0.0
230
1.0
 70
     8
 71
     3
 72
    15
 73
    11
 74
     0
 42
0.00000001
 43
0.00000001
 40
0.0
 40
0.0
 40
0.0
 40
0.0
 40
0.1215042446907344
 40
0.2399194382132717
 40
0.3607014484775901
 40
0.481398205856563
 40
0.6046686543565305
 40
0.7308278400410391
 40
0.8619579002966857
 40
1.0
 40
1.0
 40
1.0
 40
1.0
 10
60.26167742228211
 20
34.32976292701103
 30
0.0
 10
60.26676166013986
 20
34.32487645167141
 30
0.0
 10
60.27680087723616
 20
34.3152277318155
 30
0.0
 10
60.29402136730602
 20
34.30328940960759
 30
0.0
 10
60.31191351490232
 20
34.29250286539904
 30
0.0
 10
60.33144518017594
 20
34.28431419483969
 30
0.0
 10
60.3517769597481
 20
34.27735117669079
 30
0.0
 10
60.37348011063246
 20
34.27326061355749
 30
0.0
 10
60.39615931054761
 20
34.269785347777
 30
0.0
 10
60.41177644692191
 20
34.26961739803233
 30
0.0
 10
60.41978553039022
 20
34.26953126677937
 30
0.0
  0
SPLINE
  5
FD
330
1F
100
AcDbEntity
  8
0
  6
Continuous
 62
     7
370
    25
100
AcDbSpline
210
0.0
220
0.0
230
1.0
 70
     8
 71
     3
 72
    11
 73
     7
 74
     0
 42
0.00000001
 43
0.00000001
 40
0.0
 40
0.0
 40
0.0
 40
0.0
 40
0.2562600332085403
 40
0.501620804586524
 40
0.7449078564687276
 40
1.0
 40
1.0
 40
1.0
 40
1.0
 10
60.20897471957941
 20
34.45775520500331
 30
0.0
 10
60.20960493437633
 20
34.44560070644805
 30
0.0
 10
60.21083855964959
 20
34.42180866494905
 30
0.0
 10
60.22095270366847
 20
34.38768918814716
 30
0.0
 10
60.23769040047511
 20
34.35633029348318
 30
0.0
 10
60.253556475282
 20
34.33875746484024
 30
0.0
 10
60.26167742228211
 20
34.32976292701103
 30
0.0
  0
LINE
  5
FE
330
1F
100
AcDbEntity
  8
0
  6
Continuous
 62
     7
370
    25
100
AcDbLine
 10
60.2089747196
 20
34.8643189116
 30
0.0
 11
60.2089747196
 21
34.457755205
 31
0.0
  0
SPLINE
  5
FF
330
1F
100
AcDbEntity
  8
0
  6
Continuous
 62
     7
370
    25
100
AcDbSpline
210
0.0
220
0.0
230
1.0
 70
     8
 71
     3
 72
    16
 73
    12
 74
     0
 42
0.00000001
 43
0.00000001
 40
0.0
 40
0.0
 40
0.0
 40
0.0
 40
0.25
 40
0.25
 40
0.5
 40
0.5
 40
0.625
 40
0.625
 40
0.75
 40
0.75
 40
1.0
 40
1.0
 40
1.0
 40
1.0
 10
61.94817770829682
 20
20.94239737222378
 30
0.0
 10
62.20670598377917
 20
21.39018148055237
 30
0.0
 10
62.41978013052181
 20
21.8412303024892
 30
0.0
 10
62.7149570173087
 20
22.75273488354544
 30
0.0
 10
62.79608609545129
 20
23.21326057530566
 30
0.0
 10
62.79697717169838
 20
23.91272567787733
 30
0.0
 10
62.77714425498174
 20
24.14697780997485
 30
0.0
 10
62.69980635434971
 20
24.61035323058864
 30
0.0
 10
62.64237985708534
 20
24.84048741546249
 30
0.0
 10
62.42062973911784
 20
25.52679274584881
 30
0.0
 10
62.20702825448718
 20
25.9788826319563
 30
0.0
 10
61.94817770829664
 20
26.42722492952527
 30
0.0
  0
LINE
  5
100
330
1F
100
AcDbEntity
  8
0
  6
Continuous
 62
     7
370
    25
100
AcDbLine
 10
62.9410210516
 20
31.9120524868
 30
0.0
 11
62.9410210516
 21
41.1620524868
 31
0.0
  0
LINE
  5
101
330
1F
100
AcDbEntity
  8
0
  6
Continuous
 62
     7
370
    25
100
AcDbLine
 10
62.9410210516
 20
22.6620524868
 30
0.0
 11
62.9410210516
 21
31.9120524868
 31
0.0
  0
SPLINE
  5
102
330
1F
100
AcDbEntity
  8
0
  6
Continuous
 62
     7
370
    25
100
AcDbSpline
210
0.0
220
0.0
230
1.0
 70
     8
 71
     3
 72
    15
 73
    11
 74
     0
 42
0.00000001
 43
0.00000001
 40
0.0
 40
0.0
 40
0.0
 40
0.0
 40
0.1193556939378555
 40
0.2390663805212362
 40
0.3573840708360864
 40
0.4787728926029034
 40
0.601391163443813
 40
0.7292416297469773
 40
0.8608048514681803
 40
1.0
 40
1.0
 40
1.0
 40
1.0
 10
59.9981639087686
 20
34.2996470968952
 30
0.0
 10
60.00360091417966
 20
34.30538528149501
 30
0.0
 10
60.01449109596835
 20
34.31687871744081
 30
0.0
 10
60.0282727547267
 20
34.33617762078818
 30
0.0
 10
60.04018913794189
 20
34.35679514710235
 30
0.0
 10
60.04987715313219
 20
34.37877330918042
 30
0.0
 10
60.05752987530037
 20
34.40220315483415
 30
0.0
 10
60.06271342133754
 20
34.42698470498036
 30
0.0
 10
60.06582189738047
 20
34.45321452766569
 30
0.0
 10
60.06625801949421
 20
34.47113122033925
 30
0.0
 10
60.06648222708692
 20
34.48034207759018
 30
0.0
  0
SPLINE
  5
103
330
1F
100
AcDbEntity
  8
0
  6
Continuous
 62
     7
370
    25
100
AcDbSpline
210
0.0
220
0.0
230
1.0
 70
     8
 71
     3
 72
    15
 73
    11
 74
     0
 42
0.00000001
 43
0.00000001
 40
0.0
 40
0.0
 40
0.0
 40
0.0
 40
0.1417962611116215
 40
0.2768819513476973
 40
0.4055805706087829
 40
0.5298229690785607
 40
0.6485572024501448
 40
0.7672114666371226
 40
0.8821786188665549
 40
1.0
 40
1.0
 40
1.0
 40
1.0
 10
59.83252684313153
 20
34.23941543666354
 30
0.0
 10
59.84109234945006
 20
34.23950348568954
 30
0.0
 10
59.85781799570589
 20
34.23967541678238
 30
0.0
 10
59.88208173877037
 20
34.24312427910271
 30
0.0
 10
59.90516743738689
 20
34.24721334400341
 30
0.0
 10
59.92656630405676
 20
34.25408520406005
 30
0.0
 10
59.94678807495426
 20
34.26240111511626
 30
0.0
 10
59.96520997785109
 20
34.27309005431967
 30
0.0
 10
59.98274920805828
 20
34.28511165243416
 30
0.0
 10
59.99298384610535
 20
34.29476250558452
 30
0.0
 10
59.9981639087686
 20
34.2996470968952
 30
0.0
  0
SPLINE
  5
104
330
1F
100
AcDbEntity
  8
0
  6
Continuous
 62
     7
370
    25
100
AcDbSpline
210
0.0
220
0.0
230
1.0
 70
     8
 71
     3
 72
    15
 73
    11
 74
     0
 42
0.00000001
 43
0.00000001
 40
0.0
 40
0.0
 40
0.0
 40
0.0
 40
0.1277118540336124
 40
0.2523621141955298
 40
0.3748537650566251
 40
0.4969693854038484
 40
0.6192731655242184
 40
0.7424854443019965
 40
0.869447878037661
 40
0.9999999999999999
 40
0.9999999999999999
 40
0.9999999999999999
 40
0.9999999999999999
 10
59.66688977749448
 20
34.30717605442416
 30
0.0
 10
59.67253358368755
 20
34.30173797667628
 30
0.0
 10
59.6836858989818
 20
34.29099218641272
 30
0.0
 10
59.70232364234591
 20
34.27746522510485
 30
0.0
 10
59.72157381037243
 20
34.26549458695829
 30
0.0
 10
59.74207663408941
 20
34.25613511639592
 30
0.0
 10
59.76330203201206
 20
34.24847691785555
 30
0.0
 10
59.78555554211277
 20
34.24316629524354
 30
0.0
 10
59.80873886267449
 20
34.24011235089377
 30
0.0
 10
59.82452416857934
 20
34.23964989026861
 30
0.0
 10
59.83252684313153
 20
34.23941543666354
 30
0.0
  0
SPLINE
  5
105
330
1F
100
AcDbEntity
  8
0
  6
Continuous
 62
     7
370
    25
100
AcDbSpline
210
0.0
220
0.0
230
1.0
 70
     8
 71
     3
 72
    15
 73
    11
 74
     0
 42
0.00000001
 43
0.00000001
 40
0.0
 40
0.0
 40
0.0
 40
0.0
 40
0.145245998029722
 40
0.2839773123111047
 40
0.4135645357275248
 40
0.5387150251446058
 40
0.6570052502158948
 40
0.7736984629726797
 40
0.8866940707303826
 40
1.0
 40
1.0
 40
1.0
 40
1.0
 10
59.60665811726281
 20
34.48034207759018
 30
0.0
 10
59.60674949912495
 20
34.47122019114139
 30
0.0
 10
59.6069281641206
 20
34.45338556001851
 30
0.0
 10
59.61031925023874
 20
34.42762585374243
 30
0.0
 10
59.61446597769353
 20
34.40325705135074
 30
0.0
 10
59.62128820729822
 20
34.38082353363748
 30
0.0
 10
59.62956706842788
 20
34.35974038410547
 30
0.0
 10
59.64035842427928
 20
34.34072378300858
 30
0.0
 10
59.65217982798242
 20
34.32265284255288
 30
0.0
 10
59.66198198051006
 20
34.31233969785094
 30
0.0
 10
59.66688977749448
 20
34.30717605442416
 30
0.0
  0
LINE
  5
106
330
1F
100
AcDbEntity
  8
0
  6
Continuous
 62
     7
370
    25
100
AcDbLine
 10
59.6066581173
 20
34.8643189116
 30
0.0
 11
59.6066581173
 21
34.4803420776
 31
0.0
  0
LINE
  5
107
330
1F
100
AcDbEntity
  8
0
  6
Continuous
 62
     7
370
    25
100
AcDbLine
 10
60.0664822271
 20
34.8643189116
 30
0.0
 11
59.6066581173
 21
34.8643189116
 31
0.0
  0
LINE
  5
108
330
1F
100
AcDbEntity
  8
0
  6
Continuous
 62
     7
370
    25
100
AcDbLine
 10
60.0664822271
 20
34.4803420776
 30
0.0
 11
60.0664822271
 21
34.8643189116
 31
0.0
  0
LINE
  5
109
330
1F
100
AcDbEntity
  8
0
  6
Continuous
 62
     7
370
    25
100
AcDbLine
 10
57.933864395
 20
20.9423973722
 30
0.0
 11
61.9481777083
 21
20.9423973722
 31
0.0
  0
SPLINE
  5
10A
330
1F
100
AcDbEntity
  8
0
  6
Continuous
 62
     7
370
    25
100
AcDbSpline
210
0.0
220
0.0
230
1.0
 70
     8
 71
     3
 72
    15
 73
    11
 74
     0
 42
0.00000001
 43
0.00000001
 40
0.0
 40
0.0
 40
0.0
 40
0.0
 40
0.1053643999148122
 40
0.2134004501006512
 40
0.3253299308157716
 40
0.4441520831794066
 40
0.5701116073912008
 40
0.703588173103911
 40
0.8466305078268435
 40
1.0
 40
1.0
 40
1.0
 40
1.0
 10
60.22403263463733
 20
28.21206665931476
 30
0.0
 10
60.22868668040424
 20
28.20787371210141
 30
0.0
 10
60.23811278127179
 20
28.19938150008958
 30
0.0
 10
60.25410402067902
 20
28.18837013928944
 30
0.0
 10
60.27226242542183
 20
28.1795859438738
 30
0.0
 10
60.29205093636936
 20
28.17187586026774
 30
0.0
 10
60.31394148675241
 20
28.16658419824392
 30
0.0
 10
60.33747796093596
 20
28.16229336691117
 30
0.0
 10
60.36294048601363
 20
28.15981081403821
 30
0.0
 10
60.38055539106777
 20
28.15951632909535
 30
0.0
 10
60.3896697002744
 20
28.15936395661206
 30
0.0
  0
LINE
  5
10B
330
1F
100
AcDbEntity
  8
0
  6
Continuous
 62
     7
370
    25
100
AcDbLine
 10
60.1713299319
 20
28.7842674315
 30
0.0
 11
60.1713299319
 21
28.3400589373
 31
0.0
  0
SPLINE
  5
10C
330
1F
100
AcDbEntity
  8
0
  6
Continuous
 62
     7
370
    25
100
AcDbSpline
210
0.0
220
0.0
230
1.0
 70
     8
 71
     3
 72
    15
 73
    11
 74
     0
 42
0.00000001
 43
0.00000001
 40
0.0
 40
0.0
 40
0.0
 40
0.0
 40
0.1309133268193489
 40
0.2579771534544052
 40
0.3819342897628126
 40
0.5044826360738938
 40
0.6264704025121994
 40
0.7488072761095267
 40
0.8724814751031165
 40
1.0
 40
1.0
 40
1.0
 40
1.0
 10
60.55530676591146
 20
28.21959561684372
 30
0.0
 10
60.56016427817283
 20
28.2246066561652
 30
0.0
 10
60.56973646777723
 20
28.23448138543389
 30
0.0
 10
60.5818891246703
 20
28.25084659662029
 30
0.0
 10
60.59266955564344
 20
28.26758512513186
 30
0.0
 10
60.60143328929816
 20
28.2852103682341
 30
0.0
 10
60.60771876941217
 20
28.3037563288098
 30
0.0
 10
60.6124464523511
 20
28.32278045225039
 30
0.0
 10
60.61578972012234
 20
28.34245215212605
 30
0.0
 10
60.61599295438938
 20
28.35584626153332
 30
0.0
 10
60.61609612670082
 20
28.36264580989392
 30
0.0
  0
LINE
  5
10D
330
1F
100
AcDbEntity
  8
0
  6
Continuous
 62
     7
370
    25
100
AcDbLine
 10
60.6160961267
 20
28.7842674315
 30
0.0
 11
60.1713299319
 21
28.7842674315
 31
0.0
  0
SPLINE
  5
10E
330
1F
100
AcDbEntity
  8
0
  6
Continuous
 62
     7
370
    25
100
AcDbSpline
210
0.0
220
0.0
230
1.0
 70
     8
 71
     3
 72
    15
 73
    11
 74
     0
 42
0.00000001
 43
0.00000001
 40
0.0
 40
0.0
 40
0.0
 40
0.0
 40
0.1417962611116213
 40
0.2768819513476971
 40
0.4055805706087828
 40
0.5298229690785616
 40
0.6485572024501444
 40
0.767211466637124
 40
0.8821786188665554
 40
1.0
 40
1.0
 40
1.0
 40
1.0
 10
60.3896697002744
 20
28.15936395661206
 30
0.0
 10
60.39823520659291
 20
28.15945200563806
 30
0.0
 10
60.41496085284874
 20
28.1596239367309
 30
0.0
 10
60.43922459591324
 20
28.16307279905122
 30
0.0
 10
60.46231029452974
 20
28.16716186395193
 30
0.0
 10
60.48370916119962
 20
28.17403372400857
 30
0.0
 10
60.50393093209711
 20
28.18234963506478
 30
0.0
 10
60.52235283499395
 20
28.19303857426819
 30
0.0
 10
60.53989206520114
 20
28.20506017238268
 30
0.0
 10
60.5501267032482
 20
28.21471102553304
 30
0.0
 10
60.55530676591146
 20
28.21959561684372
 30
0.0
  0
LINE
  5
10F
330
1F
100
AcDbEntity
  8
0
  6
Continuous
 62
     7
370
    25
100
AcDbLine
 10
60.6160961267
 20
28.3626458099
 30
0.0
 11
60.6160961267
 21
28.7842674315
 31
0.0
  0
SPLINE
  5
110
330
1F
100
AcDbEntity
  8
0
  6
Continuous
 62
     7
370
    25
100
AcDbSpline
210
0.0
220
0.0
230
1.0
 70
     8
 71
     3
 72
    11
 73
     7
 74
     0
 42
0.00000001
 43
0.00000001
 40
0.0
 40
0.0
 40
0.0
 40
0.0
 40
0.2562600332085404
 40
0.5016208045865214
 40
0.7449078564687247
 40
1.0
 40
1.0
 40
1.0
 40
1.0
 10
60.17132993193462
 20
28.34005893730704
 30
0.0
 10
60.17196014673154
 20
28.32790443875179
 30
0.0
 10
60.1731937720048
 20
28.30411239725279
 30
0.0
 10
60.18330791602367
 20
28.2699929204509
 30
0.0
 10
60.20004561283032
 20
28.23863402578691
 30
0.0
 10
60.21591168763721
 20
28.22106119714397
 30
0.0
 10
60.22403263463733
 20
28.21206665931476
 30
0.0
  0
LINE
  5
111
330
1F
100
AcDbEntity
  8
0
  6
Continuous
 62
     7
370
    25
100
AcDbLine
 10
46.0149304853
 20
23.714680317
 30
0.0
 11
46.0149304853
 21
40.1094246566
 31
0.0
  0
LINE
  5
112
330
1F
100
AcDbEntity
  8
0
  6
Continuous
 62
     7
370
    25
100
AcDbLine
 10
43.9410210516
 20
31.9120524868
 30
0.0
 11
43.9410210516
 21
38.9120524868
 31
0.0
  0
LINE
  5
113
330
1F
100
AcDbEntity
  8
0
  6
Continuous
 62
     7
370
    25
100
AcDbLine
 10
43.9410210516
 20
24.9120524868
 30
0.0
 11
43.9410210516
 21
31.9120524868
 31
0.0
  0
LINE
  5
114
330
1F
100
AcDbEntity
  8
0
  6
Continuous
 62
     7
370
    18
100
AcDbLine
 10
44.6921474534
 20
39.3457155171
 30
0.0
 11
55.3310210516
 21
39.678180317
 31
0.0
  0
LINE
  5
115
330
1F
100
AcDbEntity
  8
0
  6
Continuous
 62
     7
370
    18
100
AcDbLine
 10
44.6921474534
 20
24.4783894566
 30
0.0
 11
55.3310210516
 21
24.1459246566
 31
0.0
  0
LINE
  5
116
330
1F
100
AcDbEntity
  8
0
  6
Continuous
 62
     7
370
    25
100
AcDbLine
 10
55.3310210516
 20
23.4235524868
 30
0.0
 11
55.3310210516
 21
40.4005524868
 31
0.0
  0
LINE
  5
117
330
1F
100
AcDbEntity
  8
FORMAT
  6
CENTERX2
370
    18
100
AcDbLine
 10
64.130053526
 20
31.9120524868
 30
0.0
 11
42.9410210516
 21
31.9120524868
 31
0.0
  0
SPLINE
  5
118
330
1F
100
AcDbEntity
  8
0
  6
Continuous
 62
     7
370
    25
100
AcDbSpline
210
0.0
220
0.0
230
1.0
 70
    24
 71
     3
 72
    16
 73
    12
 74
     0
 42
0.00000001
 43
0.00000001
 40
0.0
 40
0.0
 40
0.0
 40
0.0
 40
0.2499999999999999
 40
0.2499999999999999
 40
0.4999999999999998
 40
0.4999999999999998
 40
0.6249999999999998
 40
0.6249999999999998
 40
0.7499999999999997
 40
0.7499999999999997
 40
1.0
 40
1.0
 40
1.0
 40
1.0
 10
69.09168569722664
 20
37.39688004412812
 30
0.0
 10
69.86727052367367
 20
37.84466415245671
 30
0.0
 10
70.64850999996236
 20
38.29571297439355
 30
0.0
 10
72.22728224568354
 20
39.20721755544977
 30
0.0
 10
73.02493614200304
 20
39.66774324721
 30
0.0
 10
74.23644523777855
 20
40.36720834978168
 30
0.0
 10
74.6421818323528
 20
40.60146048187919
 30
0.0
 10
75.44477160383448
 20
41.06483590249299
 30
0.0
 10
75.84337570459444
 20
41.29497008736683
 30
0.0
 10
77.0320914063289
 20
41.98127541775317
 30
0.0
 10
77.8151340586551
 20
42.43336530386065
 30
0.0
 10
78.59168569722671
 20
42.8817076014296
 30
0.0
  0
SPLINE
  5
119
330
1F
100
AcDbEntity
  8
0
  6
Continuous
 62
     7
370
    25
100
AcDbSpline
210
0.0
220
0.0
230
1.0
 70
    24
 71
     3
 72
    16
 73
    12
 74
     0
 42
0.00000001
 43
0.00000001
 40
0.0
 40
0.0
 40
0.0
 40
0.0
 40
0.2500000000000001
 40
0.2500000000000001
 40
0.5000000000000002
 40
0.5000000000000002
 40
0.6250000000000001
 40
0.6250000000000001
 40
0.7500000000000001
 40
0.7500000000000001
 40
1.0
 40
1.0
 40
1.0
 40
1.0
 10
78.59168569722664
 20
42.88170760142962
 30
0.0
 10
79.36727052367367
 20
42.43392349310103
 30
0.0
 10
80.14850999996236
 20
41.9828746711642
 30
0.0
 10
81.72728224568353
 20
41.07137009010798
 30
0.0
 10
82.52493614200306
 20
40.61084439834774
 30
0.0
 10
83.73644523777855
 20
39.91137929577607
 30
0.0
 10
84.14218183235279
 20
39.67712716367855
 30
0.0
 10
84.94477160383448
 20
39.21375174306476
 30
0.0
 10
85.34337570459444
 20
38.98361755819091
 30
0.0
 10
86.5320914063289
 20
38.29731222780458
 30
0.0
 10
87.3151340586551
 20
37.8452223416971
 30
0.0
 10
88.09168569722671
 20
37.39688004412813
 30
0.0
  0
SPLINE
  5
11A
330
1F
100
AcDbEntity
  8
0
  6
Continuous
 62
     7
370
    25
100
AcDbSpline
210
0.0
220
0.0
230
1.0
 70
    24
 71
     3
 72
    14
 73
    10
 74
     0
 42
0.00000001
 43
0.00000001
 40
0.0
 40
0.0
 40
0.0
 40
0.0
 40
0.25
 40
0.25
 40
0.5
 40
0.5
 40
0.75
 40
0.75
 40
1.0
 40
1.0
 40
1.0
 40
1.0
 10
88.09168569722668
 20
37.39688004412815
 30
0.0
 10
88.09168569722668
 20
36.50402687685931
 30
0.0
 10
88.09168569722668
 20
35.60292551612658
 30
0.0
 10
88.09168569722668
 20
33.77660130967356
 30
0.0
 10
88.09168569722668
 20
32.85026978495458
 30
0.0
 10
88.09168569722668
 20
30.97107312378379
 30
0.0
 10
88.09168569722668
 20
30.04632271761601
 30
0.0
 10
88.09168569722668
 20
28.22087224131568
 30
0.0
 10
88.09168569722668
 20
27.31999288520836
 30
0.0
 10
88.09168569722668
 20
26.42722492952526
 30
0.0
  0
SPLINE
  5
11B
330
1F
100
AcDbEntity
  8
0
  6
Continuous
 62
     7
370
    25
100
AcDbSpline
210
0.0
220
0.0
230
1.0
 70
    24
 71
     3
 72
    16
 73
    12
 74
     0
 42
0.00000001
 43
0.00000001
 40
0.0
 40
0.0
 40
0.0
 40
0.0
 40
0.2500000000000002
 40
0.2500000000000002
 40
0.5000000000000001
 40
0.5000000000000001
 40
0.6250000000000001
 40
0.6250000000000001
 40
0.75
 40
0.75
 40
1.0
 40
1.0
 40
1.0
 40
1.0
 10
88.09168569722672
 20
26.42722492952528
 30
0.0
 10
87.31610087077969
 20
25.9794408211967
 30
0.0
 10
86.53486139449099
 20
25.52839199925986
 30
0.0
 10
84.95608914876983
 20
24.61688741820363
 30
0.0
 10
84.1584352524503
 20
24.1563617264434
 30
0.0
 10
82.94692615667479
 20
23.45689662387173
 30
0.0
 10
82.54118956210056
 20
23.22264449177421
 30
0.0
 10
81.73859979061888
 20
22.75926907116042
 30
0.0
 10
81.33999568985892
 20
22.52913488628656
 30
0.0
 10
80.15127998812444
 20
21.84282955590024
 30
0.0
 10
79.36823733579826
 20
21.39073966979275
 30
0.0
 10
78.59168569722665
 20
20.94239737222379
 30
0.0
  0
SPLINE
  5
11C
330
1F
100
AcDbEntity
  8
0
  6
Continuous
 62
     7
370
    25
100
AcDbSpline
210
0.0
220
0.0
230
1.0
 70
    24
 71
     3
 72
    16
 73
    12
 74
     0
 42
0.00000001
 43
0.00000001
 40
0.0
 40
0.0
 40
0.0
 40
0.0
 40
0.25
 40
0.25
 40
0.5
 40
0.5
 40
0.625
 40
0.625
 40
0.75
 40
0.75
 40
1.0
 40
1.0
 40
1.0
 40
1.0
 10
78.59168569722672
 20
20.94239737222378
 30
0.0
 10
77.81610087077969
 20
21.39018148055237
 30
0.0
 10
77.03486139449099
 20
21.8412303024892
 30
0.0
 10
75.45608914876982
 20
22.75273488354544
 30
0.0
 10
74.6584352524503
 20
23.21326057530566
 30
0.0
 10
73.44692615667479
 20
23.91272567787733
 30
0.0
 10
73.04118956210057
 20
24.14697780997485
 30
0.0
 10
72.23859979061888
 20
24.61035323058864
 30
0.0
 10
71.83999568985891
 20
24.84048741546249
 30
0.0
 10
70.65127998812446
 20
25.52679274584881
 30
0.0
 10
69.86823733579827
 20
25.9788826319563
 30
0.0
 10
69.09168569722665
 20
26.42722492952527
 30
0.0
  0
SPLINE
  5
11D
330
1F
100
AcDbEntity
  8
0
  6
Continuous
 62
     7
370
    25
100
AcDbSpline
210
0.0
220
0.0
230
1.0
 70
    24
 71
     3
 72
    14
 73
    10
 74
     0
 42
0.00000001
 43
0.00000001
 40
0.0
 40
0.0
 40
0.0
 40
0.0
 40
0.25
 40
0.25
 40
0.5
 40
0.5
 40
0.75
 40
0.75
 40
1.0
 40
1.0
 40
1.0
 40
1.0
 10
69.09168569722668
 20
26.42722492952525
 30
0.0
 10
69.09168569722668
 20
27.32007809679409
 30
0.0
 10
69.09168569722668
 20
28.22117945752682
 30
0.0
 10
69.09168569722668
 20
30.04750366397984
 30
0.0
 10
69.09168569722668
 20
30.97383518869882
 30
0.0
 10
69.09168569722668
 20
32.85303184986961
 30
0.0
 10
69.09168569722668
 20
33.77778225603738
 30
0.0
 10
69.09168569722668
 20
35.60323273233772
 30
0.0
 10
69.09168569722668
 20
36.50411208844503
 30
0.0
 10
69.09168569722668
 20
37.39688004412815
 30
0.0
  0
CIRCLE
  5
11E
330
1F
100
AcDbEntity
  8
0
  6
Continuous
 62
     7
370
    25
100
AcDbCircle
 10
78.5916856972
 20
31.9120524868
 30
0.0
 40
9.25
  0
CIRCLE
  5
11F
330
1F
100
AcDbEntity
  8
0
  6
Continuous
 62
     7
370
    25
100
AcDbCircle
 10
78.5916856972
 20
31.9120524868
 30
0.0
 40
8.400000000000006
  0
CIRCLE
  5
120
330
1F
100
AcDbEntity
  8
0
  6
Continuous
 62
     7
370
    25
100
AcDbCircle
 10
78.5916856972
 20
31.9120524868
 30
0.0
 40
8.25
  0
CIRCLE
  5
121
330
1F
100
AcDbEntity
  8
0
  6
Continuous
 62
     7
370
    25
100
AcDbCircle
 10
78.5916856972
 20
31.9120524868
 30
0.0
 40
8.100000000000009
  0
CIRCLE
  5
122
330
1F
100
AcDbEntity
  8
0
  6
Continuous
 62
     7
370
    25
100
AcDbCircle
 10
78.5916856972
 20
31.9120524868
 30
0.0
 40
7.0
  0
CIRCLE
  5
123
330
1F
100
AcDbEntity
  8
0
  6
Continuous
 62
     7
370
    25
100
AcDbCircle
 10
78.5916856972
 20
31.9120524868
 30
0.0
 40
6.013884846339977
  0
CIRCLE
  5
124
330
1F
100
AcDbEntity
  8
0
  6
Continuous
 62
     7
370
    25
100
AcDbCircle
 10
78.5916856972
 20
31.9120524868
 30
0.0
 40
5.675787290783092
  0
CIRCLE
  5
125
330
1F
100
AcDbEntity
  8
0
  6
Continuous
 62
     7
370
    25
100
AcDbCircle
 10
78.5916856972
 20
31.9120524868
 30
0.0
 40
5.599999999999994
  0
INSERT
  5
131
330
1F
100
AcDbEntity
  8
FORMAT
100
AcDbBlockReference
  2
SW_CENTERMARKSYMBOL_0
 10
78.5916856972
 20
31.9120524868
 30
0.0
  0
ARC
  5
132
330
1F
100
AcDbEntity
  8
0
  6
Continuous
 62
     7
370
    18
100
AcDbCircle
 10
78.5916856972
 20
31.9120524868
 30
0.0
 40
6.846517104726119
100
AcDbArc
 50
75.0
 51
345.0
  0
LINE
  5
133
330
1F
100
AcDbEntity
  8
0
  6
Continuous
 62
     7
370
    25
100
AcDbLine
 10
57.0853586189
 20
67.4272712296
 30
0.0
 11
56.9410210516
 21
67.1772712296
 31
0.0
  0
LINE
  5
134
330
1F
100
AcDbEntity
  8
0
  6
Continuous
 62
     7
370
    25
100
AcDbLine
 10
56.9410210516
 20
48.6772712296
 30
0.0
 11
57.0853586189
 21
48.4272712296
 31
0.0
  0
LINE
  5
135
330
1F
100
AcDbEntity
  8
0
  6
Continuous
 62
     7
370
    25
100
AcDbLine
 10
62.7966834843
 20
48.4272712296
 30
0.0
 11
62.9410210516
 21
48.6772712296
 31
0.0
  0
LINE
  5
136
330
1F
100
AcDbEntity
  8
0
  6
Continuous
 62
     7
370
    25
100
AcDbLine
 10
62.9410210516
 20
67.1772712296
 30
0.0
 11
62.7966834843
 21
67.4272712296
 31
0.0
  0
LINE
  5
137
330
1F
100
AcDbEntity
  8
0
  6
Continuous
 62
     7
370
    25
100
AcDbLine
 10
56.9410210516
 20
66.4660837296
 30
0.0
 11
46.0149304853
 21
66.1246433994
 31
0.0
  0
LINE
  5
138
330
1F
100
AcDbEntity
  8
0
  6
Continuous
 62
     7
370
    25
100
AcDbLine
 10
46.0149304853
 20
49.7298990598
 30
0.0
 11
56.9410210516
 21
49.3884587296
 31
0.0
  0
LINE
  5
139
330
1F
100
AcDbEntity
  8
0
  6
Continuous
 62
     7
370
    25
100
AcDbLine
 10
46.0149304853
 20
66.1246433994
 30
0.0
 11
43.9410210516
 21
64.9272712296
 31
0.0
  0
LINE
  5
13A
330
1F
100
AcDbEntity
  8
0
  6
Continuous
 62
     7
370
    25
100
AcDbLine
 10
43.9410210516
 20
50.9272712296
 30
0.0
 11
46.0149304853
 21
49.7298990598
 31
0.0
  0
SPLINE
  5
13B
330
1F
100
AcDbEntity
  8
0
  6
Continuous
 62
     7
370
    25
100
AcDbSpline
210
0.0
220
0.0
230
1.0
 70
     8
 71
     3
 72
    16
 73
    12
 74
     0
 42
0.00000001
 43
0.00000001
 40
0.0
 40
0.0
 40
0.0
 40
0.0
 40
0.2500000000000001
 40
0.2500000000000001
 40
0.5000000000000002
 40
0.5000000000000002
 40
0.6250000000000001
 40
0.6250000000000001
 40
0.7500000000000001
 40
0.7500000000000001
 40
1.0
 40
1.0
 40
1.0
 40
1.0
 10
57.93386439495467
 20
57.92727122962007
 30
0.0
 10
57.67533611947233
 20
58.7028560560671
 30
0.0
 10
57.46226197272968
 20
59.4840955323558
 30
0.0
 10
57.1670850859428
 20
61.06286777807696
 30
0.0
 10
57.0859560078002
 20
61.86052167439649
 30
0.0
 10
57.08506493155311
 20
63.072030770172
 30
0.0
 10
57.10489784826976
 20
63.47776736474624
 30
0.0
 10
57.18223574890177
 20
64.28035713622792
 30
0.0
 10
57.23966224616614
 20
64.67896123698787
 30
0.0
 10
57.46141236413365
 20
65.86767693872234
 30
0.0
 10
57.67501384876432
 20
66.65071959104854
 30
0.0
 10
57.93386439495485
 20
67.42727122962015
 30
0.0
  0
LINE
  5
13C
330
1F
100
AcDbEntity
  8
0
  6
Continuous
 62
     7
370
    25
100
AcDbLine
 10
57.933864395
 20
67.4272712296
 30
0.0
 11
61.9481777083
 21
67.4272712296
 31
0.0
  0
SPLINE
  5
13D
330
1F
100
AcDbEntity
  8
0
  6
Continuous
 62
     7
370
    25
100
AcDbSpline
210
0.0
220
0.0
230
1.0
 70
     8
 71
     3
 72
    16
 73
    12
 74
     0
 42
0.00000001
 43
0.00000001
 40
0.0
 40
0.0
 40
0.0
 40
0.0
 40
0.2500000000000001
 40
0.2500000000000001
 40
0.5000000000000002
 40
0.5000000000000002
 40
0.6250000000000001
 40
0.6250000000000001
 40
0.7500000000000001
 40
0.7500000000000001
 40
1.0
 40
1.0
 40
1.0
 40
1.0
 10
61.94817770829682
 20
57.92727122962007
 30
0.0
 10
62.20670598377916
 20
58.7028560560671
 30
0.0
 10
62.41978013052181
 20
59.4840955323558
 30
0.0
 10
62.71495701730868
 20
61.06286777807696
 30
0.0
 10
62.79608609545129
 20
61.86052167439649
 30
0.0
 10
62.79697717169838
 20
63.072030770172
 30
0.0
 10
62.77714425498174
 20
63.47776736474624
 30
0.0
 10
62.69980635434971
 20
64.28035713622792
 30
0.0
 10
62.64237985708534
 20
64.67896123698787
 30
0.0
 10
62.42062973911784
 20
65.86767693872234
 30
0.0
 10
62.20702825448717
 20
66.65071959104854
 30
0.0
 10
61.94817770829664
 20
67.42727122962015
 30
0.0
  0
LINE
  5
13E
330
1F
100
AcDbEntity
  8
0
  6
Continuous
 62
     7
370
    25
100
AcDbLine
 10
57.933864395
 20
57.9272712296
 30
0.0
 11
61.9481777083
 21
57.9272712296
 31
0.0
  0
SPLINE
  5
13F
330
1F
100
AcDbEntity
  8
0
  6
Continuous
 62
     7
370
    25
100
AcDbSpline
210
0.0
220
0.0
230
1.0
 70
    24
 71
     3
 72
    13
 73
     9
 74
     0
 42
0.00000001
 43
0.00000001
 40
0.0
 40
0.0
 40
0.0
 40
0.0
 40
0.1582112064824755
 40
0.3244199911213988
 40
0.4905240809157955
 40
0.6603029235795917
 40
0.8301769608714257
 40
1.0
 40
1.0
 40
1.0
 40
1.0
 10
57.08654370547529
 20
48.42727122962012
 30
0.0
 10
57.09074557608274
 20
48.42727122962012
 30
0.0
 10
57.09936172190115
 20
48.42727122962012
 30
0.0
 10
57.17633892874047
 20
48.42727122962012
 30
0.0
 10
57.29889558518579
 20
48.42727122962012
 30
0.0
 10
57.46997376540082
 20
48.42727122962012
 30
0.0
 10
57.68022526248096
 20
48.42727122962012
 30
0.0
 10
57.84932647975954
 20
48.42727122962012
 30
0.0
 10
57.93386439495504
 20
48.42727122962012
 30
0.0
  0
SPLINE
  5
140
330
1F
100
AcDbEntity
  8
0
  6
Continuous
 62
     7
370
    25
100
AcDbSpline
210
0.0
220
0.0
230
1.0
 70
    24
 71
     3
 72
    14
 73
    10
 74
     0
 42
0.00000001
 43
0.00000001
 40
0.0
 40
0.0
 40
0.0
 40
0.0
 40
0.1638447530288202
 40
0.3277351479048675
 40
0.4915418296821907
 40
0.6583819880824048
 40
0.8253261305668617
 40
0.9921355565083834
 40
1.0
 40
1.0
 40
1.0
 40
1.0
 10
57.93386439495504
 20
67.42727122962012
 30
0.0
 10
57.85221517876489
 20
67.42727122962012
 30
0.0
 10
57.68889400155464
 20
67.42727122962012
 30
0.0
 10
57.48395528986955
 20
67.42727122962012
 30
0.0
 10
57.31364656228464
 20
67.42727122962012
 30
0.0
 10
57.18512880749875
 20
67.42727122962012
 30
0.0
 10
57.1096450485969
 20
67.42727122962012
 30
0.0
 10
57.07743244532167
 20
67.42727122962012
 30
0.0
 10
57.08615115779877
 20
67.42727122962012
 30
0.0
 10
57.08654370547529
 20
67.42727122962012
 30
0.0
  0
SPLINE
  5
141
330
1F
100
AcDbEntity
  8
0
  6
Continuous
 62
     7
370
    25
100
AcDbSpline
210
0.0
220
0.0
230
1.0
 70
     8
 71
     3
 72
    16
 73
    12
 74
     0
 42
0.00000001
 43
0.00000001
 40
0.0
 40
0.0
 40
0.0
 40
0.0
 40
0.2499999999999999
 40
0.2499999999999999
 40
0.4999999999999998
 40
0.4999999999999998
 40
0.6249999999999998
 40
0.6249999999999998
 40
0.7499999999999997
 40
0.7499999999999997
 40
1.0
 40
1.0
 40
1.0
 40
1.0
 10
57.93386439495467
 20
48.42727122962008
 30
0.0
 10
57.67533611947233
 20
49.2028560560671
 30
0.0
 10
57.46226197272968
 20
49.9840955323558
 30
0.0
 10
57.1670850859428
 20
51.56286777807697
 30
0.0
 10
57.0859560078002
 20
52.36052167439649
 30
0.0
 10
57.08506493155311
 20
53.572030770172
 30
0.0
 10
57.10489784826976
 20
53.97776736474624
 30
0.0
 10
57.18223574890177
 20
54.78035713622792
 30
0.0
 10
57.23966224616614
 20
55.17896123698788
 30
0.0
 10
57.46141236413366
 20
56.36767693872234
 30
0.0
 10
57.67501384876432
 20
57.15071959104854
 30
0.0
 10
57.93386439495485
 20
57.92727122962015
 30
0.0
  0
LINE
  5
142
330
1F
100
AcDbEntity
  8
0
  6
Continuous
 62
     7
370
    25
100
AcDbLine
 10
56.9410210516
 20
48.6772712296
 30
0.0
 11
56.9410210516
 21
67.1772712296
 31
0.0
  0
SPLINE
  5
143
330
1F
100
AcDbEntity
  8
0
  6
Continuous
 62
     7
370
    25
100
AcDbSpline
210
0.0
220
0.0
230
1.0
 70
     8
 71
     3
 72
    16
 73
    12
 74
     0
 42
0.00000001
 43
0.00000001
 40
0.0
 40
0.0
 40
0.0
 40
0.0
 40
0.2499999999999999
 40
0.2499999999999999
 40
0.4999999999999998
 40
0.4999999999999998
 40
0.6249999999999998
 40
0.6249999999999998
 40
0.7499999999999997
 40
0.7499999999999997
 40
1.0
 40
1.0
 40
1.0
 40
1.0
 10
61.94817770829682
 20
48.42727122962008
 30
0.0
 10
62.20670598377916
 20
49.2028560560671
 30
0.0
 10
62.41978013052181
 20
49.9840955323558
 30
0.0
 10
62.71495701730868
 20
51.56286777807697
 30
0.0
 10
62.79608609545129
 20
52.36052167439649
 30
0.0
 10
62.79697717169838
 20
53.572030770172
 30
0.0
 10
62.77714425498174
 20
53.97776736474624
 30
0.0
 10
62.69980635434971
 20
54.78035713622792
 30
0.0
 10
62.64237985708534
 20
55.17896123698788
 30
0.0
 10
62.42062973911784
 20
56.36767693872234
 30
0.0
 10
62.20702825448717
 20
57.15071959104854
 30
0.0
 10
61.94817770829664
 20
57.92727122962015
 30
0.0
  0
SPLINE
  5
144
330
1F
100
AcDbEntity
  8
0
  6
Continuous
 62
     7
370
    25
100
AcDbSpline
210
0.0
220
0.0
230
1.0
 70
    24
 71
     3
 72
    14
 73
    10
 74
     0
 42
0.00000001
 43
0.00000001
 40
0.0
 40
0.0
 40
0.0
 40
0.0
 40
0.1638447530288202
 40
0.3277351479048675
 40
0.4915418296821907
 40
0.6583819880824048
 40
0.8253261305668617
 40
0.9921355565083834
 40
1.0
 40
1.0
 40
1.0
 40
1.0
 10
61.94817770829645
 20
67.42727122962012
 30
0.0
 10
62.02982692448658
 20
67.42727122962012
 30
0.0
 10
62.19314810169685
 20
67.42727122962012
 30
0.0
 10
62.39808681338194
 20
67.42727122962012
 30
0.0
 10
62.56839554096685
 20
67.42727122962012
 30
0.0
 10
62.69691329575274
 20
67.42727122962012
 30
0.0
 10
62.77239705465458
 20
67.42727122962012
 30
0.0
 10
62.80460965792982
 20
67.42727122962012
 30
0.0
 10
62.79589094545273
 20
67.42727122962012
 30
0.0
 10
62.79549839777619
 20
67.42727122962012
 30
0.0
  0
SPLINE
  5
145
330
1F
100
AcDbEntity
  8
0
  6
Continuous
 62
     7
370
    25
100
AcDbSpline
210
0.0
220
0.0
230
1.0
 70
    24
 71
     3
 72
    13
 73
     9
 74
     0
 42
0.00000001
 43
0.00000001
 40
0.0
 40
0.0
 40
0.0
 40
0.0
 40
0.1582112064824755
 40
0.3244199911213988
 40
0.4905240809157955
 40
0.6603029235795917
 40
0.8301769608714257
 40
1.0
 40
1.0
 40
1.0
 40
1.0
 10
62.79549839777619
 20
48.42727122962012
 30
0.0
 10
62.79129652716875
 20
48.42727122962012
 30
0.0
 10
62.78268038135033
 20
48.42727122962012
 30
0.0
 10
62.70570317451102
 20
48.42727122962012
 30
0.0
 10
62.5831465180657
 20
48.42727122962012
 30
0.0
 10
62.41206833785066
 20
48.42727122962012
 30
0.0
 10
62.20181684077053
 20
48.42727122962012
 30
0.0
 10
62.03271562349195
 20
48.42727122962012
 30
0.0
 10
61.94817770829646
 20
48.42727122962012
 30
0.0
  0
LINE
  5
146
330
1F
100
AcDbEntity
  8
0
  6
Continuous
 62
     7
370
    25
100
AcDbLine
 10
62.9410210516
 20
48.6772712296
 30
0.0
 11
62.9410210516
 21
67.1772712296
 31
0.0
  0
LINE
  5
147
330
1F
100
AcDbEntity
  8
0
  6
Continuous
 62
     7
370
    25
100
AcDbLine
 10
57.933864395
 20
48.4272712296
 30
0.0
 11
61.9481777083
 21
48.4272712296
 31
0.0
  0
LINE
  5
148
330
1F
100
AcDbEntity
  8
0
  6
Continuous
 62
     7
370
    25
100
AcDbLine
 10
46.0149304853
 20
57.9272712296
 30
0.0
 11
46.0149304853
 21
66.1246433994
 31
0.0
  0
LINE
  5
149
330
1F
100
AcDbEntity
  8
0
  6
Continuous
 62
     7
370
    25
100
AcDbLine
 10
46.0149304853
 20
49.7298990598
 30
0.0
 11
46.0149304853
 21
57.9272712296
 31
0.0
  0
LINE
  5
14A
330
1F
100
AcDbEntity
  8
0
  6
Continuous
 62
     7
370
    25
100
AcDbLine
 10
43.9410210516
 20
50.9272712296
 30
0.0
 11
43.9410210516
 21
64.9272712296
 31
0.0
  0
LINE
  5
14B
330
1F
100
AcDbEntity
  8
0
  6
Continuous
 62
     7
370
    18
100
AcDbLine
 10
44.6921474534
 20
65.3609342599
 30
0.0
 11
55.3310210516
 21
65.6933990598
 31
0.0
  0
LINE
  5
14C
330
1F
100
AcDbEntity
  8
0
  6
Continuous
 62
     7
370
    18
100
AcDbLine
 10
44.6921474534
 20
50.4936081994
 30
0.0
 11
55.3310210516
 21
50.1611433994
 31
0.0
  0
LINE
  5
14D
330
1F
100
AcDbEntity
  8
0
  6
Continuous
 62
     7
370
    25
100
AcDbLine
 10
55.3310210516
 20
49.4387712296
 30
0.0
 11
55.3310210516
 21
66.4157712296
 31
0.0
  0
LINE
  5
14E
330
1F
100
AcDbEntity
  8
FORMAT
  6
CENTERX2
370
    18
100
AcDbLine
 10
63.6761522146
 20
57.9272712296
 30
0.0
 11
42.9410210516
 21
57.9272712296
 31
0.0
  0
ENDSEC
  0
SECTION
  2
OBJECTS
  0
DICTIONARY
  5
C
330
0
100
AcDbDictionary
281
     1
  3
ACAD_GROUP
350
D
  3
ACAD_LAYOUT
350
1A
  3
ACAD_MLINESTYLE
350
17
  3
ACAD_PLOTSETTINGS
350
19
  3
ACAD_PLOTSTYLENAME
350
E
  3
ACAD_SCALELIST
350
47
  3
DWGPROPS
350
14F
  0
DICTIONARY
  5
D
102
{ACAD_REACTORS
330
C
102
}
330
C
100
AcDbDictionary
281
     1
  0
DICTIONARY
  5
1A
102
{ACAD_REACTORS
330
C
102
}
330
C
100
AcDbDictionary
281
     1
  3
Layout1
350
1E
  3
Layout2
350
26
  3
Model
350
22
  0
DICTIONARY
  5
17
102
{ACAD_REACTORS
330
C
102
}
330
C
100
AcDbDictionary
281
     1
  3
Standard
350
18
  0
DICTIONARY
  5
19
102
{ACAD_REACTORS
330
C
102
}
330
C
100
AcDbDictionary
281
     1
  0
ACDBDICTIONARYWDFLT
  5
E
102
{ACAD_REACTORS
330
C
102
}
330
C
100
AcDbDictionary
281
     1
  3
Normal
350
F
100
AcDbDictionaryWithDefault
340
F
  0
DICTIONARY
  5
47
102
{ACAD_REACTORS
330
C
102
}
330
C
100
AcDbDictionary
281
     1
  3
A0
350
48
  3
A1
350
49
  3
A2
350
4A
  3
A3
350
4B
  3
A4
350
4C
  3
A5
350
4D
  3
A6
350
4E
  3
A7
350
4F
  3
A8
350
50
  3
A9
350
51
  3
B0
350
52
  3
B1
350
53
  3
B2
350
54
  3
B3
350
55
  3
B4
350
56
  3
B5
350
57
  3
B6
350
58
  0
XRECORD
  5
14F
102
{ACAD_REACTORS
330
C
102
}
330
C
100
AcDbXrecord
280
     1
  1
DWGPROPS COOKIE
  2

  3

  4

  6

  7

  8
user28
  9

300
=
301
=
302
=
303
=
304
=
305
=
306
=
307
=
308
=
309
=
 40
0.0
 41
2460406.305354329
 42
2460406.305354873
  1

 90
        0
  0
LAYOUT
  5
1E
102
{ACAD_REACTORS
330
1A
102
}
330
1A
100
AcDbPlotSettings
  1

  2
none_device
  4

  6

 40
0.0
 41
0.0
 42
0.0
 43
0.0
 44
0.0
 45
0.0
 46
0.0
 47
0.0
 48
0.0
 49
0.0
140
0.0
141
0.0
142
1.0
143
1.0
 70
   688
 72
     1
 73
     0
 74
     5
  7

 75
    16
147
1.0
148
0.0
149
0.0
100
AcDbLayout
  1
Layout1
 70
     1
 71
     1
 10
0.0
 20
0.0
 11
420.0
 21
297.0
 12
0.0
 22
0.0
 32
0.0
 14
1.0000000000E+20
 24
1.0000000000E+20
 34
1.0000000000E+20
 15
-1.0000000000E+20
 25
-1.0000000000E+20
 35
-1.0000000000E+20
146
0.0
 13
0.0
 23
0.0
 33
0.0
 16
1.0
 26
0.0
 36
0.0
 17
0.0
 27
1.0
 37
0.0
 76
     0
330
1B
  0
LAYOUT
  5
26
102
{ACAD_REACTORS
330
1A
102
}
330
1A
100
AcDbPlotSettings
  1

  2
none_device
  4

  6

 40
0.0
 41
0.0
 42
0.0
 43
0.0
 44
0.0
 45
0.0
 46
0.0
 47
0.0
 48
0.0
 49
0.0
140
0.0
141
0.0
142
1.0
143
1.0
 70
   688
 72
     1
 73
     0
 74
     5
  7

 75
    16
147
1.0
148
0.0
149
0.0
100
AcDbLayout
  1
Layout2
 70
     1
 71
     2
 10
0.0
 20
0.0
 11
0.0
 21
0.0
 12
0.0
 22
0.0
 32
0.0
 14
0.0
 24
0.0
 34
0.0
 15
0.0
 25
0.0
 35
0.0
146
0.0
 13
0.0
 23
0.0
 33
0.0
 16
1.0
 26
0.0
 36
0.0
 17
0.0
 27
1.0
 37
0.0
 76
     0
330
23
  0
LAYOUT
  5
22
102
{ACAD_REACTORS
330
1A
102
}
330
1A
100
AcDbPlotSettings
  1

  2
none_device
  4
Letter_(8.50_x_11.00_Inches)
  6

 40
6.35
 41
6.35
 42
6.35000508
 43
6.35000508
 44
215.9
 45
279.4
 46
0.0
 47
0.0
 48
0.0
 49
0.0
140
0.0
141
0.0
142
1.0
143
1.0
 70
  1712
 72
     1
 73
     0
 74
     0
  7

 75
     0
147
1.0
148
0.0
149
0.0
100
AcDbLayout
  1
Model
 70
     1
 71
     0
 10
0.0
 20
0.0
 11
148.5
 21
105.0
 12
0.0
 22
0.0
 32
0.0
 14
0.0
 24
0.0
 34
0.0
 15
148.5
 25
105.0
 35
0.0
146
0.0
 13
0.0
 23
0.0
 33
0.0
 16
1.0
 26
0.0
 36
0.0
 17
0.0
 27
1.0
 37
0.0
 76
     0
330
1F
331
29
  0
MLINESTYLE
  5
18
102
{ACAD_REACTORS
330
17
102
}
330
17
100
AcDbMlineStyle
  2
Standard
 70
     0
  3

 62
   256
 51
90.0
 52
90.0
 71
     2
 49
0.5
 62
   256
  6
BYLAYER
 49
-0.5
 62
   256
  6
BYLAYER
  0
ACDBPLACEHOLDER
  5
F
102
{ACAD_REACTORS
330
E
102
}
330
E
  0
SCALE
  5
48
102
{ACAD_REACTORS
330
47
102
}
330
47
100
AcDbScale
 70
     0
300
1:1
140
1.0
141
1.0
290
     1
  0
SCALE
  5
49
102
{ACAD_REACTORS
330
47
102
}
330
47
100
AcDbScale
 70
     0
300
1:2
140
1.0
141
2.0
290
     0
  0
SCALE
  5
4A
102
{ACAD_REACTORS
330
47
102
}
330
47
100
AcDbScale
 70
     0
300
1:4
140
1.0
141
4.0
290
     0
  0
SCALE
  5
4B
102
{ACAD_REACTORS
330
47
102
}
330
47
100
AcDbScale
 70
     0
300
1:5
140
1.0
141
5.0
290
     0
  0
SCALE
  5
4C
102
{ACAD_REACTORS
330
47
102
}
330
47
100
AcDbScale
 70
     0
300
1:8
140
1.0
141
8.0
290
     0
  0
SCALE
  5
4D
102
{ACAD_REACTORS
330
47
102
}
330
47
100
AcDbScale
 70
     0
300
1:10
140
1.0
141
10.0
290
     0
  0
SCALE
  5
4E
102
{ACAD_REACTORS
330
47
102
}
330
47
100
AcDbScale
 70
     0
300
1:16
140
1.0
141
16.0
290
     0
  0
SCALE
  5
4F
102
{ACAD_REACTORS
330
47
102
}
330
47
100
AcDbScale
 70
     0
300
1:20
140
1.0
141
20.0
290
     0
  0
SCALE
  5
50
102
{ACAD_REACTORS
330
47
102
}
330
47
100
AcDbScale
 70
     0
300
1:30
140
1.0
141
30.0
290
     0
  0
SCALE
  5
51
102
{ACAD_REACTORS
330
47
102
}
330
47
100
AcDbScale
 70
     0
300
1:40
140
1.0
141
40.0
290
     0
  0
SCALE
  5
52
102
{ACAD_REACTORS
330
47
102
}
330
47
100
AcDbScale
 70
     0
300
1:50
140
1.0
141
50.0
290
     0
  0
SCALE
  5
53
102
{ACAD_REACTORS
330
47
102
}
330
47
100
AcDbScale
 70
     0
300
1:100
140
1.0
141
100.0
290
     0
  0
SCALE
  5
54
102
{ACAD_REACTORS
330
47
102
}
330
47
100
AcDbScale
 70
     0
300
2:1
140
2.0
141
1.0
290
     0
  0
SCALE
  5
55
102
{ACAD_REACTORS
330
47
102
}
330
47
100
AcDbScale
 70
     0
300
4:1
140
4.0
141
1.0
290
     0
  0
SCALE
  5
56
102
{ACAD_REACTORS
330
47
102
}
330
47
100
AcDbScale
 70
     0
300
8:1
140
8.0
141
1.0
290
     0
  0
SCALE
  5
57
102
{ACAD_REACTORS
330
47
102
}
330
47
100
AcDbScale
 70
     0
300
10:1
140
10.0
141
1.0
290
     0
  0
SCALE
  5
58
102
{ACAD_REACTORS
330
47
102
}
330
47
100
AcDbScale
 70
     0
300
100:1
140
100.0
141
1.0
290
     0
  0
ENDSEC
  0
EOF
