  0
SECTION
  2
HEADER
  9
$ACADVER
  1
AC1015
  9
$ACADMAINTVER
 70
     6
  9
$DWGCODEPAGE
  3
DOS932
  9
$INSBASE
 10
0.0
 20
0.0
 30
0.0
  9
$EXTMIN
 10
0.0
 20
0.0
 30
0.0
  9
$EXTMAX
 10
215.9
 20
139.7
 30
0.0
  9
$LIMMIN
 10
0.0
 20
0.0
  9
$LIMMAX
 10
215.9
 20
139.7
  9
$ORTHOMODE
 70
     0
  9
$REGENMODE
 70
     1
  9
$FILLMODE
 70
     1
  9
$QTEXTMODE
 70
     0
  9
$MIRRTEXT
 70
     1
  9
$LTSCALE
 40
0.5
  9
$ATTMODE
 70
     1
  9
$TEXTSIZE
 40
1.75
  9
$TRACEWID
 40
1.0
  9
$TEXTSTYLE
  7
Standard
  9
$CLAYER
  8
0
  9
$CELTYPE
  6
ByLayer
  9
$CECOLOR
 62
   256
  9
$CELTSCALE
 40
1.0
  9
$DISPSILH
 70
     0
  9
$DIMSCALE
 40
1.0
  9
$DIMASZ
 40
1.651
  9
$DIMEXO
 40
0.5
  9
$DIMDLI
 40
3.75
  9
$DIMRND
 40
0.0
  9
$DIMDLE
 40
0.0
  9
$DIMEXE
 40
0.5
  9
$DIMTP
 40
0.0
  9
$DIMTM
 40
0.0
  9
$DIMTXT
 40
1.75
  9
$DIMCEN
 40
2.5
  9
$DIMTSZ
 40
0.0
  9
$DIMTOL
 70
     0
  9
$DIMLIM
 70
     0
  9
$DIMTIH
 70
     1
  9
$DIMTOH
 70
     1
  9
$DIMSE1
 70
     0
  9
$DIMSE2
 70
     0
  9
$DIMTAD
 70
     1
  9
$DIMZIN
 70
     1
  9
$DIMBLK
  1

  9
$DIMASO
 70
     1
  9
$DIMSHO
 70
     1
  9
$DIMPOST
  1

  9
$DIMAPOST
  1

  9
$DIMALT
 70
     0
  9
$DIMALTD
 70
     3
  9
$DIMALTF
 40
0.0393700787
  9
$DIMLFAC
 40
1.0
  9
$DIMTOFL
 70
     1
  9
$DIMTVP
 40
0.0
  9
$DIMTIX
 70
     0
  9
$DIMSOXD
 70
     0
  9
$DIMSAH
 70
     0
  9
$DIMBLK1
  1

  9
$DIMBLK2
  1

  9
$DIMSTYLE
  2
ISO-25
  9
$DIMCLRD
 70
     0
  9
$DIMCLRE
 70
     0
  9
$DIMCLRT
 70
     0
  9
$DIMTFAC
 40
1.0
  9
$DIMGAP
 40
0.762
  9
$DIMJUST
 70
     0
  9
$DIMSD1
 70
     0
  9
$DIMSD2
 70
     0
  9
$DIMTOLJ
 70
     0
  9
$DIMTZIN
 70
     1
  9
$DIMALTZ
 70
     0
  9
$DIMALTTZ
 70
     0
  9
$DIMUPT
 70
     0
  9
$DIMDEC
 70
     2
  9
$DIMTDEC
 70
     2
  9
$DIMALTU
 70
     2
  9
$DIMALTTD
 70
     3
  9
$DIMTXSTY
  7
Standard
  9
$DIMAUNIT
 70
     0
  9
$DIMADEC
 70
     2
  9
$DIMALTRND
 40
0.0
  9
$DIMAZIN
 70
     0
  9
$DIMDSEP
 70
    44
  9
$DIMATFIT
 70
     3
  9
$DIMFRAC
 70
     0
  9
$DIMLDRBLK
  1

  9
$DIMLUNIT
 70
     2
  9
$DIMLWD
 70
    -2
  9
$DIMLWE
 70
    -2
  9
$DIMTMOVE
 70
     0
  9
$LUNITS
 70
     2
  9
$LUPREC
 70
     2
  9
$SKETCHINC
 40
1.0
  9
$FILLETRAD
 40
10.0
  9
$AUNITS
 70
     0
  9
$AUPREC
 70
     2
  9
$MENU
  1
.
  9
$ELEVATION
 40
0.0
  9
$PELEVATION
 40
0.0
  9
$THICKNESS
 40
0.0
  9
$LIMCHECK
 70
     0
  9
$CHAMFERA
 40
0.0
  9
$CHAMFERB
 40
0.0
  9
$CHAMFERC
 40
0.0
  9
$CHAMFERD
 40
0.0
  9
$SKPOLY
 70
     0
  9
$TDCREATE
 40
2460090.440854317
  9
$TDUCREATE
 40
2460090.065854317
  9
$TDUPDATE
 40
2460090.440854688
  9
$TDUUPDATE
 40
2460090.065854688
  9
$TDINDWG
 40
0.0000000116
  9
$TDUSRTIMER
 40
0.0000000116
  9
$USRTIMER
 70
     1
  9
$ANGBASE
 50
0.0
  9
$ANGDIR
 70
     0
  9
$PDMODE
 70
     0
  9
$PDSIZE
 40
-1.0
  9
$PLINEWID
 40
0.0
  9
$SPLFRAME
 70
     0
  9
$SPLINETYPE
 70
     6
  9
$SPLINESEGS
 70
     8
  9
$HANDSEED
  5
EE
  9
$SURFTAB1
 70
     6
  9
$SURFTAB2
 70
     6
  9
$SURFTYPE
 70
     6
  9
$SURFU
 70
     6
  9
$SURFV
 70
     6
  9
$UCSBASE
  2

  9
$UCSNAME
  2

  9
$UCSORG
 10
0.0
 20
0.0
 30
0.0
  9
$UCSXDIR
 10
1.0
 20
0.0
 30
0.0
  9
$UCSYDIR
 10
0.0
 20
1.0
 30
0.0
  9
$UCSORTHOREF
  2

  9
$UCSORTHOVIEW
 70
     0
  9
$UCSORGTOP
 10
0.0
 20
0.0
 30
0.0
  9
$UCSORGBOTTOM
 10
0.0
 20
0.0
 30
0.0
  9
$UCSORGLEFT
 10
0.0
 20
0.0
 30
0.0
  9
$UCSORGRIGHT
 10
0.0
 20
0.0
 30
0.0
  9
$UCSORGFRONT
 10
0.0
 20
0.0
 30
0.0
  9
$UCSORGBACK
 10
0.0
 20
0.0
 30
0.0
  9
$PUCSBASE
  2

  9
$PUCSNAME
  2

  9
$PUCSORG
 10
0.0
 20
0.0
 30
0.0
  9
$PUCSXDIR
 10
1.0
 20
0.0
 30
0.0
  9
$PUCSYDIR
 10
0.0
 20
1.0
 30
0.0
  9
$PUCSORTHOREF
  2

  9
$PUCSORTHOVIEW
 70
     0
  9
$PUCSORGTOP
 10
0.0
 20
0.0
 30
0.0
  9
$PUCSORGBOTTOM
 10
0.0
 20
0.0
 30
0.0
  9
$PUCSORGLEFT
 10
0.0
 20
0.0
 30
0.0
  9
$PUCSORGRIGHT
 10
0.0
 20
0.0
 30
0.0
  9
$PUCSORGFRONT
 10
0.0
 20
0.0
 30
0.0
  9
$PUCSORGBACK
 10
0.0
 20
0.0
 30
0.0
  9
$USERI1
 70
     0
  9
$USERI2
 70
     0
  9
$USERI3
 70
     0
  9
$USERI4
 70
     0
  9
$USERI5
 70
     0
  9
$USERR1
 40
0.0
  9
$USERR2
 40
0.0
  9
$USERR3
 40
0.0
  9
$USERR4
 40
0.0
  9
$USERR5
 40
0.0
  9
$WORLDVIEW
 70
     1
  9
$SHADEDGE
 70
     3
  9
$SHADEDIF
 70
    70
  9
$TILEMODE
 70
     1
  9
$MAXACTVP
 70
    64
  9
$PINSBASE
 10
0.0
 20
0.0
 30
0.0
  9
$PLIMCHECK
 70
     0
  9
$PEXTMIN
 10
1.0000000000E+20
 20
1.0000000000E+20
 30
1.0000000000E+20
  9
$PEXTMAX
 10
-1.0000000000E+20
 20
-1.0000000000E+20
 30
-1.0000000000E+20
  9
$PLIMMIN
 10
0.0
 20
0.0
  9
$PLIMMAX
 10
420.0
 20
297.0
  9
$UNITMODE
 70
     0
  9
$VISRETAIN
 70
     1
  9
$PLINEGEN
 70
     0
  9
$PSLTSCALE
 70
     1
  9
$TREEDEPTH
 70
  3020
  9
$CMLSTYLE
  2
Standard
  9
$CMLJUST
 70
     0
  9
$CMLSCALE
 40
20.0
  9
$PROXYGRAPHICS
 70
     1
  9
$MEASUREMENT
 70
     1
  9
$CELWEIGHT
370
    -1
  9
$ENDCAPS
280
     0
  9
$JOINSTYLE
280
     0
  9
$LWDISPLAY
290
     1
  9
$INSUNITS
 70
     4
  9
$HYPERLINKBASE
  1

  9
$STYLESHEET
  1

  9
$XEDIT
290
     1
  9
$CEPSNTYPE
380
     0
  9
$PSTYLEMODE
290
     1
  9
$FINGERPRINTGUID
  2
{589D873F-FEC2-4470-956A-66DDF3C1ADEE}
  9
$VERSIONGUID
  2
{FAEB1C32-E019-11D5-929B-00C0DF256EC4}
  9
$EXTNAMES
290
     1
  9
$PSVPSCALE
 40
0.0
  9
$OLESTARTUP
290
     0
  0
ENDSEC
  0
SECTION
  2
CLASSES
  0
CLASS
  1
ACDBDICTIONARYWDFLT
  2
AcDbDictionaryWithDefault
  3
ObjectDBX Classes
 90
        0
280
     0
281
     0
  0
CLASS
  1
VISUALSTYLE
  2
AcDbVisualStyle
  3
ObjectDBX Classes
 90
     4095
280
     0
281
     0
  0
CLASS
  1
MATERIAL
  2
AcDbMaterial
  3
ObjectDBX Classes
 90
     1153
280
     0
281
     0
  0
CLASS
  1
SCALE
  2
AcDbScale
  3
ObjectDBX Classes
 90
     1153
280
     0
281
     0
  0
CLASS
  1
TABLESTYLE
  2
AcDbTableStyle
  3
ObjectDBX Classes
 90
     4095
280
     0
281
     0
  0
CLASS
  1
MLEADERSTYLE
  2
AcDbMLeaderStyle
  3
ACDB_MLEADERSTYLE_CLASS
 90
     4095
280
     0
281
     0
  0
CLASS
  1
SUN
  2
AcDbSun
  3
SCENEOE
 90
     1153
280
     0
281
     0
  0
CLASS
  1
ACDBPLACEHOLDER
  2
AcDbPlaceHolder
  3
ObjectDBX Classes
 90
        0
280
     0
281
     0
  0
CLASS
  1
LAYOUT
  2
AcDbLayout
  3
ObjectDBX Classes
 90
        0
280
     0
281
     0
  0
ENDSEC
  0
SECTION
  2
TABLES
  0
TABLE
  2
VPORT
  5
8
330
0
100
AcDbSymbolTable
 70
     1
  0
VPORT
  5
29
330
8
100
AcDbSymbolTableRecord
100
AcDbViewportTableRecord
  2
*Active
 70
     0
 10
0.0
 20
0.0
 11
1.0
 21
1.0
 12
107.95
 22
69.85
 13
0.0
 23
0.0
 14
10.0
 24
10.0
 15
10.0
 25
10.0
 16
0.0
 26
0.0
 36
1.0
 17
0.0
 27
0.0
 37
0.0
 40
139.7
 41
1.5454545455
 42
50.0
 43
0.0
 44
0.0
 50
0.0
 51
0.0
 71
     0
 72
  2000
 73
     1
 74
     3
 75
     0
 76
     0
 77
     0
 78
     0
281
     0
 65
     1
110
0.0
120
0.0
130
0.0
111
1.0
121
0.0
131
0.0
112
0.0
122
1.0
132
0.0
 79
     0
146
0.0
  0
ENDTAB
  0
TABLE
  2
LTYPE
  5
5
330
0
100
AcDbSymbolTable
 70
     6
  0
LTYPE
  5
14
330
5
100
AcDbSymbolTableRecord
100
AcDbLinetypeTableRecord
  2
ByBlock
 70
     0
  3

 72
    65
 73
     0
 40
0.0
  0
LTYPE
  5
15
330
5
100
AcDbSymbolTableRecord
100
AcDbLinetypeTableRecord
  2
ByLayer
 70
     0
  3

 72
    65
 73
     0
 40
0.0
  0
LTYPE
  5
16
330
5
100
AcDbSymbolTableRecord
100
AcDbLinetypeTableRecord
  2
Continuous
 70
     0
  3
Solid line
 72
    65
 73
     0
 40
0.0
  0
LTYPE
  5
6E
330
5
100
AcDbSymbolTableRecord
100
AcDbLinetypeTableRecord
  2
HIDDEN
 70
     0
  3
Hidden __ __ __ __ __ __ __ __ __ __ __ __ __ __
 72
    65
 73
     2
 40
1.905
 49
1.27
 74
     0
 49
-0.635
 74
     0
  0
LTYPE
  5
6F
330
5
100
AcDbSymbolTableRecord
100
AcDbLinetypeTableRecord
  2
PHANTOM
 70
     0
  3
Phantom ______  __  __  ______  __  __  ______
 72
    65
 73
     6
 40
12.7
 49
6.35
 74
     0
 49
-1.27
 74
     0
 49
1.27
 74
     0
 49
-1.27
 74
     0
 49
1.27
 74
     0
 49
-1.27
 74
     0
  0
LTYPE
  5
70
330
5
100
AcDbSymbolTableRecord
100
AcDbLinetypeTableRecord
  2
CENTER
 70
     0
  3
Center ____ _ ____ _ ____ _ ____ _ ____ _ ____
 72
    65
 73
     4
 40
10.16
 49
6.35
 74
     0
 49
-1.27
 74
     0
 49
1.27
 74
     0
 49
-1.27
 74
     0
  0
LTYPE
  5
71
330
5
100
AcDbSymbolTableRecord
100
AcDbLinetypeTableRecord
  2
CENTERX2
 70
     0
  3
Center (2x) ________  __  ________  __  _____
 72
    65
 73
     4
 40
20.32
 49
12.7
 74
     0
 49
-2.54
 74
     0
 49
2.54
 74
     0
 49
-2.54
 74
     0
  0
LTYPE
  5
72
330
5
100
AcDbSymbolTableRecord
100
AcDbLinetypeTableRecord
  2
DOT2
 70
     0
  3
Dot (.5x) ........................................
 72
    65
 73
     2
 40
0.635
 49
0.0
 74
     0
 49
-0.635
 74
     0
  0
ENDTAB
  0
TABLE
  2
LAYER
  5
2
330
0
100
AcDbSymbolTable
 70
     1
  0
LAYER
  5
10
330
2
100
AcDbSymbolTableRecord
100
AcDbLayerTableRecord
  2
0
 70
     0
 62
     7
  6
Continuous
370
    -3
390
F
  0
ENDTAB
  0
TABLE
  2
STYLE
  5
3
330
0
100
AcDbSymbolTable
 70
     2
  0
STYLE
  5
11
330
3
100
AcDbSymbolTableRecord
100
AcDbTextStyleTableRecord
  2
Standard
 70
     0
 40
0.0
 41
1.0
 50
0.0
 71
     0
 42
1.75
  3
txt
  4
bigfont
  0
STYLE
  5
73
330
3
100
AcDbSymbolTableRecord
100
AcDbTextStyleTableRecord
  2
SLDTEXTSTYLE0
 70
     0
 40
0.0
 41
0.75
 50
0.0
 71
     0
 42
1.75
  3
TXT
  4
bigfont
  0
ENDTAB
  0
TABLE
  2
VIEW
  5
6
330
0
100
AcDbSymbolTable
 70
     0
  0
ENDTAB
  0
TABLE
  2
UCS
  5
7
330
0
100
AcDbSymbolTable
 70
     0
  0
ENDTAB
  0
TABLE
  2
APPID
  5
9
330
0
100
AcDbSymbolTable
 70
     1
  0
APPID
  5
12
330
9
100
AcDbSymbolTableRecord
100
AcDbRegAppTableRecord
  2
ACAD
 70
     0
  0
ENDTAB
  0
TABLE
  2
DIMSTYLE
  5
A
330
0
100
AcDbSymbolTable
 70
     1
100
AcDbDimStyleTable
  0
DIMSTYLE
105
27
330
A
100
AcDbSymbolTableRecord
100
AcDbDimStyleTableRecord
  2
ISO-25
 70
     0
 41
2.5
 42
0.625
 43
3.75
 44
1.25
 73
     0
 74
     0
 77
     1
 78
     8
140
2.5
141
2.5
143
0.0393700787
147
0.625
171
     3
172
     1
178
     0
271
     2
272
     2
274
     3
278
    44
283
     0
284
     8
340
11
  0
ENDTAB
  0
TABLE
  2
BLOCK_RECORD
  5
1
330
0
100
AcDbSymbolTable
 70
     2
  0
BLOCK_RECORD
  5
1F
330
1
100
AcDbSymbolTableRecord
100
AcDbBlockTableRecord
  2
*Model_Space
340
22
  0
BLOCK_RECORD
  5
1B
330
1
100
AcDbSymbolTableRecord
100
AcDbBlockTableRecord
  2
*Paper_Space
340
1E
  0
BLOCK_RECORD
  5
23
330
1
100
AcDbSymbolTableRecord
100
AcDbBlockTableRecord
  2
*Paper_Space0
340
26
  0
BLOCK_RECORD
  5
E1
330
1
100
AcDbSymbolTableRecord
100
AcDbBlockTableRecord
  2
SW_CENTERMARKSYMBOL_0
340
0
102
{BLKREFS
331
EC
102
}
  0
ENDTAB
  0
ENDSEC
  0
SECTION
  2
BLOCKS
  0
BLOCK
  5
20
330
1F
100
AcDbEntity
  8
0
100
AcDbBlockBegin
  2
*Model_Space
 70
     0
 10
0.0
 20
0.0
 30
0.0
  3
*Model_Space
  1

  0
ENDBLK
  5
21
330
1F
100
AcDbEntity
  8
0
100
AcDbBlockEnd
  0
BLOCK
  5
1C
330
1B
100
AcDbEntity
 67
     1
  8
0
100
AcDbBlockBegin
  2
*Paper_Space
 70
     0
 10
0.0
 20
0.0
 30
0.0
  3
*Paper_Space
  1

  0
ENDBLK
  5
1D
330
1B
100
AcDbEntity
 67
     1
  8
0
100
AcDbBlockEnd
  0
BLOCK
  5
24
330
23
100
AcDbEntity
  8
0
100
AcDbBlockBegin
  2
*Paper_Space0
 70
     0
 10
0.0
 20
0.0
 30
0.0
  3
*Paper_Space0
  1

  0
ENDBLK
  5
25
330
23
100
AcDbEntity
  8
0
100
AcDbBlockEnd
  0
BLOCK
  5
E2
330
E1
100
AcDbEntity
  8
0
100
AcDbBlockBegin
  2
SW_CENTERMARKSYMBOL_0
 70
     0
 10
0.0
 20
0.0
 30
0.0
  3
SW_CENTERMARKSYMBOL_0
  1

  0
LINE
  5
E4
330
E1
100
AcDbEntity
  8
0
  6
Continuous
 62
     0
370
    18
100
AcDbLine
 10
0.0
 20
0.0
 30
0.0
 11
0.0
 21
2.5
 31
0.0
  0
LINE
  5
E5
330
E1
100
AcDbEntity
  8
0
  6
Continuous
 62
     0
370
    18
100
AcDbLine
 10
0.0
 20
0.0
 30
0.0
 11
-2.5
 21
0.0
 31
0.0
  0
LINE
  5
E6
330
E1
100
AcDbEntity
  8
0
  6
Continuous
 62
     0
370
    18
100
AcDbLine
 10
0.0
 20
0.0
 30
0.0
 11
0.0
 21
-2.5
 31
0.0
  0
LINE
  5
E7
330
E1
100
AcDbEntity
  8
0
  6
Continuous
 62
     0
370
    18
100
AcDbLine
 10
0.0
 20
0.0
 30
0.0
 11
2.5
 21
0.0
 31
0.0
  0
LINE
  5
E8
330
E1
100
AcDbEntity
  8
0
  6
Continuous
 62
     0
370
    18
100
AcDbLine
 10
0.0
 20
5.0
 30
0.0
 11
0.0
 21
15.9174545455
 31
0.0
  0
LINE
  5
E9
330
E1
100
AcDbEntity
  8
0
  6
Continuous
 62
     0
370
    18
100
AcDbLine
 10
-5.0
 20
0.0
 30
0.0
 11
-15.9174545455
 21
0.0
 31
0.0
  0
LINE
  5
EA
330
E1
100
AcDbEntity
  8
0
  6
Continuous
 62
     0
370
    18
100
AcDbLine
 10
0.0
 20
-5.0
 30
0.0
 11
0.0
 21
-15.9174545455
 31
0.0
  0
LINE
  5
EB
330
E1
100
AcDbEntity
  8
0
  6
Continuous
 62
     0
370
    18
100
AcDbLine
 10
5.0
 20
0.0
 30
0.0
 11
15.9174545455
 21
0.0
 31
0.0
  0
ENDBLK
  5
E3
330
E1
100
AcDbEntity
  8
0
100
AcDbBlockEnd
  0
ENDSEC
  0
SECTION
  2
ENTITIES
  0
MTEXT
  5
74
330
1F
100
AcDbEntity
  8
0
  6
Continuous
 62
     7
370
     0
100
AcDbMText
 10
40.3810636332
 20
45.4870633346
 30
0.0
 40
3.7041666667
 41
0.0
 71
     1
 72
     1
  1
NP-7006
  7
SLDTEXTSTYLE0
 73
     1
 44
1.0
  0
LINE
  5
75
330
1F
100
AcDbEntity
  8
0
  6
Continuous
 62
     7
370
    25
100
AcDbLine
 10
31.0401963216
 20
36.400930846
 30
0.0
 11
18.2706185936
 21
36.001881542
 31
0.0
  0
LINE
  5
76
330
1F
100
AcDbEntity
  8
0
  6
Continuous
 62
     7
370
    25
100
AcDbLine
 10
18.2706185936
 20
9.9650710591
 30
0.0
 11
31.0401963216
 21
9.5660217551
 31
0.0
  0
LINE
  5
77
330
1F
100
AcDbEntity
  8
0
  6
Continuous
 62
     7
370
    25
100
AcDbLine
 10
31.0401963216
 20
9.5660217551
 30
0.0
 11
33.2076508671
 21
11.7334763006
 31
0.0
  0
LINE
  5
78
330
1F
100
AcDbEntity
  8
0
  6
Continuous
 62
     7
370
    25
100
AcDbLine
 10
33.2076508671
 20
34.2334763006
 30
0.0
 11
31.0401963216
 21
36.400930846
 31
0.0
  0
LINE
  5
79
330
1F
100
AcDbEntity
  8
0
  6
Continuous
 62
     7
370
    25
100
AcDbLine
 10
18.2706185936
 20
36.001881542
 30
0.0
 11
15.2076508671
 21
34.2334763006
 31
0.0
  0
LINE
  5
7A
330
1F
100
AcDbEntity
  8
0
  6
Continuous
 62
     7
370
    25
100
AcDbLine
 10
15.2076508671
 20
11.7334763006
 30
0.0
 11
18.2706185936
 21
9.9650710591
 31
0.0
  0
LINE
  5
7B
330
1F
100
AcDbEntity
  8
0
  6
Continuous
 62
     7
370
    25
100
AcDbLine
 10
43.2076508671
 20
31.4834763006
 30
0.0
 11
41.2326508671
 21
33.4584763006
 31
0.0
  0
LINE
  5
7C
330
1F
100
AcDbEntity
  8
0
  6
Continuous
 62
     7
370
    25
100
AcDbLine
 10
41.2326508671
 20
12.5084763006
 30
0.0
 11
43.2076508671
 21
14.4834763006
 31
0.0
  0
LINE
  5
7D
330
1F
100
AcDbEntity
  8
0
  6
Continuous
 62
     7
370
    25
100
AcDbLine
 10
31.0401963216
 20
36.400930846
 30
0.0
 11
31.0401963216
 21
9.5660217551
 31
0.0
  0
LINE
  5
7E
330
1F
100
AcDbEntity
  8
0
  6
Continuous
 62
     7
370
    25
100
AcDbLine
 10
18.2706185936
 20
9.9650710591
 30
0.0
 11
18.2706185936
 21
36.001881542
 31
0.0
  0
LINE
  5
7F
330
1F
100
AcDbEntity
  8
0
  6
Continuous
 62
     7
370
    25
100
AcDbLine
 10
33.2076508671
 20
34.2334763006
 30
0.0
 11
33.2076508671
 21
11.7334763006
 31
0.0
  0
LINE
  5
80
330
1F
100
AcDbEntity
  8
0
  6
Continuous
 62
     7
370
    25
100
AcDbLine
 10
15.2076508671
 20
11.7334763006
 30
0.0
 11
15.2076508671
 21
34.2334763006
 31
0.0
  0
SPLINE
  5
81
330
1F
100
AcDbEntity
  8
0
  6
Continuous
 62
     7
370
    25
100
AcDbSpline
210
0.0
220
0.0
230
1.0
 70
     8
 71
     3
 72
    16
 73
    12
 74
     0
 42
0.000000001
 43
0.00000001
 40
0.0
 40
0.0
 40
0.0
 40
0.0
 40
0.2500000000000002
 40
0.2500000000000002
 40
0.5000000000000004
 40
0.5000000000000004
 40
0.6250000000000003
 40
0.6250000000000003
 40
0.7500000000000002
 40
0.7500000000000002
 40
1.0
 40
1.0
 40
1.0
 40
1.0
 10
41.11920575549712
 20
12.50847630057805
 30
0.0
 10
41.40476254913415
 20
12.84709651401622
 30
0.0
 10
41.67452078387905
 20
13.19145043199594
 30
0.0
 10
42.16869957876597
 20
13.89661247954192
 30
0.0
 10
42.39321972488813
 20
14.2573844667872
 30
0.0
 10
42.68041749005421
 20
14.81653719918405
 30
0.0
 10
42.76782015143184
 20
15.00594458869688
 30
0.0
 10
42.92241450655827
 20
15.39209444921154
 30
0.0
 10
42.98959439765486
 20
15.58940655239492
 30
0.0
 10
43.15132857700226
 20
16.17972656785859
 30
0.0
 10
43.20765086705202
 20
16.57529312000749
 30
0.0
 10
43.20765086705202
 20
16.9730686604924
 30
0.0
  0
LINE
  5
82
330
1F
100
AcDbEntity
  8
0
  6
Continuous
 62
     7
370
    25
100
AcDbLine
 10
33.2076508671
 20
12.5084763006
 30
0.0
 11
41.1192057555
 21
12.5084763006
 31
0.0
  0
LINE
  5
83
330
1F
100
AcDbEntity
  8
0
  6
Continuous
 62
     7
370
    25
100
AcDbLine
 10
41.1192057555
 20
21.4376610204
 30
0.0
 11
33.2076508671
 21
21.4376610204
 31
0.0
  0
SPLINE
  5
84
330
1F
100
AcDbEntity
  8
0
  6
Continuous
 62
     7
370
    25
100
AcDbSpline
210
0.0
220
0.0
230
1.0
 70
     8
 71
     3
 72
    16
 73
    12
 74
     0
 42
0.000000001
 43
0.00000001
 40
0.0
 40
0.0
 40
0.0
 40
0.0
 40
0.1249999999999999
 40
0.1249999999999999
 40
0.2499999999999998
 40
0.2499999999999998
 40
0.4999999999999999
 40
0.4999999999999999
 40
0.7499999999999999
 40
0.7499999999999999
 40
1.0
 40
1.0
 40
1.0
 40
1.0
 10
43.20765086705202
 20
16.9730686604924
 30
0.0
 10
43.20765086705202
 20
17.16977484786793
 30
0.0
 10
43.19396139459112
 20
17.36701794318817
 30
0.0
 10
43.13915201533699
 20
17.76257996915848
 30
0.0
 10
43.09774456865991
 20
17.96146662449891
 30
0.0
 10
42.93771471343523
 20
18.54712052624523
 30
0.0
 10
42.78322944969359
 20
18.92706684223574
 30
0.0
 10
42.40330089627204
 20
19.67138744564921
 30
0.0
 10
42.17693148007342
 20
20.0371038191911
 30
0.0
 10
41.67817982982842
 20
20.7501244027777
 30
0.0
 10
41.40636578780749
 20
21.09713964743094
 30
0.0
 10
41.11920575549712
 20
21.43766102040675
 30
0.0
  0
SPLINE
  5
85
330
1F
100
AcDbEntity
  8
0
  6
Continuous
 62
     7
370
    25
100
AcDbSpline
210
0.0
220
0.0
230
1.0
 70
     8
 71
     3
 72
    16
 73
    12
 74
     0
 42
0.000000001
 43
0.00000001
 40
0.0
 40
0.0
 40
0.0
 40
0.0
 40
0.1250000000000002
 40
0.1250000000000002
 40
0.2500000000000004
 40
0.2500000000000004
 40
0.5000000000000003
 40
0.5000000000000003
 40
0.7500000000000002
 40
0.7500000000000002
 40
1.0
 40
1.0
 40
1.0
 40
1.0
 10
43.20765086705202
 20
28.9938839406637
 30
0.0
 10
43.20765086705202
 20
29.19059012803923
 30
0.0
 10
43.19396139459112
 20
29.38783322335948
 30
0.0
 10
43.13915201533698
 20
29.78339524932978
 30
0.0
 10
43.09774456865991
 20
29.98228190467022
 30
0.0
 10
42.93771471343523
 20
30.56793580641654
 30
0.0
 10
42.78322944969359
 20
30.94788212240704
 30
0.0
 10
42.40330089627204
 20
31.69220272582052
 30
0.0
 10
42.17693148007341
 20
32.05791909936241
 30
0.0
 10
41.67817982982842
 20
32.77093968294901
 30
0.0
 10
41.40636578780749
 20
33.11795492760225
 30
0.0
 10
41.11920575549712
 20
33.45847630057805
 30
0.0
  0
SPLINE
  5
86
330
1F
100
AcDbEntity
  8
0
  6
Continuous
 62
     7
370
    25
100
AcDbSpline
210
0.0
220
0.0
230
1.0
 70
     8
 71
     3
 72
    16
 73
    12
 74
     0
 42
0.000000001
 43
0.00000001
 40
0.0
 40
0.0
 40
0.0
 40
0.0
 40
0.2499999999999996
 40
0.2499999999999996
 40
0.4999999999999992
 40
0.4999999999999992
 40
0.6249999999999994
 40
0.6249999999999994
 40
0.7499999999999997
 40
0.7499999999999997
 40
1.0
 40
1.0
 40
1.0
 40
1.0
 10
41.11920575549712
 20
24.52929158074936
 30
0.0
 10
41.40476254913415
 20
24.86791179418753
 30
0.0
 10
41.67452078387905
 20
25.21226571216724
 30
0.0
 10
42.16869957876597
 20
25.91742775971323
 30
0.0
 10
42.39321972488813
 20
26.27819974695851
 30
0.0
 10
42.6804174900542
 20
26.83735247935536
 30
0.0
 10
42.76782015143183
 20
27.02675986886819
 30
0.0
 10
42.92241450655826
 20
27.41290972938285
 30
0.0
 10
42.98959439765486
 20
27.61022183256622
 30
0.0
 10
43.15132857700225
 20
28.2005418480299
 30
0.0
 10
43.20765086705202
 20
28.5961084001788
 30
0.0
 10
43.20765086705202
 20
28.9938839406637
 30
0.0
  0
LINE
  5
87
330
1F
100
AcDbEntity
  8
0
  6
Continuous
 62
     7
370
    25
100
AcDbLine
 10
33.2076508671
 20
24.5292915807
 30
0.0
 11
41.1192057555
 21
24.5292915807
 31
0.0
  0
LINE
  5
88
330
1F
100
AcDbEntity
  8
0
  6
Continuous
 62
     7
370
    25
100
AcDbLine
 10
33.2076508671
 20
33.4584763006
 30
0.0
 11
41.1192057555
 21
33.4584763006
 31
0.0
  0
SPLINE
  5
89
330
1F
100
AcDbEntity
  8
0
  6
Continuous
 62
     7
370
    25
100
AcDbSpline
210
0.0
220
0.0
230
1.0
 70
     8
 71
     3
 72
    12
 73
     8
 74
     0
 42
0.000000001
 43
0.00000001
 40
0.0
 40
0.0
 40
0.0
 40
0.0
 40
0.25
 40
0.25
 40
0.5
 40
0.5
 40
1.0
 40
1.0
 40
1.0
 40
1.0
 10
41.11920575549712
 20
21.43766102040675
 30
0.0
 10
41.15638958266085
 20
21.69236086586117
 30
0.0
 10
41.18487466481504
 20
21.94911856172123
 30
0.0
 10
41.22310974316031
 20
22.46706608752582
 30
0.0
 10
41.23278746849174
 20
22.72929021433081
 30
0.0
 10
41.23237322409864
 20
23.50855352226444
 30
0.0
 10
41.19329997453263
 20
24.02176485268255
 30
0.0
 10
41.11920575549712
 20
24.52929158074936
 30
0.0
  0
LINE
  5
8A
330
1F
100
AcDbEntity
  8
0
  6
Continuous
 62
     7
370
    25
100
AcDbLine
 10
43.2076508671
 20
28.9938839407
 30
0.0
 11
43.2076508671
 21
16.9730686605
 31
0.0
  0
SPLINE
  5
8B
330
1F
100
AcDbEntity
  8
0
  6
Continuous
 62
     7
370
    25
100
AcDbSpline
210
0.0
220
0.0
230
1.0
 70
    24
 71
     3
 72
    14
 73
    10
 74
     0
 42
0.000000001
 43
0.00000001
 40
0.0
 40
0.0
 40
0.0
 40
0.0
 40
0.154327766990707
 40
0.3087286605899476
 40
0.4633553524289871
 40
0.6180598716446465
 40
0.7736320435320884
 40
0.9292861276443339
 40
1.0
 40
1.0
 40
1.0
 40
1.0
 10
41.11920575549712
 20
33.45847630057806
 30
0.0
 10
41.13024510488533
 20
33.45847630057805
 30
0.0
 10
41.15232903454272
 20
33.45847630057805
 30
0.0
 10
41.17892464133818
 20
33.45847630057805
 30
0.0
 10
41.2005909092579
 20
33.45847630057805
 30
0.0
 10
41.21690916451092
 20
33.45847630057805
 30
0.0
 10
41.22749750624887
 20
33.45847630057805
 30
0.0
 10
41.23260437805698
 20
33.45847630057806
 30
0.0
 10
41.23211255191612
 20
33.45847630057805
 30
0.0
 10
41.23195891298467
 20
33.45847630057805
 30
0.0
  0
LINE
  5
8C
330
1F
100
AcDbEntity
  8
0
  6
Continuous
 62
     7
370
    25
100
AcDbLine
 10
43.2076508671
 20
31.4834763006
 30
0.0
 11
43.2076508671
 21
28.9938839407
 31
0.0
  0
SPLINE
  5
8D
330
1F
100
AcDbEntity
  8
0
  6
Continuous
 62
     7
370
    25
100
AcDbSpline
210
0.0
220
0.0
230
1.0
 70
    24
 71
     3
 72
    11
 73
     7
 74
     0
 42
0.000000001
 43
0.00000001
 40
0.0
 40
0.0
 40
0.0
 40
0.0
 40
0.3087444440917007
 40
0.6180903604698991
 40
0.9293305479997482
 40
1.0
 40
1.0
 40
1.0
 40
1.0
 10
41.11920575549712
 20
12.50847630057805
 30
0.0
 10
41.14040607810452
 20
12.50847630057805
 30
0.0
 10
41.18284802416459
 20
12.50847630057805
 30
0.0
 10
41.21822737268239
 20
12.50847630057805
 30
0.0
 10
41.23454155237158
 20
12.50847630057805
 30
0.0
 10
41.23129464232131
 20
12.50847630057805
 30
0.0
 10
41.23069382649946
 20
12.50847630057805
 30
0.0
  0
LINE
  5
8E
330
1F
100
AcDbEntity
  8
0
  6
Continuous
 62
     7
370
    25
100
AcDbLine
 10
43.2076508671
 20
16.9730686605
 30
0.0
 11
43.2076508671
 21
14.4834763006
 31
0.0
  0
LINE
  5
8F
330
1F
100
AcDbEntity
  8
0
  6
Continuous
 62
     7
370
    18
100
AcDbLine
 10
31.0401963216
 20
10.9098247854
 30
0.0
 11
15.809892778
 21
11.3857717712
 31
0.0
  0
LINE
  5
90
330
1F
100
AcDbEntity
  8
0
  6
Continuous
 62
     7
370
    18
100
AcDbLine
 10
31.0401963216
 20
35.0571278157
 30
0.0
 11
15.809892778
 21
34.58118083
 31
0.0
  0
LINE
  5
91
330
1F
100
AcDbEntity
  8
0
  6
CENTERX2
 62
     7
370
    18
100
AcDbLine
 10
45.8456786127
 20
22.9834763006
 30
0.0
 11
13.2285549133
 21
22.9834763006
 31
0.0
  0
SPLINE
  5
92
330
1F
100
AcDbEntity
  8
0
  6
Continuous
 62
     7
370
    25
100
AcDbSpline
210
0.0
220
0.0
230
1.0
 70
    24
 71
     3
 72
    16
 73
    12
 74
     0
 42
0.000000001
 43
0.00000001
 40
0.0
 40
0.0
 40
0.0
 40
0.0
 40
0.1250000000000001
 40
0.1250000000000001
 40
0.2500000000000003
 40
0.2500000000000003
 40
0.5000000000000006
 40
0.5000000000000006
 40
0.7500000000000002
 40
0.7500000000000002
 40
1.0
 40
1.0
 40
1.0
 40
1.0
 10
75.90709665742668
 20
16.97306866049239
 30
0.0
 10
76.10380284480222
 20
17.16977484786792
 30
0.0
 10
76.30104594012245
 20
17.36701794318817
 30
0.0
 10
76.69660796609276
 20
17.76257996915848
 30
0.0
 10
76.89549462143319
 20
17.96146662449891
 30
0.0
 10
77.48114852317951
 20
18.54712052624522
 30
0.0
 10
77.86109483917004
 20
18.92706684223574
 30
0.0
 10
78.60541544258349
 20
19.6713874456492
 30
0.0
 10
78.97113181612539
 20
20.0371038191911
 30
0.0
 10
79.68415239971199
 20
20.7501244027777
 30
0.0
 10
80.03116764436523
 20
21.09713964743094
 30
0.0
 10
80.37168901734103
 20
21.43766102040674
 30
0.0
  0
ARC
  5
93
330
1F
100
AcDbEntity
  8
0
  6
Continuous
 62
     7
370
    25
100
AcDbCircle
 10
69.8966890173
 20
22.9834763006
 30
0.0
 40
8.499999999999993
100
AcDbArc
 50
315.0
 51
45.0
  0
SPLINE
  5
94
330
1F
100
AcDbEntity
  8
0
  6
Continuous
 62
     7
370
    25
100
AcDbSpline
210
0.0
220
0.0
230
1.0
 70
    24
 71
     3
 72
    10
 73
     6
 74
     0
 42
0.000000001
 43
0.00000001
 40
0.0
 40
0.0
 40
0.0
 40
0.0
 40
0.5
 40
0.5
 40
1.0
 40
1.0
 40
1.0
 40
1.0
 10
80.37168901734103
 20
21.43766102040674
 30
0.0
 10
80.37168901734103
 20
21.94603509539704
 30
0.0
 10
80.37168901734103
 20
22.46225406493102
 30
0.0
 10
80.37168901734103
 20
23.50598783767815
 30
0.0
 10
80.37168901734103
 20
24.02079909441079
 30
0.0
 10
80.37168901734103
 20
24.52929158074399
 30
0.0
  0
SPLINE
  5
95
330
1F
100
AcDbEntity
  8
0
  6
Continuous
 62
     7
370
    25
100
AcDbSpline
210
0.0
220
0.0
230
1.0
 70
    24
 71
     3
 72
    16
 73
    12
 74
     0
 42
0.000000001
 43
0.00000001
 40
0.0
 40
0.0
 40
0.0
 40
0.0
 40
0.125
 40
0.125
 40
0.25
 40
0.25
 40
0.5
 40
0.5
 40
0.75
 40
0.75
 40
1.0
 40
1.0
 40
1.0
 40
1.0
 10
75.90709665742669
 20
28.9938839406637
 30
0.0
 10
76.10380284480253
 20
28.79717775328786
 30
0.0
 10
76.30104594012309
 20
28.59993465796731
 30
0.0
 10
76.69660796609402
 20
28.20437263199637
 30
0.0
 10
76.89549462143478
 20
28.00548597665562
 30
0.0
 10
77.48114852318197
 20
27.41983207490842
 30
0.0
 10
77.86109483917303
 20
27.03988575891735
 30
0.0
 10
78.60541544258759
 20
26.29556515550281
 30
0.0
 10
78.97113181613001
 20
25.92984878196038
 30
0.0
 10
79.68415239971756
 20
25.21682819837283
 30
0.0
 10
80.03116764437127
 20
24.86981295371913
 30
0.0
 10
80.37168901734752
 20
24.52929158074286
 30
0.0
  0
SPLINE
  5
96
330
1F
100
AcDbEntity
  8
0
  6
Continuous
 62
     7
370
    25
100
AcDbSpline
210
0.0
220
0.0
230
1.0
 70
     8
 71
     3
 72
    31
 73
    27
 74
     0
 42
0.000000001
 43
0.00000001
 40
0.0
 40
0.0
 40
0.0
 40
0.0
 40
0.0340625437668025
 40
0.06731388559767
 40
0.1002986917293195
 40
0.1328915753415363
 40
0.1654542126705893
 40
0.1984564401369068
 40
0.2315592824902879
 40
0.2655034986764517
 40
0.2998732210996857
 40
0.3348750234665334
 40
0.3704365550514274
 40
0.4070493254137256
 40
0.4446490562916618
 40
0.4836382628524704
 40
0.5240535084233169
 40
0.5661466743313504
 40
0.6102573304114862
 40
0.6569339262658018
 40
0.7066268298851165
 40
0.7589305312314926
 40
0.8142977160234048
 40
0.8730747594856019
 40
0.9349497890039752
 40
0.9999999999999999
 40
0.9999999999999999
 40
0.9999999999999999
 40
0.9999999999999999
 10
68.30049911813127
 20
25.14733848006523
 30
0.0
 10
68.31307143869822
 20
25.15947472392121
 30
0.0
 10
68.33791666911127
 20
25.18345818611062
 30
0.0
 10
68.3785697038446
 20
25.2150530319122
 30
0.0
 10
68.42020721831517
 20
25.24399060613479
 30
0.0
 10
68.46415303962742
 20
25.26862625693688
 30
0.0
 10
68.50976134146268
 20
25.2900021981625
 30
0.0
 10
68.55729637900363
 20
25.30745676293656
 30
0.0
 10
68.60660403380189
 20
25.32172343050915
 30
0.0
 10
68.65757289469143
 20
25.3322934591602
 30
0.0
 10
68.71017741491595
 20
25.33879871780463
 30
0.0
 10
68.76396651432489
 20
25.34173852340381
 30
0.0
 10
68.81890919276948
 20
25.33909404439704
 30
0.0
 10
68.87491651450355
 20
25.3331559979654
 30
0.0
 10
68.93194713646733
 20
25.3221771080759
 30
0.0
 10
68.9902661137006
 20
25.30795069175823
 30
0.0
 10
69.04933914408363
 20
25.28803966214622
 30
0.0
 10
69.10995817449664
 20
25.26478707116985
 30
0.0
 10
69.17202340793686
 20
25.23656047271853
 30
0.0
 10
69.23518763560922
 20
25.20183879297788
 30
0.0
 10
69.29967133725302
 20
25.16115689242594
 30
0.0
 10
69.36608212175824
 20
25.11530041702319
 30
0.0
 10
69.4335229392689
 20
25.06296167237199
 30
0.0
 10
69.502533751811
 20
25.00479909388784
 30
0.0
 10
69.57314072254442
 20
24.9408989150614
 30
0.0
 10
69.61954505074223
 20
24.8952785701832
 30
0.0
 10
69.6433276437723
 20
24.87189777493703
 30
0.0
  0
SPLINE
  5
97
330
1F
100
AcDbEntity
  8
0
  6
Continuous
 62
     7
370
    25
100
AcDbSpline
210
0.0
220
0.0
230
1.0
 70
     8
 71
     3
 72
    31
 73
    27
 74
     0
 42
0.000000001
 43
0.00000001
 40
0.0
 40
0.0
 40
0.0
 40
0.0
 40
0.0685392375563686
 40
0.1330574173017167
 40
0.193631077183116
 40
0.2505306821562903
 40
0.3036142074401767
 40
0.3534609049693048
 40
0.3995800908164909
 40
0.4424160216489258
 40
0.483072382412463
 40
0.5220229044503063
 40
0.5599473210514605
 40
0.5966633013156782
 40
0.6323728579706366
 40
0.6673061936474427
 40
0.7019513182513509
 40
0.7359417873892768
 40
0.7694887228848919
 40
0.8027329281118956
 40
0.835313484341018
 40
0.8678314089480393
 40
0.9002481012228695
 40
0.9330513656415885
 40
0.9661186419532685
 40
1.0
 40
1.0
 40
1.0
 40
1.0
 10
68.59224591300305
 20
23.8208160441678
 30
0.0
 10
68.56768987028084
 20
23.84562561364786
 30
0.0
 10
68.52001843797053
 20
23.89378922557408
 30
0.0
 10
68.45344783936653
 20
23.96657283438632
 30
0.0
 10
68.39334376668076
 20
24.03715099886938
 30
0.0
 10
68.33961591273967
 20
24.10542021000373
 30
0.0
 10
68.2915838512185
 20
24.17116952697577
 30
0.0
 10
68.25023889380958
 20
24.2348708218346
 30
0.0
 10
68.21502337319599
 20
24.29621773846634
 30
0.0
 10
68.18654082037561
 20
24.35583820632735
 30
0.0
 10
68.16373048199243
 20
24.41390715204589
 30
0.0
 10
68.1444832537683
 20
24.47061135371017
 30
0.0
 10
68.12942105055475
 20
24.52651039766567
 30
0.0
 10
68.11871384232285
 20
24.5817381764055
 30
0.0
 10
68.11264080066627
 20
24.63611865875067
 30
0.0
 10
68.11019945005748
 20
24.68973832361734
 30
0.0
 10
68.11254058326965
 20
24.74249111905642
 30
0.0
 10
68.11861365457375
 20
24.79422575968835
 30
0.0
 10
68.12889996237769
 20
24.84456391849742
 30
0.0
 10
68.14243153172741
 20
24.89336589070595
 30
0.0
 10
68.15960380009201
 20
24.94049405511799
 30
0.0
 10
68.18105792594243
 20
24.98532988769234
 30
0.0
 10
68.20513310594228
 20
25.02896305179617
 30
0.0
 10
68.23367246066368
 20
25.07014288814652
 30
0.0
 10
68.26481609937136
 20
25.11036158862027
 30
0.0
 10
68.28850874596169
 20
25.13491333484189
 30
0.0
 10
68.30049911813127
 20
25.14733848006523
 30
0.0
  0
SPLINE
  5
98
330
1F
100
AcDbEntity
  8
0
  6
Continuous
 62
     7
370
    25
100
AcDbSpline
210
0.0
220
0.0
230
1.0
 70
     8
 71
     3
 72
    31
 73
    27
 74
     0
 42
0.000000001
 43
0.00000001
 40
0.0
 40
0.0
 40
0.0
 40
0.0
 40
0.0339161406116254
 40
0.0667911467684396
 40
0.09962808698232
 40
0.1318265592299254
 40
0.1643778667025713
 40
0.1967210286892329
 40
0.2297213409237039
 40
0.2630197127526299
 40
0.2967583839686783
 40
0.3311505724363448
 40
0.3661197706371222
 40
0.4018997925665816
 40
0.438653465415743
 40
0.47654316710372
 40
0.5160815487196687
 40
0.5571548844457241
 40
0.6004200138433166
 40
0.6470895029678523
 40
0.6968308887516991
 40
0.7500347714651301
 40
0.8069927895101677
 40
0.8674089097323785
 40
0.9317987325696281
 40
1.0
 40
1.0
 40
1.0
 40
1.0
 10
69.91788693864409
 20
23.52995065955241
 30
0.0
 10
69.90544150272329
 20
23.51798642526522
 30
0.0
 10
69.88093267234952
 20
23.49442522656049
 30
0.0
 10
69.84110986450023
 20
23.46296131268213
 30
0.0
 10
69.80000252356608
 20
23.43474788285951
 30
0.0
 10
69.75669315934648
 20
23.41036619146544
 30
0.0
 10
69.712020929174
 20
23.38917579475537
 30
0.0
 10
69.66525171192599
 20
23.37186377040392
 30
0.0
 10
69.61687621261943
 20
23.35835660647154
 30
0.0
 10
69.5669816753257
 20
23.34806672742929
 30
0.0
 10
69.51568388407416
 20
23.34198055483668
 30
0.0
 10
69.46322920670197
 20
23.33968925372678
 30
0.0
 10
69.40971853648608
 20
23.34194824710643
 30
0.0
 10
69.3554005526533
 20
23.34873712841009
 30
0.0
 10
69.30020372346497
 20
23.35937612139204
 30
0.0
 10
69.24393692017088
 20
23.37398499937766
 30
0.0
 10
69.18669728110027
 20
23.39303038846796
 30
0.0
 10
69.12813764179148
 20
23.41644262613796
 30
0.0
 10
69.06811747019457
 20
23.44553215327249
 30
0.0
 10
69.00609319194736
 20
23.48029795530916
 30
0.0
 10
68.94212947367156
 20
23.52162791354023
 30
0.0
 10
68.87588843734157
 20
23.56889460120383
 30
0.0
 10
68.8077427741463
 20
23.62268312474996
 30
0.0
 10
68.73768817229958
 20
23.68305914414924
 30
0.0
 10
68.6647635177276
 20
23.74885078373591
 30
0.0
 10
68.61687729145754
 20
23.7963722753477
 30
0.0
 10
68.59224591300305
 20
23.8208160441678
 30
0.0
  0
SPLINE
  5
99
330
1F
100
AcDbEntity
  8
0
  6
Continuous
 62
     7
370
    25
100
AcDbSpline
210
0.0
220
0.0
230
1.0
 70
     8
 71
     3
 72
    31
 73
    27
 74
     0
 42
0.000000001
 43
0.00000001
 40
0.0
 40
0.0
 40
0.0
 40
0.0
 40
0.0650931380611511
 40
0.1266039765373227
 40
0.1850158110860341
 40
0.2401927525856704
 40
0.2926948785080097
 40
0.341782362046838
 40
0.3882382327930629
 40
0.4321173744957394
 40
0.473971017466326
 40
0.5141406009624557
 40
0.5528774178269757
 40
0.5905019610163778
 40
0.6271388923883595
 40
0.6630104030816907
 40
0.6983217028166657
 40
0.732998616177379
 40
0.767246077509988
 40
0.8006463810336941
 40
0.833939428530462
 40
0.8667836833964283
 40
0.8993980752684347
 40
0.9326416935233395
 40
0.9659149781349369
 40
1.0
 40
1.0
 40
1.0
 40
1.0
 10
69.6433276437723
 20
24.87189777493703
 30
0.0
 10
69.66670892144164
 20
24.84811584900984
 30
0.0
 10
69.71218472453907
 20
24.8018607984503
 30
0.0
 10
69.77580911063234
 20
24.73156067487281
 30
0.0
 10
69.83350257341944
 20
24.6628504626501
 30
0.0
 10
69.88593044183088
 20
24.59579340994916
 30
0.0
 10
69.93198513221147
 20
24.52995074461174
 30
0.0
 10
69.97243279130096
 20
24.46575869678136
 30
0.0
 10
70.00711136859277
 20
24.40324842995966
 30
0.0
 10
70.0353267922065
 20
24.34161469641296
 30
0.0
 10
70.05858653698252
 20
24.28143809403931
 30
0.0
 10
70.07848868104952
 20
24.22280508898138
 30
0.0
 10
70.09278225588749
 20
24.16479101742496
 30
0.0
 10
70.10369534436136
 20
24.1078919449799
 30
0.0
 10
70.10966562519032
 20
24.05174083101317
 30
0.0
 10
70.11228290885843
 20
23.99650261839284
 30
0.0
 10
70.1093477998134
 20
23.9422748522064
 30
0.0
 10
70.10284222115527
 20
23.88923049866635
 30
0.0
 10
70.09226980927914
 20
23.83782363115868
 30
0.0
 10
70.07801237747154
 20
23.78807151555942
 30
0.0
 10
70.060531286726
 20
23.74011317257043
 30
0.0
 10
70.03930827545987
 20
23.6941248001369
 30
0.0
 10
70.01439012700688
 20
23.65005157566718
 30
0.0
 10
69.98575275399925
 20
23.60806581825669
 30
0.0
 10
69.95398693067081
 20
23.56738144279525
 30
0.0
 10
69.93001655857745
 20
23.54252742616796
 30
0.0
 10
69.91788693864409
 20
23.52995065955241
 30
0.0
  0
LINE
  5
9A
330
1F
100
AcDbEntity
  8
0
  6
Continuous
 62
     7
370
    25
100
AcDbLine
 10
72.9848373156
 20
22.0951012536
 30
0.0
 11
72.82794629
 21
21.938210228
 31
0.0
  0
LINE
  5
9B
330
1F
100
AcDbEntity
  8
0
  6
Continuous
 62
     7
370
    25
100
AcDbLine
 10
71.5948533412
 20
23.485085228
 30
0.0
 11
72.9848373156
 21
22.0951012536
 31
0.0
  0
LINE
  5
9C
330
1F
100
AcDbEntity
  8
0
  6
Continuous
 62
     7
370
    25
100
AcDbLine
 10
71.9381626361
 20
23.8283945229
 30
0.0
 11
71.5948533412
 21
23.485085228
 31
0.0
  0
LINE
  5
9D
330
1F
100
AcDbEntity
  8
0
  6
Continuous
 62
     7
370
    25
100
AcDbLine
 10
71.7883228925
 20
23.9782342665
 30
0.0
 11
71.9381626361
 21
23.8283945229
 31
0.0
  0
LINE
  5
9E
330
1F
100
AcDbEntity
  8
0
  6
Continuous
 62
     7
370
    25
100
AcDbLine
 10
70.9434911617
 20
23.1334025357
 30
0.0
 11
71.7883228925
 21
23.9782342665
 31
0.0
  0
LINE
  5
9F
330
1F
100
AcDbEntity
  8
0
  6
Continuous
 62
     7
370
    25
100
AcDbLine
 10
71.0933309053
 20
22.9835627921
 30
0.0
 11
70.9434911617
 21
23.1334025357
 31
0.0
  0
LINE
  5
A0
330
1F
100
AcDbEntity
  8
0
  6
Continuous
 62
     7
370
    25
100
AcDbLine
 10
71.4379623156
 20
23.3281942024
 30
0.0
 11
71.0933309053
 21
22.9835627921
 31
0.0
  0
LINE
  5
A1
330
1F
100
AcDbEntity
  8
0
  6
Continuous
 62
     7
370
    25
100
AcDbLine
 10
72.82794629
 20
21.938210228
 30
0.0
 11
71.4379623156
 21
23.3281942024
 31
0.0
  0
LINE
  5
A2
330
1F
100
AcDbEntity
  8
0
  6
Continuous
 62
     7
370
    25
100
AcDbLine
 10
70.2849128953
 20
21.1037063368
 30
0.0
 11
71.0010587286
 21
20.3875605035
 31
0.0
  0
LINE
  5
A3
330
1F
100
AcDbEntity
  8
0
  6
Continuous
 62
     7
370
    25
100
AcDbLine
 10
70.3946484722
 20
21.2134419138
 30
0.0
 11
70.2849128953
 21
21.1037063368
 31
0.0
  0
SPLINE
  5
A4
330
1F
100
AcDbEntity
  8
0
  6
Continuous
 62
     7
370
    25
100
AcDbSpline
210
0.0
220
0.0
230
1.0
 70
     8
 71
     3
 72
    15
 73
    11
 74
     0
 42
0.000000001
 43
0.00000001
 40
0.0
 40
0.0
 40
0.0
 40
0.0
 40
0.0753901858551261
 40
0.1649443888154755
 40
0.268043486177892
 40
0.3855477860922087
 40
0.5179661541666719
 40
0.6643098712270735
 40
0.8251607063646664
 40
1.0
 40
1.0
 40
1.0
 40
1.0
 10
70.7613151388924
 20
21.63034896504938
 30
0.0
 10
70.75362253032927
 20
21.61868017939086
 30
0.0
 10
70.73679205560033
 20
21.59315032166691
 30
0.0
 10
70.70726709459116
 20
21.55314597693916
 30
0.0
 10
70.67065547462116
 20
21.50880532870846
 30
0.0
 10
70.62852111111548
 20
21.45872619313367
 30
0.0
 10
70.57895772006084
 20
21.40449438114212
 30
0.0
 10
70.52345966747103
 20
21.34482369442486
 30
0.0
 10
70.46126560823339
 20
21.28065862899442
 30
0.0
 10
70.41746261866345
 20
21.23646139608308
 30
0.0
 10
70.39464847222575
 20
21.21344191376733
 30
0.0
  0
SPLINE
  5
A5
330
1F
100
AcDbEntity
  8
0
  6
Continuous
 62
     7
370
    25
100
AcDbSpline
210
0.0
220
0.0
230
1.0
 70
     8
 71
     3
 72
    23
 73
    19
 74
     0
 42
0.000000001
 43
0.00000001
 40
0.0
 40
0.0
 40
0.0
 40
0.0
 40
0.069584411480941
 40
0.1366237229743221
 40
0.2019334138781219
 40
0.2643611311562473
 40
0.3254530953890704
 40
0.3856538430923492
 40
0.4452848548136248
 40
0.5049270901396902
 40
0.5646141987799761
 40
0.6236473059504294
 40
0.6836364314990077
 40
0.7438816365130284
 40
0.8048337486793985
 40
0.8682164437659134
 40
0.9329082916196967
 40
1.0
 40
1.0
 40
1.0
 40
1.0
 10
70.67934398504626
 20
22.32490024710066
 30
0.0
 10
70.69157854581648
 20
22.31214222954765
 30
0.0
 10
70.7156001794814
 20
22.28709282812614
 30
0.0
 10
70.74788058744427
 20
22.24717466592158
 30
0.0
 10
70.77612722908029
 20
22.20650296443991
 30
0.0
 10
70.79962771965822
 20
22.16463008717172
 30
0.0
 10
70.81912571044883
 20
22.12219560390261
 30
0.0
 10
70.83471970565876
 20
22.07891024302507
 30
0.0
 10
70.8458132273444
 20
22.03461956250119
 30
0.0
 10
70.85229232328672
 20
21.98957463586835
 30
0.0
 10
70.85497424129137
 20
21.94430752564329
 30
0.0
 10
70.85361078613943
 20
21.89888967615931
 30
0.0
 10
70.8483473979634
 20
21.85361439284179
 30
0.0
 10
70.8390228134187
 20
21.80850458556785
 30
0.0
 10
70.82569811362481
 20
21.76349881910673
 30
0.0
 10
70.80790124902484
 20
21.71887561925339
 30
0.0
 10
70.78681775190194
 20
21.67396489299327
 30
0.0
 10
70.76991859130409
 20
21.64506304788931
 30
0.0
 10
70.7613151388924
 20
21.63034896504938
 30
0.0
  0
SPLINE
  5
A6
330
1F
100
AcDbEntity
  8
0
  6
Continuous
 62
     7
370
    25
100
AcDbSpline
210
0.0
220
0.0
230
1.0
 70
     8
 71
     3
 72
    23
 73
    19
 74
     0
 42
0.000000001
 43
0.00000001
 40
0.0
 40
0.0
 40
0.0
 40
0.0
 40
0.0631120667195007
 40
0.1246204889042284
 40
0.1854063864272506
 40
0.2452855145665088
 40
0.3045096995741358
 40
0.3641375552122479
 40
0.4246759440160572
 40
0.4858777714932494
 40
0.5476102484119829
 40
0.6086002211440634
 40
0.670466741416682
 40
0.7330433104550824
 40
0.7964418486351541
 40
0.8616201805525383
 40
0.929333473009143
 40
1.0
 40
1.0
 40
1.0
 40
1.0
 10
69.99316610043087
 20
22.41260056761348
 30
0.0
 10
70.00686504419295
 20
22.42044636073882
 30
0.0
 10
70.03391484873652
 20
22.43593858949858
 30
0.0
 10
70.07606976905801
 20
22.45538679079514
 30
0.0
 10
70.11881650500958
 20
22.47123162755309
 30
0.0
 10
70.16207581133067
 20
22.4837239868261
 30
0.0
 10
70.20602769966061
 20
22.4922407177793
 30
0.0
 10
70.25073890239206
 20
22.49632289196418
 30
0.0
 10
70.29610198081214
 20
22.4979470637361
 30
0.0
 10
70.34195781321671
 20
22.49517047392731
 30
0.0
 10
70.38755629601317
 20
22.48872421958509
 30
0.0
 10
70.43246841741067
 20
22.47787339734268
 30
0.0
 10
70.47668722432252
 20
22.4636614402692
 30
0.0
 10
70.51941010020622
 20
22.44392153835529
 30
0.0
 10
70.56106698145142
 20
22.42040221188161
 30
0.0
 10
70.60179926817692
 20
22.39293143569448
 30
0.0
 10
70.64165336600038
 20
22.36114909566524
 30
0.0
 10
70.66660295802767
 20
22.33715389457702
 30
0.0
 10
70.67934398504626
 20
22.32490024710066
 30
0.0
  0
SPLINE
  5
A7
330
1F
100
AcDbEntity
  8
0
  6
Continuous
 62
     7
370
    25
100
AcDbSpline
210
0.0
220
0.0
230
1.0
 70
     8
 71
     3
 72
    15
 73
    11
 74
     0
 42
0.000000001
 43
0.00000001
 40
0.0
 40
0.0
 40
0.0
 40
0.0
 40
0.1771214341944268
 40
0.3388555841808581
 40
0.4858188358501851
 40
0.618678367083119
 40
0.7356853745542106
 40
0.8381870473681524
 40
0.9261641814985229
 40
1.0
 40
1.0
 40
1.0
 40
1.0
 10
69.61415969017446
 20
22.08030890094682
 30
0.0
 10
69.63521227618175
 20
22.1014195654241
 30
0.0
 10
69.67548852147334
 20
22.14180692213464
 30
0.0
 10
69.73482682968431
 20
22.19807767312157
 30
0.0
 10
69.7889921769729
 20
22.24896874957239
 30
0.0
 10
69.83849441967332
 20
22.29381451694423
 30
0.0
 10
69.88349877022289
 20
22.33247345033459
 30
0.0
 10
69.92416430132644
 20
22.36448023680333
 30
0.0
 10
69.95956948330198
 20
22.39148387580017
 30
0.0
 10
69.98263927394812
 20
22.40598407554955
 30
0.0
 10
69.99316610043087
 20
22.41260056761348
 30
0.0
  0
LINE
  5
A8
330
1F
100
AcDbEntity
  8
0
  6
Continuous
 62
     7
370
    25
100
AcDbLine
 10
69.3074289209
 20
21.7735781317
 30
0.0
 11
69.6141596902
 21
22.0803089009
 31
0.0
  0
LINE
  5
A9
330
1F
100
AcDbEntity
  8
0
  6
Continuous
 62
     7
370
    25
100
AcDbLine
 10
70.8472526389
 20
20.2337544138
 30
0.0
 11
69.3074289209
 21
21.7735781317
 31
0.0
  0
LINE
  5
AA
330
1F
100
AcDbEntity
  8
0
  6
Continuous
 62
     7
370
    25
100
AcDbLine
 10
71.0010587286
 20
20.3875605035
 30
0.0
 11
70.8472526389
 21
20.2337544138
 31
0.0
  0
ARC
  5
AB
330
1F
100
AcDbEntity
  8
0
  6
Continuous
 62
     7
370
    25
100
AcDbCircle
 10
69.8966890173
 20
22.9834763006
 30
0.0
 40
8.499999999999993
100
AcDbArc
 50
225.0
 51
315.0
  0
ARC
  5
AC
330
1F
100
AcDbEntity
  8
0
  6
Continuous
 62
     7
370
    25
100
AcDbCircle
 10
69.8966890173
 20
22.9834763006
 30
0.0
 40
8.500000000000004
100
AcDbArc
 50
135.0
 51
225.0
  0
ARC
  5
AD
330
1F
100
AcDbEntity
  8
0
  6
Continuous
 62
     7
370
    25
100
AcDbCircle
 10
69.8966890173
 20
22.9834763006
 30
0.0
 40
8.500000000000004
100
AcDbArc
 50
45.0
 51
135.0
  0
SPLINE
  5
AE
330
1F
100
AcDbEntity
  8
0
  6
Continuous
 62
     7
370
    25
100
AcDbSpline
210
0.0
220
0.0
230
1.0
 70
     8
 71
     3
 72
    19
 73
    15
 74
     0
 42
0.000000001
 43
0.00000001
 40
0.0
 40
0.0
 40
0.0
 40
0.0
 40
0.105728948417612
 40
0.206912970561797
 40
0.3055579932413628
 40
0.4022404034576857
 40
0.4942954987103592
 40
0.5780610980893169
 40
0.6557675958613732
 40
0.7279268856081798
 40
0.7976084712980804
 40
0.8651260054669646
 40
0.9319580036291377
 40
1.0
 40
1.0
 40
1.0
 40
1.0
 10
67.32941522938145
 20
22.98576631774166
 30
0.0
 10
67.34621617482635
 20
23.00353197669026
 30
0.0
 10
67.37909585047127
 20
23.03829960960496
 30
0.0
 10
67.42174692681093
 20
23.09478796810265
 30
0.0
 10
67.45723546977753
 20
23.15356963566971
 30
0.0
 10
67.48510094131186
 20
23.21398928650738
 30
0.0
 10
67.50598744846295
 20
23.27354509519889
 30
0.0
 10
67.51823288892105
 20
23.33102367728559
 30
0.0
 10
67.52215196022621
 20
23.38508774091378
 30
0.0
 10
67.51731387849911
 20
23.4358701676016
 30
0.0
 10
67.50456903182176
 20
23.48271999965592
 30
0.0
 10
67.48670883305915
 20
23.52651806199172
 30
0.0
 10
67.46169137896723
 20
23.566418591666
 30
0.0
 10
67.44055765787864
 20
23.58939793000825
 30
0.0
 10
67.42989599861222
 20
23.60099067671603
 30
0.0
  0
LINE
  5
AF
330
1F
100
AcDbEntity
  8
0
  6
Continuous
 62
     7
370
    25
100
AcDbLine
 10
67.4704408704
 20
22.8447406767
 30
0.0
 11
67.3294152294
 21
22.9857663177
 31
0.0
  0
SPLINE
  5
B0
330
1F
100
AcDbEntity
  8
0
  6
Continuous
 62
     7
370
    25
100
AcDbSpline
210
0.0
220
0.0
230
1.0
 70
     8
 71
     3
 72
    23
 73
    19
 74
     0
 42
0.000000001
 43
0.00000001
 40
0.0
 40
0.0
 40
0.0
 40
0.0
 40
0.0703488477789898
 40
0.1396280802335951
 40
0.2103430788637843
 40
0.282686193359841
 40
0.3554925770820697
 40
0.4270637206804203
 40
0.4988235429721526
 40
0.572388936532727
 40
0.6113453637448517
 40
0.6543900516773973
 40
0.7012892835300572
 40
0.7519446404334635
 40
0.8074317301970527
 40
0.8672605470112177
 40
0.9310927794988617
 40
0.9999999999999999
 40
0.9999999999999999
 40
0.9999999999999999
 40
0.9999999999999999
 10
68.25798093450966
 20
22.95976471517756
 30
0.0
 10
68.24248983082144
 20
22.97389071186874
 30
0.0
 10
68.21174315710932
 20
23.00192792728372
 30
0.0
 10
68.15876119709017
 20
23.03590133153464
 30
0.0
 10
68.10068593511772
 20
23.06136779275996
 30
0.0
 10
68.03866922254491
 20
23.07881078611114
 30
0.0
 10
67.97464820882823
 20
23.08826648349923
 30
0.0
 10
67.91011380946182
 20
23.08808577625529
 30
0.0
 10
67.84592595880888
 20
23.07941912606593
 30
0.0
 10
67.79317259390822
 20
23.06364314610429
 30
0.0
 10
67.7503114484199
 20
23.04606795566148
 30
0.0
 10
67.71600157672889
 20
23.02881060377312
 30
0.0
 10
67.67999868168943
 20
23.00745322809814
 30
0.0
 10
67.64174245702434
 20
22.98269745645419
 30
0.0
 10
67.60195012234864
 20
22.95339963155175
 30
0.0
 10
67.55968327936804
 20
22.92090013489521
 30
0.0
 10
67.51529870281989
 20
22.88461537594127
 30
0.0
 10
67.48576980440721
 20
22.85836676161183
 30
0.0
 10
67.4704408704071
 20
22.84474067671603
 30
0.0
  0
SPLINE
  5
B1
330
1F
100
AcDbEntity
  8
0
  6
Continuous
 62
     7
370
    25
100
AcDbSpline
210
0.0
220
0.0
230
1.0
 70
     8
 71
     3
 72
    23
 73
    19
 74
     0
 42
0.000000001
 43
0.00000001
 40
0.0
 40
0.0
 40
0.0
 40
0.0
 40
0.0730680158386375
 40
0.1430722448992376
 40
0.210415771715276
 40
0.2758231607745295
 40
0.3387396298077943
 40
0.4018415148770471
 40
0.4646985352648792
 40
0.5278596385078609
 40
0.590413588067563
 40
0.6511994053649361
 40
0.7101059465004965
 40
0.7678237372418049
 40
0.8250128290906082
 40
0.8820655679442742
 40
0.9403393445630303
 40
0.9999999999999999
 40
0.9999999999999999
 40
0.9999999999999999
 40
0.9999999999999999
 10
68.22316522938145
 20
22.25331439466474
 30
0.0
 10
68.2365158414942
 20
22.26717504283028
 30
0.0
 10
68.26265726635464
 20
22.29431515367141
 30
0.0
 10
68.29642842046056
 20
22.33832227965705
 30
0.0
 10
68.32594025882759
 20
22.38284766275003
 30
0.0
 10
68.34976255046394
 20
22.42862458101212
 30
0.0
 10
68.36813660409247
 20
22.47564336369155
 30
0.0
 10
68.38119702280692
 20
22.52367519855295
 30
0.0
 10
68.38998494716236
 20
22.5727855177932
 30
0.0
 10
68.39212864605206
 20
22.62246963276307
 30
0.0
 10
68.39059930873131
 20
22.67158270142087
 30
0.0
 10
68.38431944848034
 20
22.71920741556841
 30
0.0
 10
68.37433968092398
 20
22.76488968658217
 30
0.0
 10
68.35973030874888
 20
22.80834464446731
 30
0.0
 10
68.34062977167767
 20
22.84946970090548
 30
0.0
 10
68.3174750434224
 20
22.88859102022582
 30
0.0
 10
68.29024692208132
 20
22.92588991794807
 30
0.0
 10
68.26882025441441
 20
22.94838493753822
 30
0.0
 10
68.25798093450966
 20
22.95976471517756
 30
0.0
  0
SPLINE
  5
B2
330
1F
100
AcDbEntity
  8
0
  6
Continuous
 62
     7
370
    25
100
AcDbSpline
210
0.0
220
0.0
230
1.0
 70
     8
 71
     3
 72
    15
 73
    11
 74
     0
 42
0.000000001
 43
0.00000001
 40
0.0
 40
0.0
 40
0.0
 40
0.0
 40
0.1203457795138431
 40
0.2388232513984635
 40
0.3594485260350544
 40
0.4804570524015696
 40
0.6028834931914645
 40
0.7310108502422917
 40
0.8625425629612503
 40
1.0
 40
1.0
 40
1.0
 40
1.0
 10
67.89572131912504
 20
22.0951012536391
 30
0.0
 10
67.91059388559606
 20
22.09643980890831
 30
0.0
 10
67.94010812943239
 20
22.09909613905017
 30
0.0
 10
67.98389834044629
 20
22.10802612333748
 30
0.0
 10
68.02645020327111
 20
22.12182063592667
 30
0.0
 10
68.06804864932434
 20
22.1395088738414
 30
0.0
 10
68.10871100123175
 20
22.16134934986943
 30
0.0
 10
68.14805548948998
 20
22.18785454032139
 30
0.0
 10
68.18680599073814
 20
22.21836495231707
 30
0.0
 10
68.21086878522631
 20
22.24149473390954
 30
0.0
 10
68.22316522938145
 20
22.25331439466474
 30
0.0
  0
SPLINE
  5
B3
330
1F
100
AcDbEntity
  8
0
  6
Continuous
 62
     7
370
    25
100
AcDbSpline
210
0.0
220
0.0
230
1.0
 70
     8
 71
     3
 72
    15
 73
    11
 74
     0
 42
0.000000001
 43
0.00000001
 40
0.0
 40
0.0
 40
0.0
 40
0.0
 40
0.1516443853000929
 40
0.2942091114866416
 40
0.4291745983467757
 40
0.5565759117274358
 40
0.6762246047064507
 40
0.7899405813610041
 40
0.8970885352767682
 40
1.0
 40
1.0
 40
1.0
 40
1.0
 10
67.56475176784299
 20
22.19778554851089
 30
0.0
 10
67.58024492501916
 20
22.18911738394386
 30
0.0
 10
67.61030359153622
 20
22.17230005839342
 30
0.0
 10
67.65544320792071
 20
22.15020366162606
 30
0.0
 10
67.69900589919799
 20
22.13143989531169
 30
0.0
 10
67.74136102536735
 20
22.11698653844731
 30
0.0
 10
67.78210340927507
 20
22.10577130259903
 30
0.0
 10
67.82126567396497
 20
22.09813875552092
 30
0.0
 10
67.8590698326052
 20
22.09439491938991
 30
0.0
 10
67.88366953296041
 20
22.09486899595625
 30
0.0
 10
67.89572131912504
 20
22.0951012536391
 30
0.0
  0
LINE
  5
B4
330
1F
100
AcDbEntity
  8
0
  6
Continuous
 62
     7
370
    25
100
AcDbLine
 10
67.414030614
 20
22.0470643947
 30
0.0
 11
67.5647517678
 21
22.1977855485
 31
0.0
  0
SPLINE
  5
B5
330
1F
100
AcDbEntity
  8
0
  6
Continuous
 62
     7
370
    25
100
AcDbSpline
210
0.0
220
0.0
230
1.0
 70
     8
 71
     3
 72
    23
 73
    19
 74
     0
 42
0.000000001
 43
0.00000001
 40
0.0
 40
0.0
 40
0.0
 40
0.0
 40
0.0651136382987999
 40
0.1282185933053528
 40
0.1894734259769021
 40
0.2489956462554719
 40
0.3072701941117208
 40
0.3652120214271442
 40
0.4230586502763894
 40
0.4816341671326473
 40
0.5406263849922193
 40
0.6002014930275466
 40
0.6609241575761042
 40
0.7233279014169867
 40
0.7879045943012339
 40
0.8556533482834991
 40
0.9258587867477688
 40
1.0
 40
1.0
 40
1.0
 40
1.0
 10
68.37080144733017
 20
22.10127112543397
 30
0.0
 10
68.35429530245402
 20
22.08543108726903
 30
0.0
 10
68.32179220890542
 20
22.05423965849197
 30
0.0
 10
68.26962438733673
 20
22.01276169736406
 30
0.0
 10
68.21579677294369
 20
21.97694901542811
 30
0.0
 10
68.16051437762641
 20
21.94681125288808
 30
0.0
 10
68.10376884013083
 20
21.92227832866444
 30
0.0
 10
68.04537240207952
 20
21.90390263316591
 30
0.0
 10
67.98555135092765
 20
21.89045073791062
 30
0.0
 10
67.92429425116983
 20
21.88295072524163
 30
0.0
 10
67.86199277049445
 20
21.88165885688176
 30
0.0
 10
67.7991191144256
 20
21.88657141451652
 30
0.0
 10
67.7358297341484
 20
21.89770292104765
 30
0.0
 10
67.67215343489954
 20
21.91507026580746
 30
0.0
 10
67.60783749189892
 20
21.93858045405106
 30
0.0
 10
67.5433728349835
 20
21.9687789673504
 30
0.0
 10
67.47793273310133
 20
22.00452759620576
 30
0.0
 10
67.43571502489294
 20
22.03263004680718
 30
0.0
 10
67.41403061399684
 20
22.04706439466474
 30
0.0
  0
SPLINE
  5
B6
330
1F
100
AcDbEntity
  8
0
  6
Continuous
 62
     7
370
    25
100
AcDbSpline
210
0.0
220
0.0
230
1.0
 70
     8
 71
     3
 72
    19
 73
    15
 74
     0
 42
0.000000001
 43
0.00000001
 40
0.0
 40
0.0
 40
0.0
 40
0.0
 40
0.080576436103305
 40
0.1603714906653942
 40
0.2414880191094219
 40
0.3250087558576585
 40
0.4089616532479636
 40
0.4906870084144029
 40
0.5725768746389617
 40
0.6557926854219235
 40
0.7398417121155406
 40
0.8240764552485731
 40
0.9104351150664252
 40
1.0
 40
1.0
 40
1.0
 40
1.0
 10
68.39680304989427
 20
23.12414772799807
 30
0.0
 10
68.41758828882064
 20
23.10161948659554
 30
0.0
 10
68.45895720399808
 20
23.05678146904953
 30
0.0
 10
68.50944536565055
 20
22.97968461419368
 30
0.0
 10
68.54974482699755
 20
22.89577467988228
 30
0.0
 10
68.57938292472771
 20
22.80584991031975
 30
0.0
 10
68.59808976662319
 20
22.71278338975393
 30
0.0
 10
68.60354985908583
 20
22.61855820654225
 30
0.0
 10
68.59535260120371
 20
22.52484409262685
 30
0.0
 10
68.57456956480773
 20
22.43222701736606
 30
0.0
 10
68.5414737555498
 20
22.34229411515907
 30
0.0
 10
68.49639828687165
 20
22.25644033934239
 30
0.0
 10
68.43975096483898
 20
22.1750175296387
 30
0.0
 10
68.39406218079877
 20
22.12615013132775
 30
0.0
 10
68.37080144733017
 20
22.10127112543397
 30
0.0
  0
SPLINE
  5
B7
330
1F
100
AcDbEntity
  8
0
  6
Continuous
 62
     7
370
    25
100
AcDbSpline
210
0.0
220
0.0
230
1.0
 70
     8
 71
     3
 72
    15
 73
    11
 74
     0
 42
0.000000001
 43
0.00000001
 40
0.0
 40
0.0
 40
0.0
 40
0.0
 40
0.1308828194382186
 40
0.2582596653094882
 40
0.3832751894435334
 40
0.506195690264607
 40
0.6278103920359807
 40
0.7505216511654048
 40
0.8741562318766931
 40
0.9999999999999999
 40
0.9999999999999999
 40
0.9999999999999999
 40
0.9999999999999999
 10
68.02220369091991
 20
23.29778554851089
 30
0.0
 10
68.04046301857358
 20
23.29557664336603
 30
0.0
 10
68.07649255911103
 20
23.2912180032797
 30
0.0
 10
68.12920854352909
 20
23.27974965836257
 30
0.0
 10
68.17943819985982
 20
23.26359332411161
 30
0.0
 10
68.22782288035603
 20
23.24455857392793
 30
0.0
 10
68.27340024376456
 20
23.22021898237067
 30
0.0
 10
68.31724725260167
 20
23.19272643990389
 30
0.0
 10
68.35829489780912
 20
23.16017398154332
 30
0.0
 10
68.38389144478786
 20
23.13622716401492
 30
0.0
 10
68.39680304989427
 20
23.12414772799807
 30
0.0
  0
SPLINE
  5
B8
330
1F
100
AcDbEntity
  8
0
  6
Continuous
 62
     7
370
    25
100
AcDbSpline
210
0.0
220
0.0
230
1.0
 70
     8
 71
     3
 72
    11
 73
     7
 74
     0
 42
0.000000001
 43
0.00000001
 40
0.0
 40
0.0
 40
0.0
 40
0.0
 40
0.2579472690479113
 40
0.5087322070443625
 40
0.7541032680070248
 40
1.0
 40
1.0
 40
1.0
 40
1.0
 10
67.70842163963786
 20
23.24754516389551
 30
0.0
 10
67.7342222249937
 20
23.25742048887571
 30
0.0
 10
67.7851069999307
 20
23.27689693416236
 30
0.0
 10
67.86401151774443
 20
23.29503393191105
 30
0.0
 10
67.94337602974632
 20
23.302428002319
 30
0.0
 10
67.99590906656236
 20
23.29933413662278
 30
0.0
 10
68.02220369091991
 20
23.29778554851089
 30
0.0
  0
SPLINE
  5
B9
330
1F
100
AcDbEntity
  8
0
  6
Continuous
 62
     7
370
    25
100
AcDbSpline
210
0.0
220
0.0
230
1.0
 70
     8
 71
     3
 72
    15
 73
    11
 74
     0
 42
0.000000001
 43
0.00000001
 40
0.0
 40
0.0
 40
0.0
 40
0.0
 40
0.1242196178718098
 40
0.2437921031270653
 40
0.3610694411538692
 40
0.478541556218778
 40
0.5994738985980932
 40
0.7254247600032045
 40
0.8584023739957896
 40
1.0
 40
1.0
 40
1.0
 40
1.0
 10
67.5911940755353
 20
23.76052593312628
 30
0.0
 10
67.6068340739495
 20
23.74375486027288
 30
0.0
 10
67.63752896877872
 20
23.71084013075852
 30
0.0
 10
67.67427667300952
 20
23.65496488623605
 30
0.0
 10
67.7024428550181
 20
23.59582305056465
 30
0.0
 10
67.72162494858401
 20
23.53284792935855
 30
0.0
 10
67.73146549237664
 20
23.4662064413611
 30
0.0
 10
67.73330024654611
 20
23.39603625490684
 30
0.0
 10
67.7255116967
 20
23.32237963272696
 30
0.0
 10
67.71423631835906
 20
23.27300665837409
 30
0.0
 10
67.70842163963786
 20
23.24754516389551
 30
0.0
  0
SPLINE
  5
BA
330
1F
100
AcDbEntity
  8
0
  6
Continuous
 62
     7
370
    25
100
AcDbSpline
210
0.0
220
0.0
230
1.0
 70
     8
 71
     3
 72
    19
 73
    15
 74
     0
 42
0.000000001
 43
0.00000001
 40
0.0
 40
0.0
 40
0.0
 40
0.0
 40
0.0895929914958805
 40
0.177704549277758
 40
0.2648796628961915
 40
0.3531465390832667
 40
0.4405958711776066
 40
0.5246598301315001
 40
0.6068103143079137
 40
0.6891287180192626
 40
0.7700431083273499
 40
0.8475352562635291
 40
0.9237274558445449
 40
1.0
 40
1.0
 40
1.0
 40
1.0
 10
66.75032869091991
 20
23.71557401004936
 30
0.0
 10
66.77076733968191
 20
23.7345820860814
 30
0.0
 10
66.8113066810462
 20
23.77228393672298
 30
0.0
 10
66.87914633633261
 20
23.81971186253559
 30
0.0
 10
66.95230246342743
 20
23.85725523109026
 30
0.0
 10
67.02899470010422
 20
23.88631998887387
 30
0.0
 10
67.10772372465827
 20
23.90563362415173
 30
0.0
 10
67.18637962392374
 20
23.91488075458521
 30
0.0
 10
67.26399705931533
 20
23.91259676213927
 30
0.0
 10
67.33946803196943
 20
23.89962583198033
 30
0.0
 10
67.41148593720233
 20
23.87805408245173
 30
0.0
 10
67.4777961009044
 20
23.84705998344713
 30
0.0
 10
67.53884300954378
 20
23.80899180276156
 30
0.0
 10
67.57373759072155
 20
23.7766868975928
 30
0.0
 10
67.5911940755353
 20
23.76052593312628
 30
0.0
  0
SPLINE
  5
BB
330
1F
100
AcDbEntity
  8
0
  6
Continuous
 62
     7
370
    25
100
AcDbSpline
210
0.0
220
0.0
230
1.0
 70
     8
 71
     3
 72
    23
 73
    19
 74
     0
 42
0.000000001
 43
0.00000001
 40
0.0
 40
0.0
 40
0.0
 40
0.0
 40
0.073135065902582
 40
0.1433188428756371
 40
0.2106501399906878
 40
0.2762700695936491
 40
0.3395547839766538
 40
0.4016838389936605
 40
0.4628588934626658
 40
0.523484745512077
 40
0.5835961311287837
 40
0.6426304656932164
 40
0.7011635571821347
 40
0.7595409545756658
 40
0.8177915440987423
 40
0.87706243621205
 40
0.937556790890898
 40
1.0
 40
1.0
 40
1.0
 40
1.0
 10
66.69479984476607
 20
22.8685387536391
 30
0.0
 10
66.68298450837413
 20
22.88773459230851
 30
0.0
 10
66.65983063110637
 20
22.92535164169754
 30
0.0
 10
66.63184419316609
 20
22.98394631756825
 30
0.0
 10
66.60663571620273
 20
23.0412736729339
 30
0.0
 10
66.58871096549808
 20
23.09907067834278
 30
0.0
 10
66.57430927303534
 20
23.15619605218189
 30
0.0
 10
66.56694224400188
 20
23.21326763507214
 30
0.0
 10
66.56280290454859
 20
23.26982816315467
 30
0.0
 10
66.56533928728209
 20
23.32591078118061
 30
0.0
 10
66.57237811034389
 20
23.38086860463471
 30
0.0
 10
66.58369941263616
 20
23.43448916707834
 30
0.0
 10
66.60020591478641
 20
23.48618391668882
 30
0.0
 10
66.62087741281744
 20
23.53607628452943
 30
0.0
 10
66.64615327427525
 20
23.58409546180621
 30
0.0
 10
66.67639652491194
 20
23.62989056871134
 30
0.0
 10
66.71072049418596
 20
23.67440360981551
 30
0.0
 10
66.73698716217105
 20
23.70170627246939
 30
0.0
 10
66.75032869091991
 20
23.71557401004936
 30
0.0
  0
LINE
  5
BC
330
1F
100
AcDbEntity
  8
0
  6
Continuous
 62
     7
370
    25
100
AcDbLine
 10
66.8521315755
 20
23.0258704844
 30
0.0
 11
66.6947998448
 21
22.8685387536
 31
0.0
  0
SPLINE
  5
BD
330
1F
100
AcDbEntity
  8
0
  6
Continuous
 62
     7
370
    25
100
AcDbSpline
210
0.0
220
0.0
230
1.0
 70
     8
 71
     3
 72
    19
 73
    15
 74
     0
 42
0.000000001
 43
0.00000001
 40
0.0
 40
0.0
 40
0.0
 40
0.0
 40
0.1167675801713194
 40
0.22807756271994
 40
0.3372206510249979
 40
0.4461255525158013
 40
0.5021574110359225
 40
0.5618439075693564
 40
0.6241640260185538
 40
0.6909917051104404
 40
0.7609854225273328
 40
0.836248065124775
 40
0.9153845753823189
 40
1.0
 40
1.0
 40
1.0
 40
1.0
 10
66.90016843450967
 20
23.56573426645961
 30
0.0
 10
66.8847650447311
 20
23.54900263592915
 30
0.0
 10
66.8546782039045
 20
23.51632139421701
 30
0.0
 10
66.81977745573519
 20
23.46028642652747
 30
0.0
 10
66.79582297070883
 20
23.40061934198634
 30
0.0
 10
66.78430976404948
 20
23.34822202200456
 30
0.0
 10
66.78166588925349
 20
23.30457898046831
 30
0.0
 10
66.78187072258515
 20
23.269911502383
 30
0.0
 10
66.78617826406443
 20
23.23338446714615
 30
0.0
 10
66.79331061215655
 20
23.19531148362764
 30
0.0
 10
66.80298944989204
 20
23.15519213082968
 30
0.0
 10
66.81631916079291
 20
23.11361167573751
 30
0.0
 10
66.83276784494518
 20
23.07012119694894
 30
0.0
 10
66.84553461251484
 20
23.04094610802854
 30
0.0
 10
66.8521315755353
 20
23.02587048440833
 30
0.0
  0
SPLINE
  5
BE
330
1F
100
AcDbEntity
  8
0
  6
Continuous
 62
     7
370
    25
100
AcDbSpline
210
0.0
220
0.0
230
1.0
 70
     8
 71
     3
 72
    23
 73
    19
 74
     0
 42
0.000000001
 43
0.00000001
 40
0.0
 40
0.0
 40
0.0
 40
0.0
 40
0.0591437275897562
 40
0.1167150890705877
 40
0.1741558975962607
 40
0.2309492319425769
 40
0.2887375262637097
 40
0.347238368156069
 40
0.4086788038810792
 40
0.472066110098487
 40
0.5364760336796576
 40
0.6002438377181529
 40
0.6632439347766349
 40
0.7270901793882616
 40
0.7924599631338881
 40
0.8592686518663304
 40
0.9282156920095003
 40
1.0
 40
1.0
 40
1.0
 40
1.0
 10
67.42989599861222
 20
23.60099067671603
 30
0.0
 10
67.42136872103114
 20
23.60893665520794
 30
0.0
 10
67.40454086788486
 20
23.62461736430816
 30
0.0
 10
67.3769919969656
 20
23.64522272837303
 30
0.0
 10
67.34742627719977
 20
23.66186753826678
 30
0.0
 10
67.31620670352515
 20
23.67518032601256
 30
0.0
 10
67.28360685514136
 20
23.68540929897639
 30
0.0
 10
67.2491466534582
 20
23.69193626047898
 30
0.0
 10
67.21315743813336
 20
23.69550080054949
 30
0.0
 10
67.17582143741139
 20
23.69541265230525
 30
0.0
 10
67.13818862202208
 20
23.69195848726335
 30
0.0
 10
67.10114413551561
 20
23.68489829112938
 30
0.0
 10
67.06500869478917
 20
23.67437670532609
 30
0.0
 10
67.03018982825793
 20
23.65936587016428
 30
0.0
 10
66.99562147456278
 20
23.64206239160256
 30
0.0
 10
66.96243636328802
 20
23.62024087806053
 30
0.0
 10
66.93071835605932
 20
23.59436593640544
 30
0.0
 10
66.91048769765291
 20
23.57540557562882
 30
0.0
 10
66.90016843450967
 20
23.56573426645961
 30
0.0
  0
LINE
  5
BF
330
1F
100
AcDbEntity
  8
0
  6
Continuous
 62
     7
370
    25
100
AcDbLine
 10
71.6617937219
 20
25.1137481133
 30
0.0
 11
71.3039411578
 21
25.4716006774
 31
0.0
  0
LINE
  5
C0
330
1F
100
AcDbEntity
  8
0
  6
Continuous
 62
     7
370
    25
100
AcDbLine
 10
71.8155998116
 20
25.267554203
 30
0.0
 11
71.6617937219
 21
25.1137481133
 31
0.0
  0
LINE
  5
C1
330
1F
100
AcDbEntity
  8
0
  6
Continuous
 62
     7
370
    25
100
AcDbLine
 10
71.4577472475
 20
25.6254067671
 30
0.0
 11
71.8155998116
 21
25.267554203
 31
0.0
  0
LINE
  5
C2
330
1F
100
AcDbEntity
  8
0
  6
Continuous
 62
     7
370
    25
100
AcDbLine
 10
71.6441655167
 20
25.8118250364
 30
0.0
 11
71.4577472475
 21
25.6254067671
 31
0.0
  0
LINE
  5
C3
330
1F
100
AcDbEntity
  8
0
  6
Continuous
 62
     7
370
    25
100
AcDbLine
 10
71.4965292988
 20
25.9594612543
 30
0.0
 11
71.6441655167
 21
25.8118250364
 31
0.0
  0
LINE
  5
C4
330
1F
100
AcDbEntity
  8
0
  6
Continuous
 62
     7
370
    25
100
AcDbLine
 10
71.3101110296
 20
25.7730429851
 30
0.0
 11
71.4965292988
 21
25.9594612543
 31
0.0
  0
LINE
  5
C5
330
1F
100
AcDbEntity
  8
0
  6
Continuous
 62
     7
370
    25
100
AcDbLine
 10
70.2369940424
 20
26.8461599723
 30
0.0
 11
71.3101110296
 21
25.7730429851
 31
0.0
  0
LINE
  5
C6
330
1F
100
AcDbEntity
  8
0
  6
Continuous
 62
     7
370
    25
100
AcDbLine
 10
70.2057039783
 20
26.8148699082
 30
0.0
 11
70.2369940424
 21
26.8461599723
 31
0.0
  0
LINE
  5
C7
330
1F
100
AcDbEntity
  8
0
  6
Continuous
 62
     7
370
    25
100
AcDbLine
 10
70.5684042988
 20
24.7360638184
 30
0.0
 11
70.2057039783
 21
26.8148699082
 31
0.0
  0
LINE
  5
C8
330
1F
100
AcDbEntity
  8
0
  6
Continuous
 62
     7
370
    25
100
AcDbLine
 10
71.3039411578
 20
25.4716006774
 30
0.0
 11
70.5684042988
 21
24.7360638184
 31
0.0
  0
SPLINE
  5
C9
330
1F
100
AcDbEntity
  8
0
  6
Continuous
 62
     7
370
    25
100
AcDbSpline
210
0.0
220
0.0
230
1.0
 70
    24
 71
     3
 72
    12
 73
     8
 74
     0
 42
0.000000001
 43
0.00000001
 40
0.0
 40
0.0
 40
0.0
 40
0.0
 40
0.25
 40
0.25
 40
0.5
 40
0.5
 40
1.0
 40
1.0
 40
1.0
 40
1.0
 10
71.44250429751234
 20
12.50847630057805
 30
0.0
 10
71.18780445205792
 20
12.50847630057805
 30
0.0
 10
70.93104675619786
 20
12.50847630057805
 30
0.0
 10
70.41309923039327
 20
12.50847630057805
 30
0.0
 10
70.15087510358828
 20
12.50847630057805
 30
0.0
 10
69.37161179565466
 20
12.50847630057805
 30
0.0
 10
68.85840046523653
 20
12.50847630057805
 30
0.0
 10
68.35087373716974
 20
12.50847630057805
 30
0.0
  0
SPLINE
  5
CA
330
1F
100
AcDbEntity
  8
0
  6
Continuous
 62
     7
370
    25
100
AcDbSpline
210
0.0
220
0.0
230
1.0
 70
    24
 71
     3
 72
    16
 73
    12
 74
     0
 42
0.000000001
 43
0.00000001
 40
0.0
 40
0.0
 40
0.0
 40
0.0
 40
0.2500000000000002
 40
0.2500000000000002
 40
0.5000000000000004
 40
0.5000000000000004
 40
0.6250000000000003
 40
0.6250000000000003
 40
0.7500000000000002
 40
0.7500000000000002
 40
1.0
 40
1.0
 40
1.0
 40
1.0
 10
68.35087373716972
 20
12.50847630057805
 30
0.0
 10
68.01225352373156
 20
12.84709651401622
 30
0.0
 10
67.66789960575184
 20
13.19145043199594
 30
0.0
 10
66.96273755820584
 20
13.89661247954192
 30
0.0
 10
66.60196557096057
 20
14.2573844667872
 30
0.0
 10
66.04281283856372
 20
14.81653719918405
 30
0.0
 10
65.85340544905088
 20
15.00594458869688
 30
0.0
 10
65.46725558853622
 20
15.39209444921154
 30
0.0
 10
65.26994348535285
 20
15.58940655239492
 30
0.0
 10
64.6796234698892
 20
16.17972656785859
 30
0.0
 10
64.28405691774027
 20
16.57529312000749
 30
0.0
 10
63.88628137725539
 20
16.9730686604924
 30
0.0
  0
SPLINE
  5
CB
330
1F
100
AcDbEntity
  8
0
  6
Continuous
 62
     7
370
    25
100
AcDbSpline
210
0.0
220
0.0
230
1.0
 70
    24
 71
     3
 72
    16
 73
    12
 74
     0
 42
0.000000001
 43
0.00000001
 40
0.0
 40
0.0
 40
0.0
 40
0.0
 40
0.2500000000000005
 40
0.2500000000000005
 40
0.500000000000001
 40
0.500000000000001
 40
0.6250000000000008
 40
0.6250000000000008
 40
0.7500000000000006
 40
0.7500000000000006
 40
1.0
 40
1.0
 40
1.0
 40
1.0
 10
71.44250429751234
 20
12.50847630057805
 30
0.0
 10
71.7811245109505
 20
12.84709651401622
 30
0.0
 10
72.12547842893024
 20
13.19145043199594
 30
0.0
 10
72.8306404764762
 20
13.89661247954192
 30
0.0
 10
73.19141246372149
 20
14.2573844667872
 30
0.0
 10
73.75056519611833
 20
14.81653719918405
 30
0.0
 10
73.93997258563118
 20
15.00594458869689
 30
0.0
 10
74.32612244614583
 20
15.39209444921155
 30
0.0
 10
74.52343454932921
 20
15.58940655239492
 30
0.0
 10
75.11375456479288
 20
16.17972656785859
 30
0.0
 10
75.50932111694178
 20
16.57529312000749
 30
0.0
 10
75.90709665742668
 20
16.97306866049239
 30
0.0
  0
SPLINE
  5
CC
330
1F
100
AcDbEntity
  8
0
  6
Continuous
 62
     7
370
    25
100
AcDbSpline
210
0.0
220
0.0
230
1.0
 70
    24
 71
     3
 72
    16
 73
    12
 74
     0
 42
0.000000001
 43
0.00000001
 40
0.0
 40
0.0
 40
0.0
 40
0.0
 40
0.1250000000000002
 40
0.1250000000000002
 40
0.2500000000000004
 40
0.2500000000000004
 40
0.5000000000000003
 40
0.5000000000000003
 40
0.7500000000000002
 40
0.7500000000000002
 40
1.0
 40
1.0
 40
1.0
 40
1.0
 10
63.88628137725537
 20
28.9938839406637
 30
0.0
 10
64.08298756463091
 20
29.19059012803923
 30
0.0
 10
64.28023065995114
 20
29.38783322335948
 30
0.0
 10
64.67579268592145
 20
29.78339524932978
 30
0.0
 10
64.87467934126188
 20
29.98228190467022
 30
0.0
 10
65.46033324300821
 20
30.56793580641654
 30
0.0
 10
65.84027955899873
 20
30.94788212240704
 30
0.0
 10
66.58460016241219
 20
31.69220272582052
 30
0.0
 10
66.95031653595409
 20
32.05791909936241
 30
0.0
 10
67.66333711954069
 20
32.77093968294901
 30
0.0
 10
68.01035236419392
 20
33.11795492760225
 30
0.0
 10
68.35087373716972
 20
33.45847630057805
 30
0.0
  0
SPLINE
  5
CD
330
1F
100
AcDbEntity
  8
0
  6
Continuous
 62
     7
370
    25
100
AcDbSpline
210
0.0
220
0.0
230
1.0
 70
    24
 71
     3
 72
    12
 73
     8
 74
     0
 42
0.000000001
 43
0.00000001
 40
0.0
 40
0.0
 40
0.0
 40
0.0
 40
0.25
 40
0.25
 40
0.5
 40
0.5
 40
1.0
 40
1.0
 40
1.0
 40
1.0
 10
71.44250429751234
 20
33.45847630057805
 30
0.0
 10
71.18780445205792
 20
33.45847630057805
 30
0.0
 10
70.93104675619786
 20
33.45847630057805
 30
0.0
 10
70.41309923039327
 20
33.45847630057805
 30
0.0
 10
70.15087510358828
 20
33.45847630057805
 30
0.0
 10
69.37161179565464
 20
33.45847630057805
 30
0.0
 10
68.85840046523653
 20
33.45847630057805
 30
0.0
 10
68.35087373716972
 20
33.45847630057805
 30
0.0
  0
SPLINE
  5
CE
330
1F
100
AcDbEntity
  8
0
  6
Continuous
 62
     7
370
    25
100
AcDbSpline
210
0.0
220
0.0
230
1.0
 70
    24
 71
     3
 72
    16
 73
    12
 74
     0
 42
0.000000001
 43
0.00000001
 40
0.0
 40
0.0
 40
0.0
 40
0.0
 40
0.2500000000000003
 40
0.2500000000000003
 40
0.5000000000000007
 40
0.5000000000000007
 40
0.6250000000000003
 40
0.6250000000000003
 40
0.7500000000000003
 40
0.7500000000000003
 40
1.0
 40
1.0
 40
1.0
 40
1.0
 10
71.44250429751234
 20
33.45847630057805
 30
0.0
 10
71.7811245109505
 20
33.11985608713988
 30
0.0
 10
72.12547842893024
 20
32.77550216916016
 30
0.0
 10
72.8306404764762
 20
32.07034012161418
 30
0.0
 10
73.19141246372149
 20
31.7095681343689
 30
0.0
 10
73.75056519611833
 20
31.15041540197205
 30
0.0
 10
73.93997258563118
 20
30.96100801245921
 30
0.0
 10
74.32612244614583
 20
30.57485815194455
 30
0.0
 10
74.52343454932921
 20
30.37754604876119
 30
0.0
 10
75.11375456479288
 20
29.78722603329751
 30
0.0
 10
75.50932111694178
 20
29.39165948114861
 30
0.0
 10
75.90709665742669
 20
28.9938839406637
 30
0.0
  0
SPLINE
  5
CF
330
1F
100
AcDbEntity
  8
0
  6
Continuous
 62
     7
370
    25
100
AcDbSpline
210
0.0
220
0.0
230
1.0
 70
     8
 71
     3
 72
    15
 73
    11
 74
     0
 42
0.000000001
 43
0.00000001
 40
0.0
 40
0.0
 40
0.0
 40
0.0
 40
0.1099847056450847
 40
0.2240098420297771
 40
0.3417046373339414
 40
0.4641704618794936
 40
0.5906562692884738
 40
0.7222624860498262
 40
0.8584596182455
 40
1.0
 40
1.0
 40
1.0
 40
1.0
 10
69.84032283607998
 20
24.27121668519343
 30
0.0
 10
69.83096502562924
 20
24.28982739267316
 30
0.0
 10
69.81190563342994
 20
24.3277324960977
 30
0.0
 10
69.77921038395193
 20
24.38363387049081
 30
0.0
 10
69.74218564800911
 20
24.43956693667558
 30
0.0
 10
69.70259913749467
 20
24.49664865658624
 30
0.0
 10
69.65739804559287
 20
24.55281854537784
 30
0.0
 10
69.6097053139603
 20
24.61027141888672
 30
0.0
 10
69.55749172804536
 20
24.66760810033726
 30
0.0
 10
69.52064109125998
 20
24.70513640881272
 30
0.0
 10
69.50186129761845
 20
24.72426155698831
 30
0.0
  0
SPLINE
  5
D0
330
1F
100
AcDbEntity
  8
0
  6
Continuous
 62
     7
370
    25
100
AcDbSpline
210
0.0
220
0.0
230
1.0
 70
     8
 71
     3
 72
    19
 73
    15
 74
     0
 42
0.000000001
 43
0.00000001
 40
0.0
 40
0.0
 40
0.0
 40
0.0
 40
0.1116234689182526
 40
0.2221443256546966
 40
0.3354380430278007
 40
0.454814870975203
 40
0.516887026129048
 40
0.5794061580887492
 40
0.6435314246458348
 40
0.7096032329016748
 40
0.7780881323723869
 40
0.8493556809199184
 40
0.9228466968340716
 40
1.0
 40
1.0
 40
1.0
 40
1.0
 10
69.78391257966973
 20
23.67450194160369
 30
0.0
 10
69.80005798634804
 20
23.69217137804747
 30
0.0
 10
69.83218931602029
 20
23.72733571294533
 30
0.0
 10
69.86777674233869
 20
23.79023665046208
 30
0.0
 10
69.89413275226377
 20
23.85893486859582
 30
0.0
 10
69.90725643681911
 20
23.92092044691772
 30
0.0
 10
69.9117288145553
 20
23.97292374676693
 30
0.0
 10
69.91247726437103
 20
24.01333805207248
 30
0.0
 10
69.90853450985973
 20
24.05441774444361
 30
0.0
 10
69.90206092970504
 20
24.0964309223198
 30
0.0
 10
69.8918101548148
 20
24.13929076501831
 30
0.0
 10
69.87798677724811
 20
24.18276228769424
 30
0.0
 10
69.86139958724029
 20
24.22727508082172
 30
0.0
 10
69.8474613696432
 20
24.25633400165064
 30
0.0
 10
69.84032283607998
 20
24.27121668519343
 30
0.0
  0
SPLINE
  5
D1
330
1F
100
AcDbEntity
  8
0
  6
Continuous
 62
     7
370
    25
100
AcDbSpline
210
0.0
220
0.0
230
1.0
 70
     8
 71
     3
 72
    27
 73
    23
 74
     0
 42
0.000000001
 43
0.00000001
 40
0.0
 40
0.0
 40
0.0
 40
0.0
 40
0.0739414287635761
 40
0.1432995467909239
 40
0.2078367058012861
 40
0.268154271998974
 40
0.3240444974500776
 40
0.3756833250396091
 40
0.4227992035769721
 40
0.4659844474241323
 40
0.5062690802671608
 40
0.5452440815941553
 40
0.582932628734493
 40
0.6191703782421355
 40
0.6542106995986451
 40
0.6889160634209301
 40
0.7228008900413521
 40
0.7560829642487452
 40
0.8208193220025546
 40
0.8819250721784662
 40
0.941036732120393
 40
1.0
 40
1.0
 40
1.0
 40
1.0
 10
68.7412042463364
 20
23.96360450570626
 30
0.0
 10
68.76235604604416
 20
23.94258838347128
 30
0.0
 10
68.80334853648722
 20
23.9018588379116
 30
0.0
 10
68.86523677911045
 20
23.84533680878492
 30
0.0
 10
68.92378647690641
 20
23.79331818617119
 30
0.0
 10
68.98022882196486
 20
23.74719829432389
 30
0.0
 10
69.03381137179568
 20
23.70580795354658
 30
0.0
 10
69.08545099952153
 20
23.67082309626371
 30
0.0
 10
69.1338808120096
 20
23.64026320062757
 30
0.0
 10
69.1806325126206
 20
23.61591943714155
 30
0.0
 10
69.22577613705982
 20
23.59588522223366
 30
0.0
 10
69.2698163013421
 20
23.57895215510284
 30
0.0
 10
69.31341711111861
 20
23.56570325703394
 30
0.0
 10
69.35631236402698
 20
23.55606628143667
 30
0.0
 10
69.39852554657506
 20
23.54918167382499
 30
0.0
 10
69.44025681991849
 20
23.54611420858552
 30
0.0
 10
69.48137311439407
 20
23.54662326854847
 30
0.0
 10
69.53439770393652
 20
23.55123212668168
 30
0.0
 10
69.5975176558525
 20
23.56426506772407
 30
0.0
 10
69.6676506155916
 20
23.59033658746701
 30
0.0
 10
69.73074665719234
 20
23.62663088603817
 30
0.0
 10
69.76620545993387
 20
23.6585582981328
 30
0.0
 10
69.78391257966973
 20
23.67450194160369
 30
0.0
  0
SPLINE
  5
D2
330
1F
100
AcDbEntity
  8
0
  6
Continuous
 62
     7
370
    25
100
AcDbSpline
210
0.0
220
0.0
230
1.0
 70
     8
 71
     3
 72
    27
 73
    23
 74
     0
 42
0.000000001
 43
0.00000001
 40
0.0
 40
0.0
 40
0.0
 40
0.0
 40
0.0592049091423239
 40
0.1186381156964759
 40
0.1794099962647923
 40
0.2434403905684776
 40
0.2767263209819802
 40
0.31025072081163
 40
0.3445967272097259
 40
0.3795861309306516
 40
0.4161835169775522
 40
0.4535278654524001
 40
0.4925073825928413
 40
0.5331297869118883
 40
0.5763200343895352
 40
0.6237516935997309
 40
0.675396504288789
 40
0.7312932054248967
 40
0.7916177602785752
 40
0.8564364250289891
 40
0.9260500040603646
 40
0.9999999999999999
 40
0.9999999999999999
 40
0.9999999999999999
 40
0.9999999999999999
 10
68.45254238736203
 20
25.00587213391139
 30
0.0
 10
68.43640286927358
 20
24.98819970250766
 30
0.0
 10
68.40406159822017
 20
24.952786693825
 30
0.0
 10
68.36817585566835
 20
24.88933475900179
 30
0.0
 10
68.3419011166491
 20
24.81964371586074
 30
0.0
 10
68.3287741075244
 20
24.75695310186954
 30
0.0
 10
68.32425243820033
 20
24.70436184232143
 30
0.0
 10
68.32366756872887
 20
24.66353219137386
 30
0.0
 10
68.32695433529203
 20
24.62214627390572
 30
0.0
 10
68.33313090553747
 20
24.57985720255497
 30
0.0
 10
68.34276170406638
 20
24.53696077792561
 30
0.0
 10
68.35618550703477
 20
24.49341355111637
 30
0.0
 10
68.37314421623078
 20
24.44939791534684
 30
0.0
 10
68.39294162615614
 20
24.40399717318059
 30
0.0
 10
68.41756518112746
 20
24.35710081687056
 30
0.0
 10
68.44782681749695
 20
24.30834378301485
 30
0.0
 10
68.48299764465644
 20
24.25667235855007
 30
0.0
 10
68.52432740224576
 20
24.20304541586667
 30
0.0
 10
68.57064264849546
 20
24.14662586303647
 30
0.0
 10
68.62232244746667
 20
24.08749569377646
 30
0.0
 10
68.67950048012139
 20
24.02592216989601
 30
0.0
 10
68.72022627589548
 20
23.98479118842452
 30
0.0
 10
68.7412042463364
 20
23.96360450570626
 30
0.0
  0
SPLINE
  5
D3
330
1F
100
AcDbEntity
  8
0
  6
Continuous
 62
     7
370
    25
100
AcDbSpline
210
0.0
220
0.0
230
1.0
 70
     8
 71
     3
 72
    27
 73
    23
 74
     0
 42
0.000000001
 43
0.00000001
 40
0.0
 40
0.0
 40
0.0
 40
0.0
 40
0.0665682887066777
 40
0.1298384398761198
 40
0.1903854166577238
 40
0.2477638774268024
 40
0.3026463387477554
 40
0.354759433731939
 40
0.4043168527786024
 40
0.4513184057942146
 40
0.4962182809861095
 40
0.5384964490913654
 40
0.5791109571601268
 40
0.6178689498676122
 40
0.6548770745485871
 40
0.6907509929392045
 40
0.7250465884647679
 40
0.7587391546997321
 40
0.8228526037433925
 40
0.8832333648382241
 40
0.9417466416330511
 40
1.0
 40
1.0
 40
1.0
 40
1.0
 10
69.50186129761845
 20
24.72426155698831
 30
0.0
 10
69.48273165031262
 20
24.74303776656011
 30
0.0
 10
69.44542013743127
 20
24.77965991510793
 30
0.0
 10
69.38879355797535
 20
24.83135686267902
 30
0.0
 10
69.33341553483925
 20
24.87886195729512
 30
0.0
 10
69.2791705324525
 20
24.92248420393063
 30
0.0
 10
69.22530894858312
 20
24.9609765792878
 30
0.0
 10
69.17298454119967
 20
24.99616832253821
 30
0.0
 10
69.12130600475754
 20
25.02643715535962
 30
0.0
 10
69.0709839296646
 20
25.05316713306608
 30
0.0
 10
69.0217664775156
 20
25.07552590589033
 30
0.0
 10
68.97382233410052
 20
25.09428263988357
 30
0.0
 10
68.92714986566774
 20
25.10924004058435
 30
0.0
 10
68.88173100712211
 20
25.12091090404623
 30
0.0
 10
68.83737204691037
 20
25.128553787007
 30
0.0
 10
68.79430638752918
 20
25.13199018949026
 30
0.0
 10
68.75243685531791
 20
25.13210539556481
 30
0.0
 10
68.69939792111532
 20
25.12741858759907
 30
0.0
 10
68.63677255115597
 20
25.11430443825772
 30
0.0
 10
68.56754064994936
 20
25.08852989051369
 30
0.0
 10
68.50475577122768
 20
25.05349584762358
 30
0.0
 10
68.46992100165947
 20
25.02172313016449
 30
0.0
 10
68.45254238736203
 20
25.00587213391139
 30
0.0
  0
LINE
  5
D4
330
1F
100
AcDbEntity
  8
0
  6
Continuous
 62
     7
370
    25
100
AcDbLine
 10
70.1341917415
 20
21.2544274907
 30
0.0
 11
70.3981741133
 21
21.5113585804
 31
0.0
  0
LINE
  5
D5
330
1F
100
AcDbEntity
  8
0
  6
Continuous
 62
     7
370
    25
100
AcDbLine
 10
69.6110747543
 20
21.7775444779
 30
0.0
 11
70.1341917415
 21
21.2544274907
 31
0.0
  0
LINE
  5
D6
330
1F
100
AcDbEntity
  8
0
  6
Continuous
 62
     7
370
    25
100
AcDbLine
 10
69.8829898184
 20
22.049459542
 30
0.0
 11
69.6110747543
 21
21.7775444779
 31
0.0
  0
SPLINE
  5
D7
330
1F
100
AcDbEntity
  8
0
  6
Continuous
 62
     7
370
    25
100
AcDbSpline
210
0.0
220
0.0
230
1.0
 70
     8
 71
     3
 72
    23
 73
    19
 74
     0
 42
0.000000001
 43
0.00000001
 40
0.0
 40
0.0
 40
0.0
 40
0.0
 40
0.0726813284379042
 40
0.1434600890843442
 40
0.2141609783754211
 40
0.2866317423066647
 40
0.3582937434852109
 40
0.4274496270517902
 40
0.4958614884323621
 40
0.5652405595167557
 40
0.6025654069960296
 40
0.6444912751488167
 40
0.6912842453022058
 40
0.7427916792484177
 40
0.7995856524042378
 40
0.8612748596826224
 40
0.9283330396850042
 40
1.0
 40
1.0
 40
1.0
 40
1.0
 10
70.52024943376419
 20
22.16580569581862
 30
0.0
 10
70.50708697663853
 20
22.17800265238164
 30
0.0
 10
70.48110661397317
 20
22.20207728767926
 30
0.0
 10
70.43617200690035
 20
22.23025529401198
 30
0.0
 10
70.38812980909836
 20
22.25237354883064
 30
0.0
 10
70.3368782388041
 20
22.26640662208625
 30
0.0
 10
70.28476662143115
 20
22.27416702046823
 30
0.0
 10
70.23294198285305
 20
22.27397041641234
 30
0.0
 10
70.18258760219867
 20
22.26476719340687
 30
0.0
 10
70.14145837581323
 20
22.25095789028034
 30
0.0
 10
70.10886483109506
 20
22.23418064268773
 30
0.0
 10
70.08179182035113
 20
22.21891819510955
 30
0.0
 10
70.05331958844427
 20
22.19927350627416
 30
0.0
 10
70.02285393760562
 20
22.17619525430165
 30
0.0
 10
69.99031620907897
 20
22.14980001770934
 30
0.0
 10
69.95582478118854
 20
22.11976945219464
 30
0.0
 10
69.91996138035316
 20
22.08580354176316
 30
0.0
 10
69.89558363467202
 20
22.06183958848019
 30
0.0
 10
69.8829898183796
 20
22.04945954197246
 30
0.0
  0
SPLINE
  5
D8
330
1F
100
AcDbEntity
  8
0
  6
Continuous
 62
     7
370
    25
100
AcDbSpline
210
0.0
220
0.0
230
1.0
 70
     8
 71
     3
 72
    23
 73
    19
 74
     0
 42
0.000000001
 43
0.00000001
 40
0.0
 40
0.0
 40
0.0
 40
0.0
 40
0.0714340508655357
 40
0.1375891490131987
 40
0.1988671272749593
 40
0.2554435599219266
 40
0.3076933861665009
 40
0.3550325418254514
 40
0.3974487289008684
 40
0.4361373033546203
 40
0.5081119058244429
 40
0.5772270526050619
 40
0.6463348841943414
 40
0.7166178483288138
 40
0.7873525362986342
 40
0.856732945264368
 40
0.9275818981340936
 40
1.0
 40
1.0
 40
1.0
 40
1.0
 10
70.39817411325139
 20
21.511358580434
 30
0.0
 10
70.41091973544636
 20
21.52418035322269
 30
0.0
 10
70.43546908257427
 20
21.54887637403437
 30
0.0
 10
70.46914907220082
 20
21.58626960378853
 30
0.0
 10
70.50049491031379
 20
21.62072558739971
 30
0.0
 10
70.52713673126671
 20
21.65455110908762
 30
0.0
 10
70.55120814557912
 20
21.68591119959567
 30
0.0
 10
70.57089230238648
 20
21.71599524555281
 30
0.0
 10
70.58764990421088
 20
21.74387349150824
 30
0.0
 10
70.60445472801733
 20
21.77882219351842
 30
0.0
 10
70.61963324975186
 20
21.82188352735244
 30
0.0
 10
70.62966297128906
 20
21.87434159754468
 30
0.0
 10
70.6309172587072
 20
21.92731978560659
 30
0.0
 10
70.62380460492986
 20
21.98023304247668
 30
0.0
 10
70.60871298500751
 20
22.03146611936309
 30
0.0
 10
70.58704200337465
 20
22.08044279589176
 30
0.0
 10
70.55727894693806
 20
22.1256326985864
 30
0.0
 10
70.53268240365105
 20
22.15231727477165
 30
0.0
 10
70.52024943376419
 20
22.16580569581862
 30
0.0
  0
LINE
  5
D9
330
1F
100
AcDbEntity
  8
0
  6
Continuous
 62
     7
370
    25
100
AcDbLine
 10
71.1563049398
 20
25.6192368954
 30
0.0
 11
70.5146382731
 21
26.260903562
 31
0.0
  0
LINE
  5
DA
330
1F
100
AcDbEntity
  8
0
  6
Continuous
 62
     7
370
    25
100
AcDbLine
 10
70.703260068
 20
25.1661920236
 30
0.0
 11
71.1563049398
 21
25.6192368954
 31
0.0
  0
LINE
  5
DB
330
1F
100
AcDbEntity
  8
0
  6
Continuous
 62
     7
370
    25
100
AcDbLine
 10
70.5146382731
 20
26.260903562
 30
0.0
 11
70.703260068
 21
25.1661920236
 31
0.0
  0
SPLINE
  5
DC
330
1F
100
AcDbEntity
  8
0
  6
Continuous
 62
     7
370
    25
100
AcDbSpline
210
0.0
220
0.0
230
1.0
 70
    24
 71
     3
 72
    12
 73
     8
 74
     0
 42
0.000000001
 43
0.00000001
 40
0.0
 40
0.0
 40
0.0
 40
0.0
 40
0.25
 40
0.25
 40
0.5
 40
0.5
 40
1.0
 40
1.0
 40
1.0
 40
1.0
 10
59.42168901734103
 20
21.43766102040675
 30
0.0
 10
59.42168901734103
 20
21.69236086586117
 30
0.0
 10
59.42168901734103
 20
21.94911856172123
 30
0.0
 10
59.42168901734103
 20
22.46706608752582
 30
0.0
 10
59.42168901734103
 20
22.72929021433081
 30
0.0
 10
59.42168901734103
 20
23.50855352226444
 30
0.0
 10
59.42168901734103
 20
24.02176485268255
 30
0.0
 10
59.42168901734103
 20
24.52929158074936
 30
0.0
  0
SPLINE
  5
DD
330
1F
100
AcDbEntity
  8
0
  6
Continuous
 62
     7
370
    25
100
AcDbSpline
210
0.0
220
0.0
230
1.0
 70
    24
 71
     3
 72
    16
 73
    12
 74
     0
 42
0.000000001
 43
0.00000001
 40
0.0
 40
0.0
 40
0.0
 40
0.0
 40
0.2499999999999996
 40
0.2499999999999996
 40
0.4999999999999992
 40
0.4999999999999992
 40
0.6249999999999994
 40
0.6249999999999994
 40
0.7499999999999997
 40
0.7499999999999997
 40
1.0
 40
1.0
 40
1.0
 40
1.0
 10
59.42168901734103
 20
24.52929158074936
 30
0.0
 10
59.7603092307792
 20
24.86791179418753
 30
0.0
 10
60.10466314875892
 20
25.21226571216724
 30
0.0
 10
60.8098251963049
 20
25.91742775971323
 30
0.0
 10
61.17059718355019
 20
26.27819974695851
 30
0.0
 10
61.72974991594703
 20
26.83735247935536
 30
0.0
 10
61.91915730545987
 20
27.02675986886819
 30
0.0
 10
62.30530716597453
 20
27.41290972938285
 30
0.0
 10
62.5026192691579
 20
27.61022183256622
 30
0.0
 10
63.09293928462156
 20
28.2005418480299
 30
0.0
 10
63.48850583677046
 20
28.5961084001788
 30
0.0
 10
63.88628137725537
 20
28.9938839406637
 30
0.0
  0
SPLINE
  5
DE
330
1F
100
AcDbEntity
  8
0
  6
Continuous
 62
     7
370
    25
100
AcDbSpline
210
0.0
220
0.0
230
1.0
 70
    24
 71
     3
 72
    16
 73
    12
 74
     0
 42
0.000000001
 43
0.00000001
 40
0.0
 40
0.0
 40
0.0
 40
0.0
 40
0.1249999999999999
 40
0.1249999999999999
 40
0.2499999999999998
 40
0.2499999999999998
 40
0.4999999999999999
 40
0.4999999999999999
 40
0.7499999999999999
 40
0.7499999999999999
 40
1.0
 40
1.0
 40
1.0
 40
1.0
 10
63.88628137725539
 20
16.9730686604924
 30
0.0
 10
63.68957518987985
 20
17.16977484786793
 30
0.0
 10
63.49233209455961
 20
17.36701794318817
 30
0.0
 10
63.0967700685893
 20
17.76257996915848
 30
0.0
 10
62.89788341324887
 20
17.96146662449891
 30
0.0
 10
62.31222951150254
 20
18.54712052624523
 30
0.0
 10
61.93228319551203
 20
18.92706684223574
 30
0.0
 10
61.18796259209857
 20
19.67138744564921
 30
0.0
 10
60.82224621855667
 20
20.0371038191911
 30
0.0
 10
60.10922563497007
 20
20.7501244027777
 30
0.0
 10
59.76221039031683
 20
21.09713964743094
 30
0.0
 10
59.42168901734103
 20
21.43766102040675
 30
0.0
  0
CIRCLE
  5
DF
330
1F
100
AcDbEntity
  8
0
  6
Continuous
 62
     7
370
    25
100
AcDbCircle
 10
69.8966890173
 20
22.9834763006
 30
0.0
 40
13.41745454545455
  0
CIRCLE
  5
E0
330
1F
100
AcDbEntity
  8
0
  6
Continuous
 62
     7
370
    25
100
AcDbCircle
 10
69.8966890173
 20
22.9834763006
 30
0.0
 40
11.25
  0
INSERT
  5
EC
330
1F
100
AcDbEntity
  8
0
  6
Continuous
 62
     7
370
    18
100
AcDbBlockReference
  2
SW_CENTERMARKSYMBOL_0
 10
69.8966890173
 20
22.9834763006
 30
0.0
  0
ARC
  5
ED
330
1F
100
AcDbEntity
  8
0
  6
Continuous
 62
     7
370
    18
100
AcDbCircle
 10
69.8966890173
 20
22.9834763006
 30
0.0
 40
12.0585
100
AcDbArc
 50
75.0
 51
345.0
  0
ENDSEC
  0
SECTION
  2
OBJECTS
  0
DICTIONARY
  5
C
330
0
100
AcDbDictionary
281
     1
  3
ACAD_GROUP
350
D
  3
ACAD_LAYOUT
350
1A
  3
ACAD_MLINESTYLE
350
17
  3
ACAD_PLOTSETTINGS
350
19
  3
ACAD_PLOTSTYLENAME
350
E
  3
ACAD_SCALELIST
350
47
  0
DICTIONARY
  5
D
102
{ACAD_REACTORS
330
C
102
}
330
C
100
AcDbDictionary
281
     1
  0
DICTIONARY
  5
1A
102
{ACAD_REACTORS
330
C
102
}
330
C
100
AcDbDictionary
281
     1
  3
Layout1
350
1E
  3
Layout2
350
26
  3
Model
350
22
  0
DICTIONARY
  5
17
102
{ACAD_REACTORS
330
C
102
}
330
C
100
AcDbDictionary
281
     1
  3
Standard
350
18
  0
DICTIONARY
  5
19
102
{ACAD_REACTORS
330
C
102
}
330
C
100
AcDbDictionary
281
     1
  0
ACDBDICTIONARYWDFLT
  5
E
102
{ACAD_REACTORS
330
C
102
}
330
C
100
AcDbDictionary
281
     1
  3
Normal
350
F
100
AcDbDictionaryWithDefault
340
F
  0
DICTIONARY
  5
47
102
{ACAD_REACTORS
330
C
102
}
330
C
100
AcDbDictionary
281
     1
  3
A0
350
48
  3
A1
350
49
  3
A2
350
4A
  3
A3
350
4B
  3
A4
350
4C
  3
A5
350
4D
  3
A6
350
4E
  3
A7
350
4F
  3
A8
350
50
  3
A9
350
51
  3
B0
350
52
  3
B1
350
53
  3
B2
350
54
  3
B3
350
55
  3
B4
350
56
  3
B5
350
57
  3
B6
350
58
  3
B7
350
59
  3
B8
350
5A
  3
B9
350
5B
  3
C0
350
5C
  3
C1
350
5D
  3
C2
350
5E
  3
C3
350
5F
  3
C4
350
60
  3
C5
350
61
  3
C6
350
62
  3
C7
350
63
  3
C8
350
64
  3
C9
350
65
  3
D0
350
66
  3
D1
350
67
  3
D2
350
68
  0
LAYOUT
  5
1E
102
{ACAD_REACTORS
330
1A
102
}
330
1A
100
AcDbPlotSettings
  1

  2
none_device
  4

  6

 40
0.0
 41
0.0
 42
0.0
 43
0.0
 44
0.0
 45
0.0
 46
0.0
 47
0.0
 48
0.0
 49
0.0
140
0.0
141
0.0
142
1.0
143
1.0
 70
   688
 72
     1
 73
     0
 74
     5
  7

 75
    16
147
1.0
148
0.0
149
0.0
100
AcDbLayout
  1
Layout1
 70
     1
 71
     1
 10
0.0
 20
0.0
 11
420.0
 21
297.0
 12
0.0
 22
0.0
 32
0.0
 14
1.0000000000E+20
 24
1.0000000000E+20
 34
1.0000000000E+20
 15
-1.0000000000E+20
 25
-1.0000000000E+20
 35
-1.0000000000E+20
146
0.0
 13
0.0
 23
0.0
 33
0.0
 16
1.0
 26
0.0
 36
0.0
 17
0.0
 27
1.0
 37
0.0
 76
     0
330
1B
  0
LAYOUT
  5
26
102
{ACAD_REACTORS
330
1A
102
}
330
1A
100
AcDbPlotSettings
  1

  2
none_device
  4

  6

 40
0.0
 41
0.0
 42
0.0
 43
0.0
 44
0.0
 45
0.0
 46
0.0
 47
0.0
 48
0.0
 49
0.0
140
0.0
141
0.0
142
1.0
143
1.0
 70
   688
 72
     1
 73
     0
 74
     5
  7

 75
    16
147
1.0
148
0.0
149
0.0
100
AcDbLayout
  1
Layout2
 70
     1
 71
     2
 10
0.0
 20
0.0
 11
0.0
 21
0.0
 12
0.0
 22
0.0
 32
0.0
 14
0.0
 24
0.0
 34
0.0
 15
0.0
 25
0.0
 35
0.0
146
0.0
 13
0.0
 23
0.0
 33
0.0
 16
1.0
 26
0.0
 36
0.0
 17
0.0
 27
1.0
 37
0.0
 76
     0
330
23
  0
LAYOUT
  5
22
102
{ACAD_REACTORS
330
1A
102
}
330
1A
100
AcDbPlotSettings
  1

  2
none_device
  4
Letter_(8.50_x_11.00_Inches)
  6

 40
6.35
 41
6.35
 42
6.35000508
 43
6.35000508
 44
215.9
 45
279.4
 46
0.0
 47
0.0
 48
0.0
 49
0.0
140
0.0
141
0.0
142
1.0
143
1.0
 70
  1712
 72
     1
 73
     0
 74
     0
  7

 75
     0
147
1.0
148
0.0
149
0.0
100
AcDbLayout
  1
Model
 70
     1
 71
     0
 10
0.0
 20
0.0
 11
215.9
 21
139.7
 12
0.0
 22
0.0
 32
0.0
 14
0.0
 24
0.0
 34
0.0
 15
215.9
 25
139.7
 35
0.0
146
0.0
 13
0.0
 23
0.0
 33
0.0
 16
1.0
 26
0.0
 36
0.0
 17
0.0
 27
1.0
 37
0.0
 76
     0
330
1F
331
29
  0
MLINESTYLE
  5
18
102
{ACAD_REACTORS
330
17
102
}
330
17
100
AcDbMlineStyle
  2
Standard
 70
     0
  3

 62
   256
 51
90.0
 52
90.0
 71
     2
 49
0.5
 62
   256
  6
BYLAYER
 49
-0.5
 62
   256
  6
BYLAYER
  0
ACDBPLACEHOLDER
  5
F
102
{ACAD_REACTORS
330
E
102
}
330
E
  0
SCALE
  5
48
102
{ACAD_REACTORS
330
47
102
}
330
47
100
AcDbScale
 70
     0
300
1:1
140
1.0
141
1.0
290
     1
  0
SCALE
  5
49
102
{ACAD_REACTORS
330
47
102
}
330
47
100
AcDbScale
 70
     0
300
1:2
140
1.0
141
2.0
290
     0
  0
SCALE
  5
4A
102
{ACAD_REACTORS
330
47
102
}
330
47
100
AcDbScale
 70
     0
300
1:4
140
1.0
141
4.0
290
     0
  0
SCALE
  5
4B
102
{ACAD_REACTORS
330
47
102
}
330
47
100
AcDbScale
 70
     0
300
1:5
140
1.0
141
5.0
290
     0
  0
SCALE
  5
4C
102
{ACAD_REACTORS
330
47
102
}
330
47
100
AcDbScale
 70
     0
300
1:8
140
1.0
141
8.0
290
     0
  0
SCALE
  5
4D
102
{ACAD_REACTORS
330
47
102
}
330
47
100
AcDbScale
 70
     0
300
1:10
140
1.0
141
10.0
290
     0
  0
SCALE
  5
4E
102
{ACAD_REACTORS
330
47
102
}
330
47
100
AcDbScale
 70
     0
300
1:16
140
1.0
141
16.0
290
     0
  0
SCALE
  5
4F
102
{ACAD_REACTORS
330
47
102
}
330
47
100
AcDbScale
 70
     0
300
1:20
140
1.0
141
20.0
290
     0
  0
SCALE
  5
50
102
{ACAD_REACTORS
330
47
102
}
330
47
100
AcDbScale
 70
     0
300
1:30
140
1.0
141
30.0
290
     0
  0
SCALE
  5
51
102
{ACAD_REACTORS
330
47
102
}
330
47
100
AcDbScale
 70
     0
300
1:40
140
1.0
141
40.0
290
     0
  0
SCALE
  5
52
102
{ACAD_REACTORS
330
47
102
}
330
47
100
AcDbScale
 70
     0
300
1:50
140
1.0
141
50.0
290
     0
  0
SCALE
  5
53
102
{ACAD_REACTORS
330
47
102
}
330
47
100
AcDbScale
 70
     0
300
1:100
140
1.0
141
100.0
290
     0
  0
SCALE
  5
54
102
{ACAD_REACTORS
330
47
102
}
330
47
100
AcDbScale
 70
     0
300
2:1
140
2.0
141
1.0
290
     0
  0
SCALE
  5
55
102
{ACAD_REACTORS
330
47
102
}
330
47
100
AcDbScale
 70
     0
300
4:1
140
4.0
141
1.0
290
     0
  0
SCALE
  5
56
102
{ACAD_REACTORS
330
47
102
}
330
47
100
AcDbScale
 70
     0
300
8:1
140
8.0
141
1.0
290
     0
  0
SCALE
  5
57
102
{ACAD_REACTORS
330
47
102
}
330
47
100
AcDbScale
 70
     0
300
10:1
140
10.0
141
1.0
290
     0
  0
SCALE
  5
58
102
{ACAD_REACTORS
330
47
102
}
330
47
100
AcDbScale
 70
     0
300
100:1
140
100.0
141
1.0
290
     0
  0
SCALE
  5
59
102
{ACAD_REACTORS
330
47
102
}
330
47
100
AcDbScale
 70
     0
300
1/128" = 1'-0"
140
0.0078125
141
12.0
290
     0
  0
SCALE
  5
5A
102
{ACAD_REACTORS
330
47
102
}
330
47
100
AcDbScale
 70
     0
300
1/64" = 1'-0"
140
0.015625
141
12.0
290
     0
  0
SCALE
  5
5B
102
{ACAD_REACTORS
330
47
102
}
330
47
100
AcDbScale
 70
     0
300
1/32" = 1'-0"
140
0.03125
141
12.0
290
     0
  0
SCALE
  5
5C
102
{ACAD_REACTORS
330
47
102
}
330
47
100
AcDbScale
 70
     0
300
1/16" = 1'-0"
140
0.0625
141
12.0
290
     0
  0
SCALE
  5
5D
102
{ACAD_REACTORS
330
47
102
}
330
47
100
AcDbScale
 70
     0
300
3/32" = 1'-0"
140
0.09375
141
12.0
290
     0
  0
SCALE
  5
5E
102
{ACAD_REACTORS
330
47
102
}
330
47
100
AcDbScale
 70
     0
300
1/8" = 1'-0"
140
0.125
141
12.0
290
     0
  0
SCALE
  5
5F
102
{ACAD_REACTORS
330
47
102
}
330
47
100
AcDbScale
 70
     0
300
3/16" = 1'-0"
140
0.1875
141
12.0
290
     0
  0
SCALE
  5
60
102
{ACAD_REACTORS
330
47
102
}
330
47
100
AcDbScale
 70
     0
300
1/4" = 1'-0"
140
0.25
141
12.0
290
     0
  0
SCALE
  5
61
102
{ACAD_REACTORS
330
47
102
}
330
47
100
AcDbScale
 70
     0
300
3/8" = 1'-0"
140
0.375
141
12.0
290
     0
  0
SCALE
  5
62
102
{ACAD_REACTORS
330
47
102
}
330
47
100
AcDbScale
 70
     0
300
1/2" = 1'-0"
140
0.5
141
12.0
290
     0
  0
SCALE
  5
63
102
{ACAD_REACTORS
330
47
102
}
330
47
100
AcDbScale
 70
     0
300
3/4" = 1'-0"
140
0.75
141
12.0
290
     0
  0
SCALE
  5
64
102
{ACAD_REACTORS
330
47
102
}
330
47
100
AcDbScale
 70
     0
300
1" = 1'-0"
140
1.0
141
12.0
290
     0
  0
SCALE
  5
65
102
{ACAD_REACTORS
330
47
102
}
330
47
100
AcDbScale
 70
     0
300
1-1/2" = 1'-0"
140
1.5
141
12.0
290
     0
  0
SCALE
  5
66
102
{ACAD_REACTORS
330
47
102
}
330
47
100
AcDbScale
 70
     0
300
3" = 1'-0"
140
3.0
141
12.0
290
     0
  0
SCALE
  5
67
102
{ACAD_REACTORS
330
47
102
}
330
47
100
AcDbScale
 70
     0
300
6" = 1'-0"
140
6.0
141
12.0
290
     0
  0
SCALE
  5
68
102
{ACAD_REACTORS
330
47
102
}
330
47
100
AcDbScale
 70
     0
300
1'-0" = 1'-0"
140
12.0
141
12.0
290
     0
  0
ENDSEC
  0
EOF
