  0
SECTION
  2
HEADER
  9
$ACADVER
  1
AC1015
  9
$ACADMAINTVER
 70
     6
  9
$DWGCODEPAGE
  3
DOS932
  9
$INSBASE
 10
0.0
 20
0.0
 30
0.0
  9
$EXTMIN
 10
0.0
 20
0.0
 30
0.0
  9
$EXTMAX
 10
148.5
 20
105.0
 30
0.0
  9
$LIMMIN
 10
0.0
 20
0.0
  9
$LIMMAX
 10
148.5
 20
105.0
  9
$ORTHOMODE
 70
     0
  9
$REGENMODE
 70
     1
  9
$FILLMODE
 70
     1
  9
$QTEXTMODE
 70
     0
  9
$MIRRTEXT
 70
     1
  9
$LTSCALE
 40
0.5
  9
$ATTMODE
 70
     1
  9
$TEXTSIZE
 40
1.7638888889
  9
$TRACEWID
 40
1.0
  9
$TEXTSTYLE
  7
Standard
  9
$CLAYER
  8
0
  9
$CELTYPE
  6
ByLayer
  9
$CECOLOR
 62
   256
  9
$CELTSCALE
 40
1.0
  9
$DISPSILH
 70
     0
  9
$DIMSCALE
 40
1.0
  9
$DIMASZ
 40
1.3642578125
  9
$DIMEXO
 40
0.5
  9
$DIMDLI
 40
3.75
  9
$DIMRND
 40
0.0
  9
$DIMDLE
 40
0.0
  9
$DIMEXE
 40
0.5
  9
$DIMTP
 40
0.0
  9
$DIMTM
 40
0.0
  9
$DIMTXT
 40
1.7638888889
  9
$DIMCEN
 40
2.5
  9
$DIMTSZ
 40
0.0
  9
$DIMTOL
 70
     0
  9
$DIMLIM
 70
     0
  9
$DIMTIH
 70
     1
  9
$DIMTOH
 70
     1
  9
$DIMSE1
 70
     0
  9
$DIMSE2
 70
     0
  9
$DIMTAD
 70
     1
  9
$DIMZIN
 70
     0
  9
$DIMBLK
  1

  9
$DIMASO
 70
     1
  9
$DIMSHO
 70
     1
  9
$DIMPOST
  1

  9
$DIMAPOST
  1

  9
$DIMALT
 70
     0
  9
$DIMALTD
 70
     3
  9
$DIMALTF
 40
0.0393700787
  9
$DIMLFAC
 40
1.0
  9
$DIMTOFL
 70
     1
  9
$DIMTVP
 40
0.0
  9
$DIMTIX
 70
     0
  9
$DIMSOXD
 70
     0
  9
$DIMSAH
 70
     0
  9
$DIMBLK1
  1

  9
$DIMBLK2
  1

  9
$DIMSTYLE
  2
ISO-25
  9
$DIMCLRD
 70
     0
  9
$DIMCLRE
 70
     0
  9
$DIMCLRT
 70
     0
  9
$DIMTFAC
 40
1.0
  9
$DIMGAP
 40
0.762
  9
$DIMJUST
 70
     0
  9
$DIMSD1
 70
     0
  9
$DIMSD2
 70
     0
  9
$DIMTOLJ
 70
     0
  9
$DIMTZIN
 70
     0
  9
$DIMALTZ
 70
     0
  9
$DIMALTTZ
 70
     0
  9
$DIMUPT
 70
     0
  9
$DIMDEC
 70
     2
  9
$DIMTDEC
 70
     2
  9
$DIMALTU
 70
     2
  9
$DIMALTTD
 70
     3
  9
$DIMTXSTY
  7
Standard
  9
$DIMAUNIT
 70
     0
  9
$DIMADEC
 70
     2
  9
$DIMALTRND
 40
0.0
  9
$DIMAZIN
 70
     0
  9
$DIMDSEP
 70
    44
  9
$DIMATFIT
 70
     3
  9
$DIMFRAC
 70
     0
  9
$DIMLDRBLK
  1

  9
$DIMLUNIT
 70
     2
  9
$DIMLWD
 70
    -2
  9
$DIMLWE
 70
    -2
  9
$DIMTMOVE
 70
     0
  9
$LUNITS
 70
     2
  9
$LUPREC
 70
     2
  9
$SKETCHINC
 40
1.0
  9
$FILLETRAD
 40
0.0
  9
$AUNITS
 70
     0
  9
$AUPREC
 70
     2
  9
$MENU
  1
.
  9
$ELEVATION
 40
0.0
  9
$PELEVATION
 40
0.0
  9
$THICKNESS
 40
0.0
  9
$LIMCHECK
 70
     0
  9
$CHAMFERA
 40
0.0
  9
$CHAMFERB
 40
0.0
  9
$CHAMFERC
 40
0.0
  9
$CHAMFERD
 40
0.0
  9
$SKPOLY
 70
     0
  9
$TDCREATE
 40
2460398.677676169
  9
$TDUCREATE
 40
2460398.302676169
  9
$TDUPDATE
 40
2460398.677676771
  9
$TDUUPDATE
 40
2460398.302676771
  9
$TDINDWG
 40
0.0000000116
  9
$TDUSRTIMER
 40
0.0000000116
  9
$USRTIMER
 70
     1
  9
$ANGBASE
 50
0.0
  9
$ANGDIR
 70
     0
  9
$PDMODE
 70
     0
  9
$PDSIZE
 40
-1.0
  9
$PLINEWID
 40
0.0
  9
$SPLFRAME
 70
     0
  9
$SPLINETYPE
 70
     6
  9
$SPLINESEGS
 70
     8
  9
$HANDSEED
  5
10F
  9
$SURFTAB1
 70
     6
  9
$SURFTAB2
 70
     6
  9
$SURFTYPE
 70
     6
  9
$SURFU
 70
     6
  9
$SURFV
 70
     6
  9
$UCSBASE
  2

  9
$UCSNAME
  2

  9
$UCSORG
 10
0.0
 20
0.0
 30
0.0
  9
$UCSXDIR
 10
1.0
 20
0.0
 30
0.0
  9
$UCSYDIR
 10
0.0
 20
1.0
 30
0.0
  9
$UCSORTHOREF
  2

  9
$UCSORTHOVIEW
 70
     0
  9
$UCSORGTOP
 10
0.0
 20
0.0
 30
0.0
  9
$UCSORGBOTTOM
 10
0.0
 20
0.0
 30
0.0
  9
$UCSORGLEFT
 10
0.0
 20
0.0
 30
0.0
  9
$UCSORGRIGHT
 10
0.0
 20
0.0
 30
0.0
  9
$UCSORGFRONT
 10
0.0
 20
0.0
 30
0.0
  9
$UCSORGBACK
 10
0.0
 20
0.0
 30
0.0
  9
$PUCSBASE
  2

  9
$PUCSNAME
  2

  9
$PUCSORG
 10
0.0
 20
0.0
 30
0.0
  9
$PUCSXDIR
 10
1.0
 20
0.0
 30
0.0
  9
$PUCSYDIR
 10
0.0
 20
1.0
 30
0.0
  9
$PUCSORTHOREF
  2

  9
$PUCSORTHOVIEW
 70
     0
  9
$PUCSORGTOP
 10
0.0
 20
0.0
 30
0.0
  9
$PUCSORGBOTTOM
 10
0.0
 20
0.0
 30
0.0
  9
$PUCSORGLEFT
 10
0.0
 20
0.0
 30
0.0
  9
$PUCSORGRIGHT
 10
0.0
 20
0.0
 30
0.0
  9
$PUCSORGFRONT
 10
0.0
 20
0.0
 30
0.0
  9
$PUCSORGBACK
 10
0.0
 20
0.0
 30
0.0
  9
$USERI1
 70
     0
  9
$USERI2
 70
     0
  9
$USERI3
 70
     0
  9
$USERI4
 70
     0
  9
$USERI5
 70
     0
  9
$USERR1
 40
0.0
  9
$USERR2
 40
0.0
  9
$USERR3
 40
0.0
  9
$USERR4
 40
0.0
  9
$USERR5
 40
0.0
  9
$WORLDVIEW
 70
     1
  9
$SHADEDGE
 70
     3
  9
$SHADEDIF
 70
    70
  9
$TILEMODE
 70
     1
  9
$MAXACTVP
 70
    64
  9
$PINSBASE
 10
0.0
 20
0.0
 30
0.0
  9
$PLIMCHECK
 70
     0
  9
$PEXTMIN
 10
1.0000000000E+20
 20
1.0000000000E+20
 30
1.0000000000E+20
  9
$PEXTMAX
 10
-1.0000000000E+20
 20
-1.0000000000E+20
 30
-1.0000000000E+20
  9
$PLIMMIN
 10
0.0
 20
0.0
  9
$PLIMMAX
 10
420.0
 20
297.0
  9
$UNITMODE
 70
     0
  9
$VISRETAIN
 70
     1
  9
$PLINEGEN
 70
     0
  9
$PSLTSCALE
 70
     1
  9
$TREEDEPTH
 70
  3020
  9
$CMLSTYLE
  2
Standard
  9
$CMLJUST
 70
     0
  9
$CMLSCALE
 40
20.0
  9
$PROXYGRAPHICS
 70
     1
  9
$MEASUREMENT
 70
     1
  9
$CELWEIGHT
370
    -1
  9
$ENDCAPS
280
     0
  9
$JOINSTYLE
280
     0
  9
$LWDISPLAY
290
     1
  9
$INSUNITS
 70
     4
  9
$HYPERLINKBASE
  1

  9
$STYLESHEET
  1

  9
$XEDIT
290
     1
  9
$CEPSNTYPE
380
     0
  9
$PSTYLEMODE
290
     1
  9
$FINGERPRINTGUID
  2
{53490e83-1d49-41b0-b150-ca8e3c168240}
  9
$VERSIONGUID
  2
{FAEB1C32-E019-11D5-929B-00C0DF256EC4}
  9
$EXTNAMES
290
     1
  9
$PSVPSCALE
 40
0.0
  9
$OLESTARTUP
290
     0
  0
ENDSEC
  0
SECTION
  2
CLASSES
  0
CLASS
  1
ACDBDICTIONARYWDFLT
  2
AcDbDictionaryWithDefault
  3
ObjectDBX Classes
 90
        0
280
     0
281
     0
  0
CLASS
  1
VISUALSTYLE
  2
AcDbVisualStyle
  3
ObjectDBX Classes
 90
     4095
280
     0
281
     0
  0
CLASS
  1
MATERIAL
  2
AcDbMaterial
  3
ObjectDBX Classes
 90
     1153
280
     0
281
     0
  0
CLASS
  1
SCALE
  2
AcDbScale
  3
ObjectDBX Classes
 90
     1153
280
     0
281
     0
  0
CLASS
  1
TABLESTYLE
  2
AcDbTableStyle
  3
ObjectDBX Classes
 90
     4095
280
     0
281
     0
  0
CLASS
  1
MLEADERSTYLE
  2
AcDbMLeaderStyle
  3
ACDB_MLEADERSTYLE_CLASS
 90
     4095
280
     0
281
     0
  0
CLASS
  1
SUN
  2
AcDbSun
  3
SCENEOE
 90
     1153
280
     0
281
     0
  0
CLASS
  1
ACDBPLACEHOLDER
  2
AcDbPlaceHolder
  3
ObjectDBX Classes
 90
        0
280
     0
281
     0
  0
CLASS
  1
LAYOUT
  2
AcDbLayout
  3
ObjectDBX Classes
 90
        0
280
     0
281
     0
  0
ENDSEC
  0
SECTION
  2
TABLES
  0
TABLE
  2
VPORT
  5
8
330
0
100
AcDbSymbolTable
 70
     1
  0
VPORT
  5
29
330
8
100
AcDbSymbolTableRecord
100
AcDbViewportTableRecord
  2
*Active
 70
     0
 10
0.0
 20
0.0
 11
1.0
 21
1.0
 12
74.25
 22
52.5
 13
0.0
 23
0.0
 14
10.0
 24
10.0
 15
10.0
 25
10.0
 16
0.0
 26
0.0
 36
1.0
 17
0.0
 27
0.0
 37
0.0
 40
105.0
 41
1.4142857143
 42
50.0
 43
0.0
 44
0.0
 50
0.0
 51
0.0
 71
     0
 72
  2000
 73
     1
 74
     3
 75
     0
 76
     0
 77
     0
 78
     0
281
     0
 65
     1
110
0.0
120
0.0
130
0.0
111
1.0
121
0.0
131
0.0
112
0.0
122
1.0
132
0.0
 79
     0
146
0.0
  0
ENDTAB
  0
TABLE
  2
LTYPE
  5
5
330
0
100
AcDbSymbolTable
 70
     6
  0
LTYPE
  5
14
330
5
100
AcDbSymbolTableRecord
100
AcDbLinetypeTableRecord
  2
ByBlock
 70
     0
  3

 72
    65
 73
     0
 40
0.0
  0
LTYPE
  5
15
330
5
100
AcDbSymbolTableRecord
100
AcDbLinetypeTableRecord
  2
ByLayer
 70
     0
  3

 72
    65
 73
     0
 40
0.0
  0
LTYPE
  5
16
330
5
100
AcDbSymbolTableRecord
100
AcDbLinetypeTableRecord
  2
Continuous
 70
     0
  3
Solid line
 72
    65
 73
     0
 40
0.0
  0
LTYPE
  5
5E
330
5
100
AcDbSymbolTableRecord
100
AcDbLinetypeTableRecord
  2
HIDDEN
 70
     0
  3
Hidden __ __ __ __ __ __ __ __ __ __ __ __ __ __
 72
    65
 73
     2
 40
1.905
 49
1.27
 74
     0
 49
-0.635
 74
     0
  0
LTYPE
  5
5F
330
5
100
AcDbSymbolTableRecord
100
AcDbLinetypeTableRecord
  2
PHANTOM
 70
     0
  3
Phantom ______  __  __  ______  __  __  ______
 72
    65
 73
     6
 40
12.7
 49
6.35
 74
     0
 49
-1.27
 74
     0
 49
1.27
 74
     0
 49
-1.27
 74
     0
 49
1.27
 74
     0
 49
-1.27
 74
     0
  0
LTYPE
  5
60
330
5
100
AcDbSymbolTableRecord
100
AcDbLinetypeTableRecord
  2
CENTER
 70
     0
  3
Center ____ _ ____ _ ____ _ ____ _ ____ _ ____
 72
    65
 73
     4
 40
10.16
 49
6.35
 74
     0
 49
-1.27
 74
     0
 49
1.27
 74
     0
 49
-1.27
 74
     0
  0
LTYPE
  5
61
330
5
100
AcDbSymbolTableRecord
100
AcDbLinetypeTableRecord
  2
CENTERX2
 70
     0
  3
Center (2x) ________  __  ________  __  _____
 72
    65
 73
     4
 40
20.32
 49
12.7
 74
     0
 49
-2.54
 74
     0
 49
2.54
 74
     0
 49
-2.54
 74
     0
  0
LTYPE
  5
62
330
5
100
AcDbSymbolTableRecord
100
AcDbLinetypeTableRecord
  2
DOT2
 70
     0
  3
Dot (.5x) ........................................
 72
    65
 73
     2
 40
0.635
 49
0.0
 74
     0
 49
-0.635
 74
     0
  0
ENDTAB
  0
TABLE
  2
LAYER
  5
2
330
0
100
AcDbSymbolTable
 70
     2
  0
LAYER
  5
10
330
2
100
AcDbSymbolTableRecord
100
AcDbLayerTableRecord
  2
0
 70
     0
 62
     7
  6
Continuous
370
    -3
390
F
  0
LAYER
  5
63
330
2
100
AcDbSymbolTableRecord
100
AcDbLayerTableRecord
  2
FORMAT
 70
     0
 62
     7
  6
Continuous
370
    -3
390
F
  0
ENDTAB
  0
TABLE
  2
STYLE
  5
3
330
0
100
AcDbSymbolTable
 70
     2
  0
STYLE
  5
11
330
3
100
AcDbSymbolTableRecord
100
AcDbTextStyleTableRecord
  2
Standard
 70
     0
 40
0.0
 41
1.0
 50
0.0
 71
     0
 42
1.7638888889
  3
txt
  4
bigfont
  0
STYLE
  5
64
330
3
100
AcDbSymbolTableRecord
100
AcDbTextStyleTableRecord
  2
SLDTEXTSTYLE0
 70
     0
 40
0.0
 41
0.7
 50
0.0
 71
     0
 42
1.7638888889
  3
TXT
  4
bigfont
  0
ENDTAB
  0
TABLE
  2
VIEW
  5
6
330
0
100
AcDbSymbolTable
 70
     0
  0
ENDTAB
  0
TABLE
  2
UCS
  5
7
330
0
100
AcDbSymbolTable
 70
     0
  0
ENDTAB
  0
TABLE
  2
APPID
  5
9
330
0
100
AcDbSymbolTable
 70
     1
  0
APPID
  5
12
330
9
100
AcDbSymbolTableRecord
100
AcDbRegAppTableRecord
  2
ACAD
 70
     0
  0
ENDTAB
  0
TABLE
  2
DIMSTYLE
  5
A
330
0
100
AcDbSymbolTable
 70
     1
100
AcDbDimStyleTable
  0
DIMSTYLE
105
27
330
A
100
AcDbSymbolTableRecord
100
AcDbDimStyleTableRecord
  2
ISO-25
 70
     0
 41
2.5
 42
0.625
 43
3.75
 44
1.25
 73
     0
 74
     0
 77
     1
 78
     8
140
2.5
141
2.5
143
0.0393700787
147
0.625
171
     3
172
     1
178
     0
271
     2
272
     2
274
     3
278
    44
283
     0
284
     8
340
11
  0
ENDTAB
  0
TABLE
  2
BLOCK_RECORD
  5
1
330
0
100
AcDbSymbolTable
 70
     2
  0
BLOCK_RECORD
  5
1F
330
1
100
AcDbSymbolTableRecord
100
AcDbBlockTableRecord
  2
*Model_Space
340
22
  0
BLOCK_RECORD
  5
1B
330
1
100
AcDbSymbolTableRecord
100
AcDbBlockTableRecord
  2
*Paper_Space
340
1E
  0
BLOCK_RECORD
  5
23
330
1
100
AcDbSymbolTableRecord
100
AcDbBlockTableRecord
  2
*Paper_Space0
340
26
  0
BLOCK_RECORD
  5
E5
330
1
100
AcDbSymbolTableRecord
100
AcDbBlockTableRecord
  2
SW_CENTERMARKSYMBOL_0
340
0
102
{BLKREFS
331
F0
102
}
  0
ENDTAB
  0
ENDSEC
  0
SECTION
  2
BLOCKS
  0
BLOCK
  5
20
330
1F
100
AcDbEntity
  8
0
100
AcDbBlockBegin
  2
*Model_Space
 70
     0
 10
0.0
 20
0.0
 30
0.0
  3
*Model_Space
  1

  0
ENDBLK
  5
21
330
1F
100
AcDbEntity
  8
0
100
AcDbBlockEnd
  0
BLOCK
  5
1C
330
1B
100
AcDbEntity
 67
     1
  8
0
100
AcDbBlockBegin
  2
*Paper_Space
 70
     0
 10
0.0
 20
0.0
 30
0.0
  3
*Paper_Space
  1

  0
ENDBLK
  5
1D
330
1B
100
AcDbEntity
 67
     1
  8
0
100
AcDbBlockEnd
  0
BLOCK
  5
24
330
23
100
AcDbEntity
  8
0
100
AcDbBlockBegin
  2
*Paper_Space0
 70
     0
 10
0.0
 20
0.0
 30
0.0
  3
*Paper_Space0
  1

  0
ENDBLK
  5
25
330
23
100
AcDbEntity
  8
0
100
AcDbBlockEnd
  0
BLOCK
  5
E6
330
E5
100
AcDbEntity
  8
0
100
AcDbBlockBegin
  2
SW_CENTERMARKSYMBOL_0
 70
     0
 10
0.0
 20
0.0
 30
0.0
  3
SW_CENTERMARKSYMBOL_0
  1

  0
LINE
  5
E8
330
E5
100
AcDbEntity
  8
FORMAT
 62
     0
100
AcDbLine
 10
0.0
 20
0.0
 30
0.0
 11
0.0
 21
2.5
 31
0.0
  0
LINE
  5
E9
330
E5
100
AcDbEntity
  8
FORMAT
 62
     0
100
AcDbLine
 10
0.0
 20
0.0
 30
0.0
 11
-2.5
 21
0.0
 31
0.0
  0
LINE
  5
EA
330
E5
100
AcDbEntity
  8
FORMAT
 62
     0
100
AcDbLine
 10
0.0
 20
0.0
 30
0.0
 11
0.0
 21
-2.5
 31
0.0
  0
LINE
  5
EB
330
E5
100
AcDbEntity
  8
FORMAT
 62
     0
100
AcDbLine
 10
0.0
 20
0.0
 30
0.0
 11
2.5
 21
0.0
 31
0.0
  0
LINE
  5
EC
330
E5
100
AcDbEntity
  8
FORMAT
 62
     0
100
AcDbLine
 10
0.0
 20
5.0
 30
0.0
 11
0.0
 21
10.75
 31
0.0
  0
LINE
  5
ED
330
E5
100
AcDbEntity
  8
FORMAT
 62
     0
100
AcDbLine
 10
-5.0
 20
0.0
 30
0.0
 11
-10.75
 21
0.0
 31
0.0
  0
LINE
  5
EE
330
E5
100
AcDbEntity
  8
FORMAT
 62
     0
100
AcDbLine
 10
0.0
 20
-5.0
 30
0.0
 11
0.0
 21
-10.75
 31
0.0
  0
LINE
  5
EF
330
E5
100
AcDbEntity
  8
FORMAT
 62
     0
100
AcDbLine
 10
5.0
 20
0.0
 30
0.0
 11
10.75
 21
0.0
 31
0.0
  0
ENDBLK
  5
E7
330
E5
100
AcDbEntity
  8
0
100
AcDbBlockEnd
  0
ENDSEC
  0
SECTION
  2
ENTITIES
  0
MTEXT
  5
65
330
1F
100
AcDbEntity
  8
FORMAT
100
AcDbMText
 10
92.4746277803
 20
53.010464145
 30
0.0
 40
2.1166666667
 41
0.0
 71
     1
 72
     1
  1
5NB-7421
  7
SLDTEXTSTYLE0
 73
     1
 44
1.0
  0
LINE
  5
66
330
1F
100
AcDbEntity
  8
0
  6
Continuous
 62
     7
370
    25
100
AcDbLine
 10
80.0943179389
 20
45.2570446455
 30
0.0
 11
79.1907909931
 21
43.6920900693
 31
0.0
  0
LINE
  5
67
330
1F
100
AcDbEntity
  8
0
  6
Continuous
 62
     7
370
    25
100
AcDbLine
 10
79.1907909931
 20
27.1920900693
 30
0.0
 11
80.0943179389
 21
25.6271354931
 31
0.0
  0
LINE
  5
68
330
1F
100
AcDbEntity
  8
0
  6
Continuous
 62
     7
370
    25
100
AcDbLine
 10
83.2872640472
 20
25.6271354931
 30
0.0
 11
84.1907909931
 21
27.1920900693
 31
0.0
  0
LINE
  5
69
330
1F
100
AcDbEntity
  8
0
  6
Continuous
 62
     7
370
    25
100
AcDbLine
 10
84.1907909931
 20
43.6920900693
 30
0.0
 11
83.2872640472
 21
45.2570446455
 31
0.0
  0
LINE
  5
6A
330
1F
100
AcDbEntity
  8
0
  6
Continuous
 62
     7
370
    25
100
AcDbLine
 10
79.1907909931
 20
42.4755275693
 30
0.0
 11
67.1920813157
 21
42.1005678919
 31
0.0
  0
LINE
  5
6B
330
1F
100
AcDbEntity
  8
0
  6
Continuous
 62
     7
370
    25
100
AcDbLine
 10
67.1920813157
 20
28.7836122467
 30
0.0
 11
79.1907909931
 21
28.4086525693
 31
0.0
  0
LINE
  5
6C
330
1F
100
AcDbEntity
  8
0
  6
Continuous
 62
     7
370
    25
100
AcDbLine
 10
67.1920813157
 20
42.1005678919
 30
0.0
 11
66.1907909931
 21
41.0992775693
 31
0.0
  0
LINE
  5
6D
330
1F
100
AcDbEntity
  8
0
  6
Continuous
 62
     7
370
    25
100
AcDbLine
 10
66.1907909931
 20
29.7849025693
 30
0.0
 11
67.1920813157
 21
28.7836122467
 31
0.0
  0
SPLINE
  5
6E
330
1F
100
AcDbEntity
  8
0
  6
Continuous
 62
     7
370
    25
100
AcDbSpline
210
0.0
220
0.0
230
1.0
 70
     8
 71
     3
 72
    16
 73
    12
 74
     0
 42
0.00000001
 43
0.00000001
 40
0.0
 40
0.0
 40
0.0
 40
0.0
 40
0.2500000000000001
 40
0.2500000000000001
 40
0.5
 40
0.5
 40
0.625
 40
0.625
 40
0.75
 40
0.75
 40
1.0
 40
1.0
 40
1.0
 40
1.0
 10
80.09431793892342
 20
25.62713549306039
 30
0.0
 10
79.86300318524079
 20
26.02778439897898
 30
0.0
 10
79.67235789191035
 20
26.43135438866383
 30
0.0
 10
79.40825223550304
 20
27.24691117500491
 30
0.0
 10
79.33566304418909
 20
27.65896054356823
 30
0.0
 10
79.33486579809814
 20
28.28479791161783
 30
0.0
 10
79.35261105472158
 20
28.49439189508095
 30
0.0
 10
79.42180813825136
 20
28.90899091245718
 30
0.0
 10
79.47318974431366
 20
29.11490042447936
 30
0.0
 10
79.67159774305027
 20
29.72896302253252
 30
0.0
 10
79.86271484475422
 20
30.1334644548807
 30
0.0
 10
80.09431793892362
 20
30.53461278117225
 30
0.0
  0
LINE
  5
6F
330
1F
100
AcDbEntity
  8
0
  6
Continuous
 62
     7
370
    25
100
AcDbLine
 10
80.0943179389
 20
30.5346127812
 30
0.0
 11
83.2872640472
 21
30.5346127812
 31
0.0
  0
SPLINE
  5
70
330
1F
100
AcDbEntity
  8
0
  6
Continuous
 62
     7
370
    25
100
AcDbSpline
210
0.0
220
0.0
230
1.0
 70
     8
 71
     3
 72
    16
 73
    12
 74
     0
 42
0.00000001
 43
0.00000001
 40
0.0
 40
0.0
 40
0.0
 40
0.0
 40
0.2500000000000001
 40
0.2500000000000001
 40
0.5
 40
0.5
 40
0.625
 40
0.625
 40
0.75
 40
0.75
 40
1.0
 40
1.0
 40
1.0
 40
1.0
 10
83.28726404721972
 20
25.62713549306039
 30
0.0
 10
83.51857880090236
 20
26.02778439897898
 30
0.0
 10
83.7092240942328
 20
26.43135438866383
 30
0.0
 10
83.9733297506401
 20
27.24691117500491
 30
0.0
 10
84.04591894195407
 20
27.65896054356823
 30
0.0
 10
84.04671618804501
 20
28.28479791161783
 30
0.0
 10
84.02897093142157
 20
28.49439189508095
 30
0.0
 10
83.95977384789178
 20
28.90899091245718
 30
0.0
 10
83.9083922418295
 20
29.11490042447936
 30
0.0
 10
83.70998424309289
 20
29.72896302253252
 30
0.0
 10
83.51886714138892
 20
30.1334644548807
 30
0.0
 10
83.28726404721954
 20
30.53461278117225
 30
0.0
  0
LINE
  5
71
330
1F
100
AcDbEntity
  8
0
  6
Continuous
 62
     7
370
    25
100
AcDbLine
 10
80.0943179389
 20
25.6271354931
 30
0.0
 11
83.2872640472
 21
25.6271354931
 31
0.0
  0
SPLINE
  5
72
330
1F
100
AcDbEntity
  8
0
  6
Continuous
 62
     7
370
    25
100
AcDbSpline
210
0.0
220
0.0
230
1.0
 70
     8
 71
     3
 72
    14
 73
    10
 74
     0
 42
0.00000001
 43
0.00000001
 40
0.0
 40
0.0
 40
0.0
 40
0.0
 40
0.2500000000000001
 40
0.2500000000000001
 40
0.5000000000000001
 40
0.5000000000000001
 40
0.7500000000000002
 40
0.7500000000000002
 40
1.0
 40
1.0
 40
1.0
 40
1.0
 10
80.09431793892382
 20
30.53461278117224
 30
0.0
 10
79.86370502727621
 20
31.33347934088232
 30
0.0
 10
79.67298617471978
 20
32.13972773522541
 30
0.0
 10
79.40821907291519
 20
33.77381277839797
 30
0.0
 10
79.33505703413809
 20
34.60265813852242
 30
0.0
 10
79.33520019333096
 20
36.28402906312707
 30
0.0
 10
79.40835886064743
 20
37.1114324484579
 30
0.0
 10
79.6730631276937
 20
38.74472482584177
 30
0.0
 10
79.86372621562727
 20
39.55077419628685
 30
0.0
 10
80.09431793892382
 20
40.34956735739588
 30
0.0
  0
LINE
  5
73
330
1F
100
AcDbEntity
  8
0
  6
Continuous
 62
     7
370
    25
100
AcDbLine
 10
80.0943179389
 20
40.3495673574
 30
0.0
 11
83.2872640472
 21
40.3495673574
 31
0.0
  0
SPLINE
  5
74
330
1F
100
AcDbEntity
  8
0
  6
Continuous
 62
     7
370
    25
100
AcDbSpline
210
0.0
220
0.0
230
1.0
 70
     8
 71
     3
 72
    14
 73
    10
 74
     0
 42
0.00000001
 43
0.00000001
 40
0.0
 40
0.0
 40
0.0
 40
0.0
 40
0.2500000000000001
 40
0.2500000000000001
 40
0.5000000000000001
 40
0.5000000000000001
 40
0.7500000000000002
 40
0.7500000000000002
 40
1.0
 40
1.0
 40
1.0
 40
1.0
 10
83.28726404721932
 20
30.53461278117224
 30
0.0
 10
83.51787695886692
 20
31.33347934088232
 30
0.0
 10
83.70859581142336
 20
32.13972773522541
 30
0.0
 10
83.97336291322796
 20
33.77381277839797
 30
0.0
 10
84.04652495200506
 20
34.60265813852242
 30
0.0
 10
84.0463817928122
 20
36.28402906312707
 30
0.0
 10
83.97322312549572
 20
37.1114324484579
 30
0.0
 10
83.70851885844947
 20
38.74472482584177
 30
0.0
 10
83.5178557705159
 20
39.55077419628685
 30
0.0
 10
83.28726404721932
 20
40.34956735739588
 30
0.0
  0
SPLINE
  5
75
330
1F
100
AcDbEntity
  8
0
  6
Continuous
 62
     7
370
    25
100
AcDbSpline
210
0.0
220
0.0
230
1.0
 70
     8
 71
     3
 72
    15
 73
    11
 74
     0
 42
0.00000001
 43
0.00000001
 40
0.0
 40
0.0
 40
0.0
 40
0.0
 40
0.1417592153651988
 40
0.276625087886275
 40
0.4055938754298292
 40
0.5298038142821753
 40
0.648507027101688
 40
0.7663781392393239
 40
0.8822094009264977
 40
1.0
 40
1.0
 40
1.0
 40
1.0
 10
82.2263122285928
 20
32.76771407554261
 30
0.0
 10
82.22643329723914
 20
32.75981304398046
 30
0.0
 10
82.22666954731181
 20
32.74439518529215
 30
0.0
 10
82.2292994274938
 20
32.72191351957438
 30
0.0
 10
82.23362102761571
 20
32.70070167341709
 30
0.0
 10
82.23980163417484
 20
32.680888844577
 30
0.0
 10
82.24760810164275
 20
32.66233374336797
 30
0.0
 10
82.25705412916852
 20
32.64507590213232
 30
0.0
 10
82.26853826210188
 20
32.62913714765411
 30
0.0
 10
82.27742835704295
 20
32.6196178763577
 30
0.0
 10
82.28191068419127
 20
32.61481832264685
 30
0.0
  0
LINE
  5
76
330
1F
100
AcDbEntity
  8
0
  6
Continuous
 62
     7
370
    25
100
AcDbLine
 10
82.2263122286
 20
32.8302623381
 30
0.0
 11
82.2263122286
 21
32.7677140755
 31
0.0
  0
LINE
  5
77
330
1F
100
AcDbEntity
  8
0
  6
Continuous
 62
     7
370
    25
100
AcDbLine
 10
82.1442015465
 20
32.8302623381
 30
0.0
 11
82.2263122286
 21
32.8302623381
 31
0.0
  0
LINE
  5
78
330
1F
100
AcDbEntity
  8
0
  6
Continuous
 62
     7
370
    25
100
AcDbLine
 10
82.1442015465
 20
32.6264013342
 30
0.0
 11
82.1442015465
 21
32.8302623381
 31
0.0
  0
LINE
  5
79
330
1F
100
AcDbEntity
  8
0
  6
Continuous
 62
     7
370
    25
100
AcDbLine
 10
81.2185902209
 20
32.6264013342
 30
0.0
 11
82.1442015465
 21
32.6264013342
 31
0.0
  0
LINE
  5
7A
330
1F
100
AcDbEntity
  8
0
  6
Continuous
 62
     7
370
    25
100
AcDbLine
 10
81.2185902209
 20
32.4619225698
 30
0.0
 11
81.2185902209
 21
32.6264013342
 31
0.0
  0
LINE
  5
7B
330
1F
100
AcDbEntity
  8
0
  6
Continuous
 62
     7
370
    25
100
AcDbLine
 10
82.4209068232
 20
32.4619225698
 30
0.0
 11
81.2185902209
 21
32.4619225698
 31
0.0
  0
LINE
  5
7C
330
1F
100
AcDbEntity
  8
0
  6
Continuous
 62
     7
370
    25
100
AcDbLine
 10
82.4209068232
 20
32.5453202531
 30
0.0
 11
82.4209068232
 21
32.4619225698
 31
0.0
  0
SPLINE
  5
7D
330
1F
100
AcDbEntity
  8
0
  6
Continuous
 62
     7
370
    25
100
AcDbSpline
210
0.0
220
0.0
230
1.0
 70
     8
 71
     3
 72
    11
 73
     7
 74
     0
 42
0.00000001
 43
0.00000001
 40
0.0
 40
0.0
 40
0.0
 40
0.0
 40
0.2682473769252647
 40
0.5183494686747562
 40
0.7604968469180557
 40
1.0
 40
1.0
 40
1.0
 40
1.0
 10
82.28191068419127
 20
32.61481832264685
 30
0.0
 10
82.29234050298871
 20
32.6051763757745
 30
0.0
 10
82.31249462749123
 20
32.58654470043226
 30
0.0
 10
82.3469152543745
 20
32.56538119256357
 30
0.0
 10
82.38308613339278
 20
32.55083288591499
 30
0.0
 10
82.40834615178906
 20
32.54715105975469
 30
0.0
 10
82.42090682318741
 20
32.54532025314878
 30
0.0
  0
LINE
  5
7E
330
1F
100
AcDbEntity
  8
0
  6
Continuous
 62
     7
370
    25
100
AcDbLine
 10
81.9969685992
 20
33.6294901373
 30
0.0
 11
81.9969685992
 21
33.7893356972
 31
0.0
  0
SPLINE
  5
7F
330
1F
100
AcDbEntity
  8
0
  6
Continuous
 62
     7
370
    25
100
AcDbSpline
210
0.0
220
0.0
230
1.0
 70
     8
 71
     3
 72
    15
 73
    11
 74
     0
 42
0.00000001
 43
0.00000001
 40
0.0
 40
0.0
 40
0.0
 40
0.0
 40
0.0824338050870848
 40
0.1751181988196061
 40
0.2809629685699043
 40
0.3985144448827713
 40
0.5291814633757986
 40
0.6716920349032515
 40
0.8293879369875404
 40
1.0
 40
1.0
 40
1.0
 40
1.0
 10
81.32978713206772
 20
33.81713492496345
 30
0.0
 10
81.33592368634446
 20
33.81564771221323
 30
0.0
 10
81.34895987132664
 20
33.8124883527999
 30
0.0
 10
81.36890337424414
 20
33.80431347555931
 30
0.0
 10
81.39070523418864
 20
33.7938452212072
 30
0.0
 10
81.41416420507963
 20
33.78025489246979
 30
0.0
 10
81.4392776587599
 20
33.76403432966642
 30
0.0
 10
81.46623786450206
 20
33.74505713000313
 30
0.0
 10
81.49494560149476
 20
33.72328856354878
 30
0.0
 10
81.51431566845862
 20
33.70729802354169
 30
0.0
 10
81.52438172666231
 20
33.69898820681673
 30
0.0
  0
LINE
  5
80
330
1F
100
AcDbEntity
  8
0
  6
Continuous
 62
     7
370
    25
100
AcDbLine
 10
81.2121552144
 20
33.817134925
 30
0.0
 11
81.3297871321
 21
33.817134925
 31
0.0
  0
LINE
  5
81
330
1F
100
AcDbEntity
  8
0
  6
Continuous
 62
     7
370
    25
100
AcDbLine
 10
81.2121552144
 20
33.1082546161
 30
0.0
 11
81.2121552144
 21
33.817134925
 31
0.0
  0
LINE
  5
82
330
1F
100
AcDbEntity
  8
0
  6
Continuous
 62
     7
370
    25
100
AcDbLine
 10
81.343686746
 20
33.1082546161
 30
0.0
 11
81.2121552144
 21
33.1082546161
 31
0.0
  0
LINE
  5
83
330
1F
100
AcDbEntity
  8
0
  6
Continuous
 62
     7
370
    25
100
AcDbLine
 10
81.343686746
 20
33.6294901373
 30
0.0
 11
81.343686746
 21
33.1082546161
 31
0.0
  0
SPLINE
  5
84
330
1F
100
AcDbEntity
  8
0
  6
Continuous
 62
     7
370
    25
100
AcDbSpline
210
0.0
220
0.0
230
1.0
 70
     8
 71
     3
 72
     9
 73
     5
 74
     0
 42
0.00000001
 43
0.00000001
 40
0.0
 40
0.0
 40
0.0
 40
0.0
 40
0.5144230274934297
 40
1.0
 40
1.0
 40
1.0
 40
1.0
 10
81.45488365716425
 20
33.54609245392098
 30
0.0
 10
81.436634017096
 20
33.56148591625455
 30
0.0
 10
81.4011580778536
 20
33.59140965899324
 30
0.0
 10
81.36247187515264
 20
33.61704311927849
 30
0.0
 10
81.34368674596733
 20
33.62949013731866
 30
0.0
  0
LINE
  5
85
330
1F
100
AcDbEntity
  8
0
  6
Continuous
 62
     7
370
    25
100
AcDbLine
 10
81.5799801823
 20
33.4348955427
 30
0.0
 11
81.4548836572
 21
33.5460924539
 31
0.0
  0
SPLINE
  5
86
330
1F
100
AcDbEntity
  8
0
  6
Continuous
 62
     7
370
    25
100
AcDbSpline
210
0.0
220
0.0
230
1.0
 70
     8
 71
     3
 72
     9
 73
     5
 74
     0
 42
0.00000001
 43
0.00000001
 40
0.0
 40
0.0
 40
0.0
 40
0.0
 40
0.5004988252029441
 40
1.0
 40
1.0
 40
1.0
 40
1.0
 10
81.8093238116044
 20
33.23335114117967
 30
0.0
 10
81.77028187074434
 20
33.26608797761706
 30
0.0
 10
81.69227581180061
 20
33.33149639575696
 30
0.0
 10
81.61738715454094
 20
33.40045209162769
 30
0.0
 10
81.57998018226075
 20
33.43489554272406
 30
0.0
  0
SPLINE
  5
87
330
1F
100
AcDbEntity
  8
0
  6
Continuous
 62
     7
370
    25
100
AcDbSpline
210
0.0
220
0.0
230
1.0
 70
     8
 71
     3
 72
    15
 73
    11
 74
     0
 42
0.00000001
 43
0.00000001
 40
0.0
 40
0.0
 40
0.0
 40
0.0
 40
0.1293940440687752
 40
0.256386654459429
 40
0.3803193874645012
 40
0.5035457318516344
 40
0.6257183681003871
 40
0.7486626343499805
 40
0.872968338589945
 40
1.0
 40
1.0
 40
1.0
 40
1.0
 10
82.10121570349628
 20
33.12910403693256
 30
0.0
 10
82.08755966064328
 20
33.12938065694353
 30
0.0
 10
82.06050101845126
 20
33.12992876315415
 30
0.0
 10
82.02060433214209
 20
33.13490324582992
 30
0.0
 10
81.98198734484319
 20
33.14326536476678
 30
0.0
 10
81.94461042561936
 20
33.15445986200917
 30
0.0
 10
81.90859884860421
 20
33.16925357515616
 30
0.0
 10
81.87407984225112
 20
33.18743150120496
 30
0.0
 10
81.8405701776794
 20
33.20846145411916
 30
0.0
 10
81.81981430504244
 20
33.22499480629718
 30
0.0
 10
81.8093238116044
 20
33.23335114117967
 30
0.0
  0
SPLINE
  5
88
330
1F
100
AcDbEntity
  8
0
  6
Continuous
 62
     7
370
    25
100
AcDbSpline
210
0.0
220
0.0
230
1.0
 70
     8
 71
     3
 72
    15
 73
    11
 74
     0
 42
0.00000001
 43
0.00000001
 40
0.0
 40
0.0
 40
0.0
 40
0.0
 40
0.1270575307246366
 40
0.2522848125044124
 40
0.3739838551677638
 40
0.4958483318799182
 40
0.6176412971200808
 40
0.7419302066788916
 40
0.8684078670102179
 40
1.0
 40
1.0
 40
1.0
 40
1.0
 10
82.3236095258901
 20
33.21945152728005
 30
0.0
 10
82.3160237860435
 20
33.2122580152926
 30
0.0
 10
82.30096157805006
 20
33.19797461302077
 30
0.0
 10
82.27624431948155
 20
33.17956967543184
 30
0.0
 10
82.25025562870746
 20
33.16383512193399
 30
0.0
 10
82.22286125879936
 20
33.15140563227577
 30
0.0
 10
82.19438364371376
 20
33.14101336691607
 30
0.0
 10
82.1644227354754
 20
33.13440181422668
 30
0.0
 10
82.13328532042483
 20
33.12964097255961
 30
0.0
 10
82.11204588476583
 20
33.12928536464172
 30
0.0
 10
82.10121570349628
 20
33.12910403693256
 30
0.0
  0
SPLINE
  5
89
330
1F
100
AcDbEntity
  8
0
  6
Continuous
 62
     7
370
    25
100
AcDbSpline
210
0.0
220
0.0
230
1.0
 70
     8
 71
     3
 72
    15
 73
    11
 74
     0
 42
0.00000001
 43
0.00000001
 40
0.0
 40
0.0
 40
0.0
 40
0.0
 40
0.1401156952848862
 40
0.2734369515897436
 40
0.400717091885205
 40
0.5244111544238699
 40
0.6451326608364117
 40
0.7627629456192485
 40
0.880982443321149
 40
1.0
 40
1.0
 40
1.0
 40
1.0
 10
82.4139570162376
 20
33.4626947705233
 30
0.0
 10
82.41377539528736
 20
33.45023736791271
 30
0.0
 10
82.41342096048349
 20
33.42592664249655
 30
0.0
 10
82.40875957746599
 20
33.39057412425734
 30
0.0
 10
82.40206313183482
 20
33.35704640921796
 30
0.0
 10
82.39180740466908
 20
33.32559526460595
 30
0.0
 10
82.37939119454762
 20
33.29586688459577
 30
0.0
 10
82.36371035500875
 20
33.26825791908441
 30
0.0
 10
82.34515811303707
 20
33.24266467177213
 30
0.0
 10
82.33080847886502
 20
33.22720657564859
 30
0.0
 10
82.3236095258901
 20
33.21945152728005
 30
0.0
  0
SPLINE
  5
8A
330
1F
100
AcDbEntity
  8
0
  6
Continuous
 62
     7
370
    25
100
AcDbSpline
210
0.0
220
0.0
230
1.0
 70
     8
 71
     3
 72
    15
 73
    11
 74
     0
 42
0.00000001
 43
0.00000001
 40
0.0
 40
0.0
 40
0.0
 40
0.0
 40
0.1305450777958568
 40
0.2575006610528999
 40
0.3807062916981835
 40
0.5030034727056796
 40
0.6241056847467463
 40
0.7465907263580759
 40
0.8722950368812784
 40
1.0
 40
1.0
 40
1.0
 40
1.0
 10
82.3236095258901
 20
33.67813878596731
 30
0.0
 10
82.33078037319166
 20
33.67053535038163
 30
0.0
 10
82.3449248966899
 20
33.65553754485236
 30
0.0
 10
82.36350325200961
 20
33.63131756553692
 30
0.0
 10
82.37915238658746
 20
33.6058772858533
 30
0.0
 10
82.39160656802498
 20
33.57927553244186
 30
0.0
 10
82.40200365417378
 20
33.55183806830615
 30
0.0
 10
82.4086949604754
 20
33.5230011388764
 30
0.0
 10
82.41337658550627
 20
33.4932214645043
 30
0.0
 10
82.41376252367346
 20
33.47292375163435
 30
0.0
 10
82.4139570162376
 20
33.4626947705233
 30
0.0
  0
SPLINE
  5
8B
330
1F
100
AcDbEntity
  8
0
  6
Continuous
 62
     7
370
    25
100
AcDbSpline
210
0.0
220
0.0
230
1.0
 70
     8
 71
     3
 72
    15
 73
    11
 74
     0
 42
0.00000001
 43
0.00000001
 40
0.0
 40
0.0
 40
0.0
 40
0.0
 40
0.147627072439686
 40
0.2864810592714898
 40
0.4181894659268068
 40
0.5428808841137349
 40
0.6619178330920029
 40
0.7770087505932002
 40
0.8893050437597239
 40
1.0
 40
1.0
 40
1.0
 40
1.0
 10
81.99696859924919
 20
33.78933569716423
 30
0.0
 10
82.01439834335085
 20
33.78898681171323
 30
0.0
 10
82.04822202806233
 20
33.78830977414884
 30
0.0
 10
82.09739271839973
 20
33.78317032947233
 30
0.0
 10
82.14327872505262
 20
33.77444887602455
 30
0.0
 10
82.18603619446311
 20
33.76250356956327
 30
0.0
 10
82.22541069045197
 20
33.74665917219915
 30
0.0
 10
82.26168680096683
 20
33.72764224757432
 30
0.0
 10
82.29474827700395
 20
33.70501251582847
 30
0.0
 10
82.31403527730438
 20
33.68705370753329
 30
0.0
 10
82.3236095258901
 20
33.67813878596731
 30
0.0
  0
LINE
  5
8C
330
1F
100
AcDbEntity
  8
0
  6
Continuous
 62
     7
370
    25
100
AcDbLine
 10
81.6564280587
 20
34.7345094423
 30
0.0
 11
82.4139570162
 21
34.2688723767
 31
0.0
  0
LINE
  5
8D
330
1F
100
AcDbEntity
  8
0
  6
Continuous
 62
     7
370
    25
100
AcDbLine
 10
81.5179467202
 20
34.7345094423
 30
0.0
 11
81.6564280587
 21
34.7345094423
 31
0.0
  0
LINE
  5
8E
330
1F
100
AcDbEntity
  8
0
  6
Continuous
 62
     7
370
    25
100
AcDbLine
 10
81.5179467202
 20
34.2735055813
 30
0.0
 11
81.5179467202
 21
34.7345094423
 31
0.0
  0
LINE
  5
8F
330
1F
100
AcDbEntity
  8
0
  6
Continuous
 62
     7
370
    25
100
AcDbLine
 10
81.2116404139
 20
34.2735055813
 30
0.0
 11
81.5179467202
 21
34.2735055813
 31
0.0
  0
LINE
  5
90
330
1F
100
AcDbEntity
  8
0
  6
Continuous
 62
     7
370
    25
100
AcDbLine
 10
81.2116404139
 20
34.1090268169
 30
0.0
 11
81.2116404139
 21
34.2735055813
 31
0.0
  0
LINE
  5
91
330
1F
100
AcDbEntity
  8
0
  6
Continuous
 62
     7
370
    25
100
AcDbLine
 10
81.5179467202
 20
34.1090268169
 30
0.0
 11
81.2116404139
 21
34.1090268169
 31
0.0
  0
LINE
  5
92
330
1F
100
AcDbEntity
  8
0
  6
Continuous
 62
     7
370
    25
100
AcDbLine
 10
81.5179467202
 20
33.9630808709
 30
0.0
 11
81.5179467202
 21
34.1090268169
 31
0.0
  0
LINE
  5
93
330
1F
100
AcDbEntity
  8
0
  6
Continuous
 62
     7
370
    25
100
AcDbLine
 10
81.6494782518
 20
33.9630808709
 30
0.0
 11
81.5179467202
 21
33.9630808709
 31
0.0
  0
LINE
  5
94
330
1F
100
AcDbEntity
  8
0
  6
Continuous
 62
     7
370
    25
100
AcDbLine
 10
81.6494782518
 20
34.1090268169
 30
0.0
 11
81.6494782518
 21
33.9630808709
 31
0.0
  0
LINE
  5
95
330
1F
100
AcDbEntity
  8
0
  6
Continuous
 62
     7
370
    25
100
AcDbLine
 10
82.4139570162
 20
34.1090268169
 30
0.0
 11
81.6494782518
 21
34.1090268169
 31
0.0
  0
LINE
  5
96
330
1F
100
AcDbEntity
  8
0
  6
Continuous
 62
     7
370
    25
100
AcDbLine
 10
82.4139570162
 20
34.2688723767
 30
0.0
 11
82.4139570162
 21
34.1090268169
 31
0.0
  0
LINE
  5
97
330
1F
100
AcDbEntity
  8
0
  6
Continuous
 62
     7
370
    25
100
AcDbLine
 10
82.2685258708
 20
35.5684862763
 30
0.0
 11
82.4000574023
 21
35.5684862763
 31
0.0
  0
LINE
  5
98
330
1F
100
AcDbEntity
  8
0
  6
Continuous
 62
     7
370
    25
100
AcDbLine
 10
82.2685258708
 20
35.061150369
 30
0.0
 11
82.2685258708
 21
35.5684862763
 31
0.0
  0
LINE
  5
99
330
1F
100
AcDbEntity
  8
0
  6
Continuous
 62
     7
370
    25
100
AcDbLine
 10
81.2116404139
 20
35.3947411026
 30
0.0
 11
82.2685258708
 21
35.061150369
 31
0.0
  0
LINE
  5
9A
330
1F
100
AcDbEntity
  8
0
  6
Continuous
 62
     7
370
    25
100
AcDbLine
 10
81.2116404139
 20
35.2418453497
 30
0.0
 11
81.2116404139
 21
35.3947411026
 31
0.0
  0
LINE
  5
9B
330
1F
100
AcDbEntity
  8
0
  6
Continuous
 62
     7
370
    25
100
AcDbLine
 10
82.2471616494
 20
34.9082546161
 30
0.0
 11
81.2116404139
 21
35.2418453497
 31
0.0
  0
LINE
  5
9C
330
1F
100
AcDbEntity
  8
0
  6
Continuous
 62
     7
370
    25
100
AcDbLine
 10
82.4000574023
 20
34.9082546161
 30
0.0
 11
82.2471616494
 21
34.9082546161
 31
0.0
  0
LINE
  5
9D
330
1F
100
AcDbEntity
  8
0
  6
Continuous
 62
     7
370
    25
100
AcDbLine
 10
82.4000574023
 20
35.5684862763
 30
0.0
 11
82.4000574023
 21
34.9082546161
 31
0.0
  0
LINE
  5
9E
330
1F
100
AcDbEntity
  8
0
  6
Continuous
 62
     7
370
    25
100
AcDbLine
 10
81.763763966
 20
36.5275596354
 30
0.0
 11
81.8788218811
 21
36.5275596354
 31
0.0
  0
LINE
  5
9F
330
1F
100
AcDbEntity
  8
0
  6
Continuous
 62
     7
370
    25
100
AcDbLine
 10
81.763763966
 20
35.7352816431
 30
0.0
 11
81.763763966
 21
36.5275596354
 31
0.0
  0
LINE
  5
A0
330
1F
100
AcDbEntity
  8
0
  6
Continuous
 62
     7
370
    25
100
AcDbLine
 10
81.8788218811
 20
35.7352816431
 30
0.0
 11
81.763763966
 21
35.7352816431
 31
0.0
  0
LINE
  5
A1
330
1F
100
AcDbEntity
  8
0
  6
Continuous
 62
     7
370
    25
100
AcDbLine
 10
81.8788218811
 20
36.5275596354
 30
0.0
 11
81.8788218811
 21
35.7352816431
 31
0.0
  0
LINE
  5
A2
330
1F
100
AcDbEntity
  8
0
  6
Continuous
 62
     7
370
    25
100
AcDbLine
 10
81.2121552144
 20
37.5993743072
 30
0.0
 11
82.4000574023
 21
37.5993743072
 31
0.0
  0
LINE
  5
A3
330
1F
100
AcDbEntity
  8
0
  6
Continuous
 62
     7
370
    25
100
AcDbLine
 10
81.2121552144
 20
37.0457063535
 30
0.0
 11
81.2121552144
 21
37.5993743072
 31
0.0
  0
SPLINE
  5
A4
330
1F
100
AcDbEntity
  8
0
  6
Continuous
 62
     7
370
    25
100
AcDbSpline
210
0.0
220
0.0
230
1.0
 70
     8
 71
     3
 72
    15
 73
    11
 74
     0
 42
0.00000001
 43
0.00000001
 40
0.0
 40
0.0
 40
0.0
 40
0.0
 40
0.1086178260155259
 40
0.2195099909356596
 40
0.3340278501689329
 40
0.4528099871273251
 40
0.5782045579180092
 40
0.709828301135216
 40
0.8504801967497817
 40
1.0
 40
1.0
 40
1.0
 40
1.0
 10
81.29503809731868
 20
36.79551330334183
 30
0.0
 10
81.28843050280236
 20
36.80274834643218
 30
0.0
 10
81.27507695794148
 20
36.81736992653042
 30
0.0
 10
81.25797475686905
 20
36.84229999726995
 30
0.0
 10
81.24403839759881
 20
36.87007547256802
 30
0.0
 10
81.23191786995591
 20
36.90011000725133
 30
0.0
 10
81.22316007634628
 20
36.93290412913329
 30
0.0
 10
81.21670711508244
 20
36.96818976926131
 30
0.0
 10
81.21284307008112
 20
37.00606671130529
 30
0.0
 10
81.21238912398434
 20
37.03222664906352
 30
0.0
 10
81.2121552144358
 20
37.04570635353488
 30
0.0
  0
SPLINE
  5
A5
330
1F
100
AcDbEntity
  8
0
  6
Continuous
 62
     7
370
    25
100
AcDbSpline
210
0.0
220
0.0
230
1.0
 70
     8
 71
     3
 72
    15
 73
    11
 74
     0
 42
0.00000001
 43
0.00000001
 40
0.0
 40
0.0
 40
0.0
 40
0.0
 40
0.1319114978615548
 40
0.2585593955794498
 40
0.3829282045992123
 40
0.5051155152535458
 40
0.6266776175559874
 40
0.7489849223246644
 40
0.8728415720964469
 40
1.0
 40
1.0
 40
1.0
 40
1.0
 10
81.55218095446153
 20
36.69126619909473
 30
0.0
 10
81.53963748135146
 20
36.69152946294692
 30
0.0
 10
81.51505105121926
 20
36.69204548576226
 30
0.0
 10
81.47892277898877
 20
36.69710345093592
 30
0.0
 10
81.44437852834378
 20
36.70534836026101
 30
0.0
 10
81.41120656794087
 20
36.71665812360442
 30
0.0
 10
81.37961158880724
 20
36.73140847377332
 30
0.0
 10
81.34971902833868
 20
36.74960624006363
 30
0.0
 10
81.32107187490351
 20
36.77068505232961
 30
0.0
 10
81.30379178889474
 20
36.78716496238263
 30
0.0
 10
81.29503809731868
 20
36.79551330334183
 30
0.0
  0
SPLINE
  5
A6
330
1F
100
AcDbEntity
  8
0
  6
Continuous
 62
     7
370
    25
100
AcDbSpline
210
0.0
220
0.0
230
1.0
 70
     8
 71
     3
 72
    15
 73
    11
 74
     0
 42
0.00000001
 43
0.00000001
 40
0.0
 40
0.0
 40
0.0
 40
0.0
 40
0.1263871035702697
 40
0.2491164074380001
 40
0.3706275875284634
 40
0.4924252785886872
 40
0.6137980778061808
 40
0.7388235584566673
 40
0.8671120617357184
 40
0.9999999999999999
 40
0.9999999999999999
 40
0.9999999999999999
 40
0.9999999999999999
 10
81.76067516295575
 20
36.77466388249241
 30
0.0
 10
81.75358405646675
 20
36.76801158367407
 30
0.0
 10
81.73960706891503
 20
36.75489951182485
 30
0.0
 10
81.71679932708058
 20
36.73767189374661
 30
0.0
 10
81.69236254076515
 20
36.72361206913442
 30
0.0
 10
81.66696480729864
 20
36.711605262144
 30
0.0
 10
81.6400479501027
 20
36.702647435542
 30
0.0
 10
81.61201022655173
 20
36.69585244275976
 30
0.0
 10
81.58249008003094
 20
36.69199410231604
 30
0.0
 10
81.56240191685727
 20
36.69151166547863
 30
0.0
 10
81.55218095446153
 20
36.69126619909473
 30
0.0
  0
SPLINE
  5
A7
330
1F
100
AcDbEntity
  8
0
  6
Continuous
 62
     7
370
    25
100
AcDbSpline
210
0.0
220
0.0
230
1.0
 70
     8
 71
     3
 72
    11
 73
     7
 74
     0
 42
0.00000001
 43
0.00000001
 40
0.0
 40
0.0
 40
0.0
 40
0.0
 40
0.2758864184465395
 40
0.5310076877713098
 40
0.7722766677115259
 40
1.0
 40
1.0
 40
1.0
 40
1.0
 10
81.83712303940362
 20
36.90671021453874
 30
0.0
 10
81.83235064722042
 20
36.89337515643318
 30
0.0
 10
81.8231650666014
 20
36.86770873033362
 30
0.0
 10
81.80512154101613
 20
36.83234992612302
 30
0.0
 10
81.78476780927538
 20
36.8011205561132
 30
0.0
 10
81.76854990747559
 20
36.78331131552424
 30
0.0
 10
81.76067516295575
 20
36.77466388249241
 30
0.0
  0
SPLINE
  5
A8
330
1F
100
AcDbEntity
  8
0
  6
Continuous
 62
     7
370
    25
100
AcDbSpline
210
0.0
220
0.0
230
1.0
 70
     8
 71
     3
 72
    11
 73
     7
 74
     0
 42
0.00000001
 43
0.00000001
 40
0.0
 40
0.0
 40
0.0
 40
0.0
 40
0.2409277974217335
 40
0.4854864172424135
 40
0.738041046499393
 40
1.0
 40
1.0
 40
1.0
 40
1.0
 10
81.89967130195188
 20
36.80246311029164
 30
0.0
 10
81.89296035049723
 20
36.80968452568064
 30
0.0
 10
81.8794373124216
 20
36.82423618440224
 30
0.0
 10
81.86240065464611
 20
36.84927241210148
 30
0.0
 10
81.84825540543679
 20
36.8769702797382
 30
0.0
 10
81.84087877166698
 20
36.89667683688051
 30
0.0
 10
81.83712303940362
 20
36.90671021453874
 30
0.0
  0
SPLINE
  5
A9
330
1F
100
AcDbEntity
  8
0
  6
Continuous
 62
     7
370
    25
100
AcDbSpline
210
0.0
220
0.0
230
1.0
 70
     8
 71
     3
 72
    15
 73
    11
 74
     0
 42
0.00000001
 43
0.00000001
 40
0.0
 40
0.0
 40
0.0
 40
0.0
 40
0.131207293287142
 40
0.2585055422472043
 40
0.3817646425439865
 40
0.503369267050067
 40
0.6250492974901232
 40
0.7476118725723039
 40
0.8722462138971596
 40
1.0
 40
1.0
 40
1.0
 40
1.0
 10
82.08731608959667
 20
36.72601523384376
 30
0.0
 10
82.07820948919944
 20
36.72627480275559
 30
0.0
 10
82.06026760033994
 20
36.72678620727146
 30
0.0
 10
82.03397354851427
 20
36.73045529242165
 30
0.0
 10
82.00880976631184
 20
36.73640129600139
 30
0.0
 10
81.98468227004926
 20
36.74461063126416
 30
0.0
 10
81.96170540541756
 20
36.75553639066786
 30
0.0
 10
81.9397633706362
 20
36.76876533539756
 30
0.0
 10
81.91867272205904
 20
36.78412512458547
 30
0.0
 10
81.906057083876
 20
36.79630028788223
 30
0.0
 10
81.89967130195188
 20
36.80246311029164
 30
0.0
  0
SPLINE
  5
AA
330
1F
100
AcDbEntity
  8
0
  6
Continuous
 62
     7
370
    25
100
AcDbSpline
210
0.0
220
0.0
230
1.0
 70
     8
 71
     3
 72
    15
 73
    11
 74
     0
 42
0.00000001
 43
0.00000001
 40
0.0
 40
0.0
 40
0.0
 40
0.0
 40
0.1195122940073579
 40
0.2389686932603894
 40
0.3566129793728512
 40
0.4775556668378048
 40
0.6003479127444712
 40
0.7288583660521862
 40
0.8606359757345485
 40
1.0
 40
1.0
 40
1.0
 40
1.0
 10
82.3097099119905
 20
36.80941291724145
 30
0.0
 10
82.30265438517517
 20
36.8027127701662
 30
0.0
 10
82.28854663134678
 20
36.78931560961027
 30
0.0
 10
82.26477866883536
 20
36.77253308405998
 30
0.0
 10
82.23942556640655
 20
36.75814780460106
 30
0.0
 10
82.21246892331557
 20
36.74627451171432
 30
0.0
 10
82.18349668753667
 20
36.73732781239973
 30
0.0
 10
82.1530391365959
 20
36.73061331235668
 30
0.0
 10
82.12070755838563
 20
36.72671153272205
 30
0.0
 10
82.09865227796206
 20
36.72625162282361
 30
0.0
 10
82.08731608959667
 20
36.72601523384376
 30
0.0
  0
SPLINE
  5
AB
330
1F
100
AcDbEntity
  8
0
  6
Continuous
 62
     7
370
    25
100
AcDbSpline
210
0.0
220
0.0
230
1.0
 70
     8
 71
     3
 72
    15
 73
    11
 74
     0
 42
0.00000001
 43
0.00000001
 40
0.0
 40
0.0
 40
0.0
 40
0.0
 40
0.1342477572737651
 40
0.2634617725756843
 40
0.3884666271730296
 40
0.5118790511869584
 40
0.632408074152589
 40
0.7535525248235483
 40
0.8755084805282747
 40
1.0
 40
1.0
 40
1.0
 40
1.0
 10
82.40005740233798
 20
37.03875654658508
 30
0.0
 10
82.3998712997224
 20
37.02741354437312
 30
0.0
 10
82.3995060725784
 20
37.00515285615174
 30
0.0
 10
82.39482944519213
 20
36.9726264052935
 30
0.0
 10
82.3880743079919
 20
36.94142871900721
 30
0.0
 10
82.37794928523736
 20
36.91189923029029
 30
0.0
 10
82.36521714921219
 20
36.88378837481513
 30
0.0
 10
82.34984359956735
 20
36.85714005093951
 30
0.0
 10
82.33108536884973
 20
36.8323156995375
 30
0.0
 10
82.31688376845261
 20
36.8170993622076
 30
0.0
 10
82.3097099119905
 20
36.80941291724145
 30
0.0
  0
LINE
  5
AC
330
1F
100
AcDbEntity
  8
0
  6
Continuous
 62
     7
370
    25
100
AcDbLine
 10
82.4000574023
 20
37.5993743072
 30
0.0
 11
82.4000574023
 21
37.0387565466
 31
0.0
  0
LINE
  5
AD
330
1F
100
AcDbEntity
  8
0
  6
Continuous
 62
     7
370
    25
100
AcDbLine
 10
81.2116404139
 20
38.7291040369
 30
0.0
 11
82.4000574023
 21
38.7291040369
 31
0.0
  0
LINE
  5
AE
330
1F
100
AcDbEntity
  8
0
  6
Continuous
 62
     7
370
    25
100
AcDbLine
 10
81.2116404139
 20
38.5646252725
 30
0.0
 11
81.2116404139
 21
38.7291040369
 31
0.0
  0
LINE
  5
AF
330
1F
100
AcDbEntity
  8
0
  6
Continuous
 62
     7
370
    25
100
AcDbLine
 10
82.1498643521
 20
38.5646252725
 30
0.0
 11
81.2116404139
 21
38.5646252725
 31
0.0
  0
LINE
  5
B0
330
1F
100
AcDbEntity
  8
0
  6
Continuous
 62
     7
370
    25
100
AcDbLine
 10
81.2116404139
 20
38.0086407165
 30
0.0
 11
82.1498643521
 21
38.5646252725
 31
0.0
  0
LINE
  5
B1
330
1F
100
AcDbEntity
  8
0
  6
Continuous
 62
     7
370
    25
100
AcDbLine
 10
81.2116404139
 20
37.8348955427
 30
0.0
 11
81.2116404139
 21
38.0086407165
 31
0.0
  0
LINE
  5
B2
330
1F
100
AcDbEntity
  8
0
  6
Continuous
 62
     7
370
    25
100
AcDbLine
 10
82.4000574023
 20
37.8348955427
 30
0.0
 11
81.2116404139
 21
37.8348955427
 31
0.0
  0
LINE
  5
B3
330
1F
100
AcDbEntity
  8
0
  6
Continuous
 62
     7
370
    25
100
AcDbLine
 10
82.4000574023
 20
37.9993743072
 30
0.0
 11
82.4000574023
 21
37.8348955427
 31
0.0
  0
LINE
  5
B4
330
1F
100
AcDbEntity
  8
0
  6
Continuous
 62
     7
370
    25
100
AcDbLine
 10
81.4618334641
 20
37.9993743072
 30
0.0
 11
82.4000574023
 21
37.9993743072
 31
0.0
  0
LINE
  5
B5
330
1F
100
AcDbEntity
  8
0
  6
Continuous
 62
     7
370
    25
100
AcDbLine
 10
82.4000574023
 20
38.5507256586
 30
0.0
 11
81.4618334641
 21
37.9993743072
 31
0.0
  0
LINE
  5
B6
330
1F
100
AcDbEntity
  8
0
  6
Continuous
 62
     7
370
    25
100
AcDbLine
 10
82.4000574023
 20
38.7291040369
 30
0.0
 11
82.4000574023
 21
38.5507256586
 31
0.0
  0
SPLINE
  5
B7
330
1F
100
AcDbEntity
  8
0
  6
Continuous
 62
     7
370
    25
100
AcDbSpline
210
0.0
220
0.0
230
1.0
 70
     8
 71
     3
 72
    15
 73
    11
 74
     0
 42
0.00000001
 43
0.00000001
 40
0.0
 40
0.0
 40
0.0
 40
0.0
 40
0.1046424622149465
 40
0.2111208971546082
 40
0.3233806047009379
 40
0.4420520864308684
 40
0.5671630372768656
 40
0.7019710430082279
 40
0.8453718683440634
 40
1.0
 40
1.0
 40
1.0
 40
1.0
 10
82.24021184249243
 20
33.55304226087079
 30
0.0
 10
82.23350668262061
 20
33.55924445927067
 30
0.0
 10
82.21997871951902
 20
33.57175767486975
 30
0.0
 10
82.19628632345976
 20
33.5872548477129
 30
0.0
 10
82.16989904667258
 20
33.60034199196747
 30
0.0
 10
82.1407398869067
 20
33.61114026830275
 30
0.0
 10
82.1087213813551
 20
33.61932955465331
 30
0.0
 10
82.07401553394801
 20
33.62510381304649
 30
0.0
 10
82.03642865053541
 20
33.6287743709371
 30
0.0
 10
82.01044819375562
 20
33.62924563077926
 30
0.0
 10
81.99696859924919
 20
33.62949013731866
 30
0.0
  0
SPLINE
  5
B8
330
1F
100
AcDbEntity
  8
0
  6
Continuous
 62
     7
370
    25
100
AcDbSpline
210
0.0
220
0.0
230
1.0
 70
     8
 71
     3
 72
    11
 73
     7
 74
     0
 42
0.00000001
 43
0.00000001
 40
0.0
 40
0.0
 40
0.0
 40
0.0
 40
0.2499387837310335
 40
0.4912475062238696
 40
0.739371153091443
 40
1.0
 40
1.0
 40
1.0
 40
1.0
 10
82.28191068419127
 20
33.45574496357349
 30
0.0
 10
82.28148309997134
 20
33.4648300120807
 30
0.0
 10
82.28064269545865
 20
33.48268641418231
 30
0.0
 10
82.27187013009468
 20
33.50823554258596
 30
0.0
 10
82.25922771571088
 20
33.53251343905411
 30
0.0
 10
82.24665349222813
 20
33.54608809799272
 30
0.0
 10
82.24021184249243
 20
33.55304226087079
 30
0.0
  0
SPLINE
  5
B9
330
1F
100
AcDbEntity
  8
0
  6
Continuous
 62
     7
370
    25
100
AcDbSpline
210
0.0
220
0.0
230
1.0
 70
     8
 71
     3
 72
    11
 73
     7
 74
     0
 42
0.00000001
 43
0.00000001
 40
0.0
 40
0.0
 40
0.0
 40
0.0
 40
0.2491582773467698
 40
0.4909866113135543
 40
0.7398742876879671
 40
0.9999999999999999
 40
0.9999999999999999
 40
0.9999999999999999
 40
0.9999999999999999
 10
82.24021184249243
 20
33.35149785932638
 30
0.0
 10
82.24666400840367
 20
33.35862038675611
 30
0.0
 10
82.25937852509614
 20
33.37265590523836
 30
0.0
 10
82.27221212199154
 20
33.39830518287648
 30
0.0
 10
82.28062158735298
 20
33.42612554249299
 30
0.0
 10
82.28147470683312
 20
33.44572756490421
 30
0.0
 10
82.28191068419127
 20
33.45574496357349
 30
0.0
  0
SPLINE
  5
BA
330
1F
100
AcDbEntity
  8
0
  6
Continuous
 62
     7
370
    25
100
AcDbSpline
210
0.0
220
0.0
230
1.0
 70
     8
 71
     3
 72
    15
 73
    11
 74
     0
 42
0.00000001
 43
0.00000001
 40
0.0
 40
0.0
 40
0.0
 40
0.0
 40
0.1322547143924652
 40
0.260491329755658
 40
0.3858810752076399
 40
0.5080947364339354
 40
0.6293774294263299
 40
0.7501629890362081
 40
0.8732892159404207
 40
1.0
 40
1.0
 40
1.0
 40
1.0
 10
82.10121570349628
 20
33.29589940372793
 30
0.0
 10
82.10800273671687
 20
33.29602282659963
 30
0.0
 10
82.12137060278386
 20
33.29626592256879
 30
0.0
 10
82.14102103551556
 20
33.29893584979839
 30
0.0
 10
82.15985138728739
 20
33.30321766236989
 30
0.0
 10
82.17770852185771
 20
33.30955555236154
 30
0.0
 10
82.19480824353077
 20
33.31716521155838
 30
0.0
 10
82.21087153619936
 20
33.32686991340896
 30
0.0
 10
82.226196005783
 20
33.33818815129509
 30
0.0
 10
82.23549542220746
 20
33.34701905593798
 30
0.0
 10
82.24021184249243
 20
33.35149785932638
 30
0.0
  0
SPLINE
  5
BB
330
1F
100
AcDbEntity
  8
0
  6
Continuous
 62
     7
370
    25
100
AcDbSpline
210
0.0
220
0.0
230
1.0
 70
     8
 71
     3
 72
    15
 73
    11
 74
     0
 42
0.00000001
 43
0.00000001
 40
0.0
 40
0.0
 40
0.0
 40
0.0
 40
0.1414328956139765
 40
0.2759774816014662
 40
0.4050689787039344
 40
0.5285154822412604
 40
0.6494180134816959
 40
0.7665087378033358
 40
0.8835254365637943
 40
1.0
 40
1.0
 40
1.0
 40
1.0
 10
81.83712303940362
 20
33.41404612187465
 30
0.0
 10
81.84743304111302
 20
33.40459298422999
 30
0.0
 10
81.86755090898754
 20
33.38614711200855
 30
0.0
 10
81.89972155969483
 20
33.36220362209025
 30
0.0
 10
81.93209212395243
 20
33.34173258838717
 30
0.0
 10
81.96508601830642
 20
33.32503897039441
 30
0.0
 10
81.99849739960024
 20
33.31221527815785
 30
0.0
 10
82.03234349517687
 20
33.30280097493477
 30
0.0
 10
82.0666012222464
 20
33.2968863600019
 30
0.0
 10
82.08969541695156
 20
33.2962278795182
 30
0.0
 10
82.10121570349628
 20
33.29589940372793
 30
0.0
  0
SPLINE
  5
BC
330
1F
100
AcDbEntity
  8
0
  6
Continuous
 62
     7
370
    25
100
AcDbSpline
210
0.0
220
0.0
230
1.0
 70
     8
 71
     3
 72
    15
 73
    11
 74
     0
 42
0.00000001
 43
0.00000001
 40
0.0
 40
0.0
 40
0.0
 40
0.0
 40
0.1476613860734705
 40
0.2888924423695138
 40
0.4241065500574237
 40
0.5519955532306793
 40
0.6738679309355681
 40
0.78931626654778
 40
0.8978915155028957
 40
1.0
 40
1.0
 40
1.0
 40
1.0
 10
81.52438172666231
 20
33.69898820681673
 30
0.0
 10
81.53963797348031
 20
33.68481368289718
 30
0.0
 10
81.56948609100002
 20
33.65708190451262
 30
0.0
 10
81.61357697637794
 20
33.61666563370714
 30
0.0
 10
81.65567901576576
 20
33.57820697563093
 30
0.0
 10
81.69568941454614
 20
33.54150678362761
 30
0.0
 10
81.73370343900457
 20
33.50675355905182
 30
0.0
 10
81.76997368876557
 20
33.47413205172376
 30
0.0
 10
81.80427775590182
 20
33.44349360566356
 30
0.0
 10
81.82640096280198
 20
33.42365901429778
 30
0.0
 10
81.83712303940362
 20
33.41404612187465
 30
0.0
  0
SPLINE
  5
BD
330
1F
100
AcDbEntity
  8
0
  6
Continuous
 62
     7
370
    25
100
AcDbSpline
210
0.0
220
0.0
230
1.0
 70
     8
 71
     3
 72
    16
 73
    12
 74
     0
 42
0.00000001
 43
0.00000001
 40
0.0
 40
0.0
 40
0.0
 40
0.0
 40
0.2500000000000002
 40
0.2500000000000002
 40
0.5000000000000003
 40
0.5000000000000003
 40
0.6250000000000002
 40
0.6250000000000002
 40
0.7500000000000002
 40
0.7500000000000002
 40
1.0
 40
1.0
 40
1.0
 40
1.0
 10
80.09431793892341
 20
40.34956735739585
 30
0.0
 10
79.86300318524079
 20
40.75021626331444
 30
0.0
 10
79.67235789191035
 20
41.1537862529993
 30
0.0
 10
79.40825223550304
 20
41.96934303934038
 30
0.0
 10
79.33566304418909
 20
42.3813924079037
 30
0.0
 10
79.33486579809814
 20
43.0072297759533
 30
0.0
 10
79.35261105472158
 20
43.21682375941642
 30
0.0
 10
79.42180813825136
 20
43.63142277679265
 30
0.0
 10
79.47318974431366
 20
43.83733228881482
 30
0.0
 10
79.67159774305027
 20
44.45139488686799
 30
0.0
 10
79.86271484475422
 20
44.85589631921616
 30
0.0
 10
80.09431793892362
 20
45.25704464550772
 30
0.0
  0
LINE
  5
BE
330
1F
100
AcDbEntity
  8
0
  6
Continuous
 62
     7
370
    25
100
AcDbLine
 10
79.1907909931
 20
35.4420900693
 30
0.0
 11
79.1907909931
 21
43.6920900693
 31
0.0
  0
LINE
  5
BF
330
1F
100
AcDbEntity
  8
0
  6
Continuous
 62
     7
370
    25
100
AcDbLine
 10
79.1907909931
 20
27.1920900693
 30
0.0
 11
79.1907909931
 21
35.4420900693
 31
0.0
  0
SPLINE
  5
C0
330
1F
100
AcDbEntity
  8
0
  6
Continuous
 62
     7
370
    25
100
AcDbSpline
210
0.0
220
0.0
230
1.0
 70
     8
 71
     3
 72
    16
 73
    12
 74
     0
 42
0.00000001
 43
0.00000001
 40
0.0
 40
0.0
 40
0.0
 40
0.0
 40
0.2500000000000002
 40
0.2500000000000002
 40
0.5000000000000003
 40
0.5000000000000003
 40
0.6250000000000002
 40
0.6250000000000002
 40
0.7500000000000002
 40
0.7500000000000002
 40
1.0
 40
1.0
 40
1.0
 40
1.0
 10
83.28726404721972
 20
40.34956735739585
 30
0.0
 10
83.51857880090236
 20
40.75021626331444
 30
0.0
 10
83.7092240942328
 20
41.1537862529993
 30
0.0
 10
83.9733297506401
 20
41.96934303934038
 30
0.0
 10
84.04591894195407
 20
42.3813924079037
 30
0.0
 10
84.04671618804501
 20
43.0072297759533
 30
0.0
 10
84.02897093142157
 20
43.21682375941642
 30
0.0
 10
83.95977384789178
 20
43.63142277679265
 30
0.0
 10
83.9083922418295
 20
43.83733228881482
 30
0.0
 10
83.70998424309289
 20
44.45139488686799
 30
0.0
 10
83.51886714138892
 20
44.85589631921616
 30
0.0
 10
83.28726404721954
 20
45.25704464550772
 30
0.0
  0
LINE
  5
C1
330
1F
100
AcDbEntity
  8
0
  6
Continuous
 62
     7
370
    25
100
AcDbLine
 10
84.1907909931
 20
35.4420900693
 30
0.0
 11
84.1907909931
 21
43.6920900693
 31
0.0
  0
LINE
  5
C2
330
1F
100
AcDbEntity
  8
0
  6
Continuous
 62
     7
370
    25
100
AcDbLine
 10
84.1907909931
 20
27.1920900693
 30
0.0
 11
84.1907909931
 21
35.4420900693
 31
0.0
  0
LINE
  5
C3
330
1F
100
AcDbEntity
  8
0
  6
Continuous
 62
     7
370
    25
100
AcDbLine
 10
82.1568141591
 20
34.2735055813
 30
0.0
 11
81.6494782518
 21
34.5816136894
 31
0.0
  0
LINE
  5
C4
330
1F
100
AcDbEntity
  8
0
  6
Continuous
 62
     7
370
    25
100
AcDbLine
 10
81.6494782518
 20
34.2735055813
 30
0.0
 11
82.1568141591
 21
34.2735055813
 31
0.0
  0
LINE
  5
C5
330
1F
100
AcDbEntity
  8
0
  6
Continuous
 62
     7
370
    25
100
AcDbLine
 10
81.6494782518
 20
34.5816136894
 30
0.0
 11
81.6494782518
 21
34.2735055813
 31
0.0
  0
LINE
  5
C6
330
1F
100
AcDbEntity
  8
0
  6
Continuous
 62
     7
370
    25
100
AcDbLine
 10
80.0943179389
 20
45.2570446455
 30
0.0
 11
83.2872640472
 21
45.2570446455
 31
0.0
  0
SPLINE
  5
C7
330
1F
100
AcDbEntity
  8
0
  6
Continuous
 62
     7
370
    25
100
AcDbSpline
210
0.0
220
0.0
230
1.0
 70
     8
 71
     3
 72
    15
 73
    11
 74
     0
 42
0.00000001
 43
0.00000001
 40
0.0
 40
0.0
 40
0.0
 40
0.0
 40
0.141766207803867
 40
0.276638732741436
 40
0.4056138818208842
 40
0.5283604514395147
 40
0.6484896893007588
 40
0.7663666155685065
 40
0.8822035907677858
 40
1.0
 40
1.0
 40
1.0
 40
1.0
 10
81.55218095446153
 20
36.85806156589009
 30
0.0
 10
81.56008235097184
 20
36.85818155454318
 30
0.0
 10
81.57550092181012
 20
36.85841569714632
 30
0.0
 10
81.59797751900209
 20
36.86106057664628
 30
0.0
 10
81.61912700534654
 20
36.86531265129711
 30
0.0
 10
81.63887722491336
 20
36.8716669619047
 30
0.0
 10
81.65750646672053
 20
36.87928250380619
 30
0.0
 10
81.6748153101593
 20
36.88881302599594
 30
0.0
 10
81.69075884855819
 20
36.9002851800195
 30
0.0
 10
81.70027747751156
 20
36.90917688338384
 30
0.0
 10
81.70507670735728
 20
36.91366002148855
 30
0.0
  0
LINE
  5
C8
330
1F
100
AcDbEntity
  8
0
  6
Continuous
 62
     7
370
    25
100
AcDbLine
 10
81.343686746
 20
37.4348955427
 30
0.0
 11
81.343686746
 21
37.0804553883
 31
0.0
  0
LINE
  5
C9
330
1F
100
AcDbEntity
  8
0
  6
Continuous
 62
     7
370
    25
100
AcDbLine
 10
81.7681397704
 20
37.0804553883
 30
0.0
 11
81.7681397704
 21
37.4348955427
 31
0.0
  0
SPLINE
  5
CA
330
1F
100
AcDbEntity
  8
0
  6
Continuous
 62
     7
370
    25
100
AcDbSpline
210
0.0
220
0.0
230
1.0
 70
     8
 71
     3
 72
    15
 73
    11
 74
     0
 42
0.00000001
 43
0.00000001
 40
0.0
 40
0.0
 40
0.0
 40
0.0
 40
0.127711854033614
 40
0.2523621141955308
 40
0.3748537650566259
 40
0.4969693854038497
 40
0.619273165524219
 40
0.7424854443019974
 40
0.8694478780376615
 40
0.9999999999999999
 40
0.9999999999999999
 40
0.9999999999999999
 40
0.9999999999999999
 10
81.39928520156577
 20
36.92060982843835
 30
0.0
 10
81.40449486882093
 20
36.91559006436339
 30
0.0
 10
81.41478931370794
 20
36.90567087335088
 30
0.0
 10
81.43199338450557
 20
36.89318444752823
 30
0.0
 10
81.44976277037621
 20
36.88213462770062
 30
0.0
 10
81.46868845380725
 20
36.87349511641229
 30
0.0
 10
81.48828112881279
 20
36.86642601006733
 30
0.0
 10
81.5088228304442
 20
36.86152389688701
 30
0.0
 10
81.53022281865503
 20
36.85870487133339
 30
0.0
 10
81.54479387025951
 20
36.85827798460246
 30
0.0
 10
81.55218095446153
 20
36.85806156589009
 30
0.0
  0
SPLINE
  5
CB
330
1F
100
AcDbEntity
  8
0
  6
Continuous
 62
     7
370
    25
100
AcDbSpline
210
0.0
220
0.0
230
1.0
 70
     8
 71
     3
 72
    15
 73
    11
 74
     0
 42
0.00000001
 43
0.00000001
 40
0.0
 40
0.0
 40
0.0
 40
0.0
 40
0.1452100934042846
 40
0.2837409570901032
 40
0.4135752058930639
 40
0.5386947582688046
 40
0.6569557421473481
 40
0.7729129023399377
 40
0.8867220798115644
 40
1.0
 40
1.0
 40
1.0
 40
1.0
 10
81.34368674596733
 20
37.08045538828392
 30
0.0
 10
81.3438111937196
 20
37.0720405104368
 30
0.0
 10
81.34405436499999
 20
37.05559781393987
 30
0.0
 10
81.34662853941954
 20
37.03173927649945
 30
0.0
 10
81.35100508764077
 20
37.00933883440706
 30
0.0
 10
81.35713875669461
 20
36.98857259026072
 30
0.0
 10
81.36491518699921
 20
36.96922164426641
 30
0.0
 10
81.37444788332614
 20
36.95141756036528
 30
0.0
 10
81.38575191238247
 20
36.93498324087627
 30
0.0
 10
81.39478114629686
 20
36.92539348769121
 30
0.0
 10
81.39928520156577
 20
36.92060982843835
 30
0.0
  0
LINE
  5
CC
330
1F
100
AcDbEntity
  8
0
  6
Continuous
 62
     7
370
    25
100
AcDbLine
 10
81.7681397704
 20
37.4348955427
 30
0.0
 11
81.343686746
 21
37.4348955427
 31
0.0
  0
SPLINE
  5
CD
330
1F
100
AcDbEntity
  8
0
  6
Continuous
 62
     7
370
    25
100
AcDbSpline
210
0.0
220
0.0
230
1.0
 70
     8
 71
     3
 72
    15
 73
    11
 74
     0
 42
0.00000001
 43
0.00000001
 40
0.0
 40
0.0
 40
0.0
 40
0.0
 40
0.1193492950655706
 40
0.239053563744874
 40
0.3573649108366713
 40
0.4774641898633376
 40
0.6014125335766692
 40
0.7292561455876055
 40
0.8608123139691184
 40
1.0
 40
1.0
 40
1.0
 40
1.0
 10
81.70507670735728
 20
36.91366002148855
 30
0.0
 10
81.71009462964584
 20
36.91895716726203
 30
0.0
 10
81.72014539873508
 20
36.92956721379921
 30
0.0
 10
81.73287970733784
 20
36.94737618696664
 30
0.0
 10
81.74379189665999
 20
36.96636020894695
 30
0.0
 10
81.7529320584405
 20
36.98656685614628
 30
0.0
 10
81.75981704208887
 20
37.00826198378348
 30
0.0
 10
81.7646726424042
 20
37.03119828876347
 30
0.0
 10
81.7675270557945
 20
37.05541569142507
 30
0.0
 10
81.7679317299976
 20
37.07195343827312
 30
0.0
 10
81.76813977042036
 20
37.08045538828392
 30
0.0
  0
SPLINE
  5
CE
330
1F
100
AcDbEntity
  8
0
  6
Continuous
 62
     7
370
    25
100
AcDbSpline
210
0.0
220
0.0
230
1.0
 70
     8
 71
     3
 72
    11
 73
     7
 74
     0
 42
0.00000001
 43
0.00000001
 40
0.0
 40
0.0
 40
0.0
 40
0.0
 40
0.2499695538886858
 40
0.49223998512734
 40
0.7405148106355968
 40
1.0
 40
1.0
 40
1.0
 40
1.0
 10
82.2263122285928
 20
36.94145924928777
 30
0.0
 10
82.23284233797331
 20
36.94858124617195
 30
0.0
 10
82.24570142778774
 20
36.96260588071564
 30
0.0
 10
82.25887726988987
 20
36.98819861349067
 30
0.0
 10
82.26722039298913
 20
37.01609475469099
 30
0.0
 10
82.26808435334011
 20
37.03569160037519
 30
0.0
 10
82.26852587080646
 20
37.04570635353488
 30
0.0
  0
SPLINE
  5
CF
330
1F
100
AcDbEntity
  8
0
  6
Continuous
 62
     7
370
    25
100
AcDbSpline
210
0.0
220
0.0
230
1.0
 70
     8
 71
     3
 72
    11
 73
     7
 74
     0
 42
0.00000001
 43
0.00000001
 40
0.0
 40
0.0
 40
0.0
 40
0.0
 40
0.2512883906177722
 40
0.496525804289157
 40
0.741644548140916
 40
1.0
 40
1.0
 40
1.0
 40
1.0
 10
82.09426589654647
 20
36.88586079368933
 30
0.0
 10
82.1066226420218
 20
36.8864313144737
 30
0.0
 10
82.13103858487712
 20
36.8875586180098
 30
0.0
 10
82.16597999493982
 20
36.89877511824361
 30
0.0
 10
82.1986915636018
 20
36.9161022788687
 30
0.0
 10
82.21694537157016
 20
36.9328600676055
 30
0.0
 10
82.2263122285928
 20
36.94145924928777
 30
0.0
  0
LINE
  5
D0
330
1F
100
AcDbEntity
  8
0
  6
Continuous
 62
     7
370
    25
100
AcDbLine
 10
82.2685258708
 20
37.4348955427
 30
0.0
 11
81.899671302
 21
37.4348955427
 31
0.0
  0
LINE
  5
D1
330
1F
100
AcDbEntity
  8
0
  6
Continuous
 62
     7
370
    25
100
AcDbLine
 10
82.2685258708
 20
37.0457063535
 30
0.0
 11
82.2685258708
 21
37.4348955427
 31
0.0
  0
SPLINE
  5
D2
330
1F
100
AcDbEntity
  8
0
  6
Continuous
 62
     7
370
    25
100
AcDbSpline
210
0.0
220
0.0
230
1.0
 70
     8
 71
     3
 72
    11
 73
     7
 74
     0
 42
0.00000001
 43
0.00000001
 40
0.0
 40
0.0
 40
0.0
 40
0.0
 40
0.2562600332085403
 40
0.5016208045865207
 40
0.7449078564687257
 40
1.0
 40
1.0
 40
1.0
 40
1.0
 10
81.89967130195188
 20
37.05960596743449
 30
0.0
 10
81.90025303868751
 20
37.04838643030656
 30
0.0
 10
81.90139176970897
 20
37.02642454584595
 30
0.0
 10
81.91072790264947
 20
36.99492964418267
 30
0.0
 10
81.92617808431714
 20
36.96598297218514
 30
0.0
 10
81.94082369183118
 20
36.94976189959166
 30
0.0
 10
81.94831995060053
 20
36.94145924928777
 30
0.0
  0
SPLINE
  5
D3
330
1F
100
AcDbEntity
  8
0
  6
Continuous
 62
     7
370
    25
100
AcDbSpline
210
0.0
220
0.0
230
1.0
 70
     8
 71
     3
 72
    15
 73
    11
 74
     0
 42
0.00000001
 43
0.00000001
 40
0.0
 40
0.0
 40
0.0
 40
0.0
 40
0.1214714656714589
 40
0.2407960382756224
 40
0.3607440567242947
 40
0.4814082529252869
 40
0.6046454459252684
 40
0.731106618864431
 40
0.8619951408446074
 40
1.0
 40
1.0
 40
1.0
 40
1.0
 10
81.94831995060053
 20
36.94145924928777
 30
0.0
 10
81.95303130723958
 20
36.93697507132198
 30
0.0
 10
81.96237075175289
 20
36.9280859689874
 30
0.0
 10
81.9780128755677
 20
36.91668293964303
 30
0.0
 10
81.9947845928645
 20
36.90714167036464
 30
0.0
 10
82.0127011055609
 20
36.89945456319445
 30
0.0
 10
82.03153150410878
 20
36.89319010556516
 30
0.0
 10
82.0514614577421
 20
36.88886869931555
 30
0.0
 10
82.0724856415327
 20
36.88621204998778
 30
0.0
 10
82.08687883824071
 20
36.88597992685629
 30
0.0
 10
82.09426589654647
 20
36.88586079368933
 30
0.0
  0
LINE
  5
D4
330
1F
100
AcDbEntity
  8
0
  6
Continuous
 62
     7
370
    25
100
AcDbLine
 10
81.899671302
 20
37.4348955427
 30
0.0
 11
81.899671302
 21
37.0596059674
 31
0.0
  0
LINE
  5
D5
330
1F
100
AcDbEntity
  8
0
  6
Continuous
 62
     7
370
    25
100
AcDbLine
 10
67.1920813157
 20
42.1005678919
 30
0.0
 11
67.1920813157
 21
28.7836122467
 31
0.0
  0
LINE
  5
D6
330
1F
100
AcDbEntity
  8
0
  6
Continuous
 62
     7
370
    25
100
AcDbLine
 10
66.1907909931
 20
29.7849025693
 30
0.0
 11
66.1907909931
 21
41.0992775693
 31
0.0
  0
LINE
  5
D7
330
1F
100
AcDbEntity
  8
0
  6
Continuous
 62
     7
370
    18
100
AcDbLine
 10
66.1907909931
 20
41.0422819972
 30
0.0
 11
77.7907909931
 21
41.4047819972
 31
0.0
  0
LINE
  5
D8
330
1F
100
AcDbEntity
  8
0
  6
Continuous
 62
     7
370
    18
100
AcDbLine
 10
66.1907909931
 20
29.8418981414
 30
0.0
 11
77.7907909931
 21
29.4793981414
 31
0.0
  0
LINE
  5
D9
330
1F
100
AcDbEntity
  8
0
  6
Continuous
 62
     7
370
    25
100
AcDbLine
 10
77.7907909931
 20
28.4524025693
 30
0.0
 11
77.7907909931
 21
42.4317775693
 31
0.0
  0
LINE
  5
DA
330
1F
100
AcDbEntity
  8
FORMAT
  6
CENTERX2
370
    18
100
AcDbLine
 10
85.0009117944
 20
35.4420900693
 30
0.0
 11
65.1907909931
 21
35.4420900693
 31
0.0
  0
SPLINE
  5
DB
330
1F
100
AcDbEntity
  8
0
  6
Continuous
 62
     7
370
    25
100
AcDbSpline
210
0.0
220
0.0
230
1.0
 70
    24
 71
     3
 72
    16
 73
    12
 74
     0
 42
0.00000001
 43
0.00000001
 40
0.0
 40
0.0
 40
0.0
 40
0.0
 40
0.2500000000000002
 40
0.2500000000000002
 40
0.5000000000000003
 40
0.5000000000000003
 40
0.6250000000000002
 40
0.6250000000000002
 40
0.7500000000000002
 40
0.7500000000000002
 40
1.0
 40
1.0
 40
1.0
 40
1.0
 10
90.43140877598142
 20
40.34956735739585
 30
0.0
 10
91.1253530370293
 20
40.75021626331444
 30
0.0
 10
91.82435676357352
 20
41.1537862529993
 30
0.0
 10
93.23694255397388
 20
41.96934303934038
 30
0.0
 10
93.9506329955522
 20
42.3813924079037
 30
0.0
 10
95.03461511428931
 20
43.0072297759533
 30
0.0
 10
95.39764254260817
 20
43.21682375941642
 30
0.0
 10
96.11574910547193
 20
43.63142277679265
 30
0.0
 10
96.47239484205605
 20
43.83733228881482
 30
0.0
 10
97.53598246091188
 20
44.45139488686799
 30
0.0
 10
98.23659949347332
 20
44.85589631921616
 30
0.0
 10
98.9314087759815
 20
45.25704464550772
 30
0.0
  0
SPLINE
  5
DC
330
1F
100
AcDbEntity
  8
0
  6
Continuous
 62
     7
370
    25
100
AcDbSpline
210
0.0
220
0.0
230
1.0
 70
    24
 71
     3
 72
    16
 73
    12
 74
     0
 42
0.00000001
 43
0.00000001
 40
0.0
 40
0.0
 40
0.0
 40
0.0
 40
0.2500000000000003
 40
0.2500000000000003
 40
0.5000000000000004
 40
0.5000000000000004
 40
0.6250000000000003
 40
0.6250000000000003
 40
0.7500000000000002
 40
0.7500000000000002
 40
1.0
 40
1.0
 40
1.0
 40
1.0
 10
98.93140877598142
 20
45.25704464550773
 30
0.0
 10
99.6253530370293
 20
44.85639573958915
 30
0.0
 10
100.3243567635735
 20
44.45282574990429
 30
0.0
 10
101.7369425539739
 20
43.6372689635632
 30
0.0
 10
102.4506329955522
 20
43.22521959499989
 30
0.0
 10
103.5346151142893
 20
42.59938222695029
 30
0.0
 10
103.8976425426082
 20
42.38978824348717
 30
0.0
 10
104.6157491054719
 20
41.97518922611094
 30
0.0
 10
104.9723948420561
 20
41.76927971408877
 30
0.0
 10
106.0359824609119
 20
41.15521711603561
 30
0.0
 10
106.7365994934733
 20
40.75071568368742
 30
0.0
 10
107.4314087759815
 20
40.34956735739586
 30
0.0
  0
SPLINE
  5
DD
330
1F
100
AcDbEntity
  8
0
  6
Continuous
 62
     7
370
    25
100
AcDbSpline
210
0.0
220
0.0
230
1.0
 70
    24
 71
     3
 72
    14
 73
    10
 74
     0
 42
0.00000001
 43
0.00000001
 40
0.0
 40
0.0
 40
0.0
 40
0.0
 40
0.25
 40
0.25
 40
0.5
 40
0.5
 40
0.75
 40
0.75
 40
1.0
 40
1.0
 40
1.0
 40
1.0
 10
107.4314087759815
 20
40.34956735739588
 30
0.0
 10
107.4314087759815
 20
39.55070079768579
 30
0.0
 10
107.4314087759815
 20
38.74445240334271
 30
0.0
 10
107.4314087759815
 20
37.11036736017015
 30
0.0
 10
107.4314087759815
 20
36.2815220000457
 30
0.0
 10
107.4314087759815
 20
34.60015107544104
 30
0.0
 10
107.4314087759815
 20
33.77274769011022
 30
0.0
 10
107.4314087759815
 20
32.13945531272635
 30
0.0
 10
107.4314087759815
 20
31.33340594228127
 30
0.0
 10
107.4314087759815
 20
30.53461278117224
 30
0.0
  0
SPLINE
  5
DE
330
1F
100
AcDbEntity
  8
0
  6
Continuous
 62
     7
370
    25
100
AcDbSpline
210
0.0
220
0.0
230
1.0
 70
    24
 71
     3
 72
    16
 73
    12
 74
     0
 42
0.00000001
 43
0.00000001
 40
0.0
 40
0.0
 40
0.0
 40
0.0
 40
0.25
 40
0.25
 40
0.5
 40
0.5
 40
0.625
 40
0.625
 40
0.75
 40
0.75
 40
1.0
 40
1.0
 40
1.0
 40
1.0
 10
107.4314087759815
 20
30.53461278117227
 30
0.0
 10
106.7374645149336
 20
30.13396387525368
 30
0.0
 10
106.0384607883894
 20
29.73039388556883
 30
0.0
 10
104.6258749979891
 20
28.91483709922774
 30
0.0
 10
103.9121845564107
 20
28.50278773066443
 30
0.0
 10
102.8282024376737
 20
27.87695036261482
 30
0.0
 10
102.4651750093548
 20
27.66735637915171
 30
0.0
 10
101.747068446491
 20
27.25275736177547
 30
0.0
 10
101.3904227099069
 20
27.0468478497533
 30
0.0
 10
100.3268350910511
 20
26.43278525170014
 30
0.0
 10
99.62621805848963
 20
26.02828381935196
 30
0.0
 10
98.93140877598144
 20
25.6271354930604
 30
0.0
  0
SPLINE
  5
DF
330
1F
100
AcDbEntity
  8
0
  6
Continuous
 62
     7
370
    25
100
AcDbSpline
210
0.0
220
0.0
230
1.0
 70
    24
 71
     3
 72
    16
 73
    12
 74
     0
 42
0.00000001
 43
0.00000001
 40
0.0
 40
0.0
 40
0.0
 40
0.0
 40
0.2500000000000001
 40
0.2500000000000001
 40
0.5
 40
0.5
 40
0.625
 40
0.625
 40
0.75
 40
0.75
 40
1.0
 40
1.0
 40
1.0
 40
1.0
 10
98.93140877598152
 20
25.62713549306039
 30
0.0
 10
98.23746451493365
 20
26.02778439897898
 30
0.0
 10
97.53846078838943
 20
26.43135438866383
 30
0.0
 10
96.12587499798909
 20
27.24691117500491
 30
0.0
 10
95.41218455641075
 20
27.65896054356823
 30
0.0
 10
94.32820243767365
 20
28.28479791161783
 30
0.0
 10
93.96517500935478
 20
28.49439189508095
 30
0.0
 10
93.24706844649101
 20
28.90899091245718
 30
0.0
 10
92.8904227099069
 20
29.11490042447936
 30
0.0
 10
91.82683509105108
 20
29.72896302253252
 30
0.0
 10
91.12621805848964
 20
30.1334644548807
 30
0.0
 10
90.43140877598145
 20
30.53461278117225
 30
0.0
  0
SPLINE
  5
E0
330
1F
100
AcDbEntity
  8
0
  6
Continuous
 62
     7
370
    25
100
AcDbSpline
210
0.0
220
0.0
230
1.0
 70
    24
 71
     3
 72
    14
 73
    10
 74
     0
 42
0.00000001
 43
0.00000001
 40
0.0
 40
0.0
 40
0.0
 40
0.0
 40
0.2500000000000001
 40
0.2500000000000001
 40
0.5000000000000001
 40
0.5000000000000001
 40
0.7500000000000002
 40
0.7500000000000002
 40
1.0
 40
1.0
 40
1.0
 40
1.0
 10
90.43140877598148
 20
30.53461278117224
 30
0.0
 10
90.43140877598148
 20
31.33347934088232
 30
0.0
 10
90.43140877598148
 20
32.13972773522541
 30
0.0
 10
90.43140877598148
 20
33.77381277839797
 30
0.0
 10
90.43140877598148
 20
34.60265813852242
 30
0.0
 10
90.43140877598148
 20
36.28402906312707
 30
0.0
 10
90.43140877598148
 20
37.1114324484579
 30
0.0
 10
90.43140877598148
 20
38.74472482584177
 30
0.0
 10
90.43140877598148
 20
39.55077419628685
 30
0.0
 10
90.43140877598148
 20
40.34956735739588
 30
0.0
  0
CIRCLE
  5
E1
330
1F
100
AcDbEntity
  8
0
  6
Continuous
 62
     7
370
    25
100
AcDbCircle
 10
98.931408776
 20
35.4420900693
 30
0.0
 40
8.249999999999986
  0
CIRCLE
  5
E2
330
1F
100
AcDbEntity
  8
0
  6
Continuous
 62
     7
370
    25
100
AcDbCircle
 10
98.931408776
 20
35.4420900693
 30
0.0
 40
5.398781499999998
  0
CIRCLE
  5
E3
330
1F
100
AcDbEntity
  8
0
  6
Continuous
 62
     7
370
    25
100
AcDbCircle
 10
98.931408776
 20
35.4420900693
 30
0.0
 40
4.397525676364111
  0
CIRCLE
  5
E4
330
1F
100
AcDbEntity
  8
0
  6
Continuous
 62
     7
370
    25
100
AcDbCircle
 10
98.931408776
 20
35.4420900693
 30
0.0
 40
4.250000000000014
  0
INSERT
  5
F0
330
1F
100
AcDbEntity
  8
FORMAT
100
AcDbBlockReference
  2
SW_CENTERMARKSYMBOL_0
 10
98.931408776
 20
35.4420900693
 30
0.0
  0
ARC
  5
F1
330
1F
100
AcDbEntity
  8
0
  6
Continuous
 62
     7
370
    18
100
AcDbCircle
 10
98.931408776
 20
35.4420900693
 30
0.0
 40
5.008933276221648
100
AcDbArc
 50
75.0
 51
345.0
  0
LINE
  5
F2
330
1F
100
AcDbEntity
  8
0
  6
Continuous
 62
     7
370
    25
100
AcDbLine
 10
84.0464534258
 20
51.6765011547
 30
0.0
 11
84.1907909931
 21
51.9265011547
 31
0.0
  0
LINE
  5
F3
330
1F
100
AcDbEntity
  8
0
  6
Continuous
 62
     7
370
    25
100
AcDbLine
 10
84.1907909931
 20
68.4265011547
 30
0.0
 11
84.0464534258
 21
68.6765011547
 31
0.0
  0
LINE
  5
F4
330
1F
100
AcDbEntity
  8
0
  6
Continuous
 62
     7
370
    25
100
AcDbLine
 10
79.3351285604
 20
68.6765011547
 30
0.0
 11
79.1907909931
 21
68.4265011547
 31
0.0
  0
LINE
  5
F5
330
1F
100
AcDbEntity
  8
0
  6
Continuous
 62
     7
370
    25
100
AcDbLine
 10
79.1907909931
 20
51.9265011547
 30
0.0
 11
79.3351285604
 21
51.6765011547
 31
0.0
  0
LINE
  5
F6
330
1F
100
AcDbEntity
  8
0
  6
Continuous
 62
     7
370
    25
100
AcDbLine
 10
79.1907909931
 20
67.2099386547
 30
0.0
 11
67.1920813157
 21
66.8349789773
 31
0.0
  0
LINE
  5
F7
330
1F
100
AcDbEntity
  8
0
  6
Continuous
 62
     7
370
    25
100
AcDbLine
 10
67.1920813157
 20
53.5180233322
 30
0.0
 11
79.1907909931
 21
53.1430636547
 31
0.0
  0
LINE
  5
F8
330
1F
100
AcDbEntity
  8
0
  6
Continuous
 62
     7
370
    25
100
AcDbLine
 10
67.1920813157
 20
66.8349789773
 30
0.0
 11
66.1907909931
 21
65.8336886547
 31
0.0
  0
LINE
  5
F9
330
1F
100
AcDbEntity
  8
0
  6
Continuous
 62
     7
370
    25
100
AcDbLine
 10
66.1907909931
 20
54.5193136547
 30
0.0
 11
67.1920813157
 21
53.5180233322
 31
0.0
  0
SPLINE
  5
FA
330
1F
100
AcDbEntity
  8
0
  6
Continuous
 62
     7
370
    25
100
AcDbSpline
210
0.0
220
0.0
230
1.0
 70
     8
 71
     3
 72
    16
 73
    12
 74
     0
 42
0.00000001
 43
0.00000001
 40
0.0
 40
0.0
 40
0.0
 40
0.0
 40
0.2500000000000002
 40
0.2500000000000002
 40
0.5000000000000003
 40
0.5000000000000003
 40
0.6250000000000002
 40
0.6250000000000002
 40
0.7500000000000002
 40
0.7500000000000002
 40
1.0
 40
1.0
 40
1.0
 40
1.0
 10
83.28726404721972
 20
51.67650115473436
 30
0.0
 10
83.51857880090236
 20
52.37044541578224
 30
0.0
 10
83.7092240942328
 20
53.06944914232645
 30
0.0
 10
83.9733297506401
 20
54.4820349327268
 30
0.0
 10
84.04591894195407
 20
55.19572537430513
 30
0.0
 10
84.04671618804501
 20
56.27970749304223
 30
0.0
 10
84.02897093142157
 20
56.6427349213611
 30
0.0
 10
83.95977384789178
 20
57.36084148422487
 30
0.0
 10
83.9083922418295
 20
57.71748722080898
 30
0.0
 10
83.70998424309289
 20
58.7810748396648
 30
0.0
 10
83.51886714138892
 20
59.48169187222624
 30
0.0
 10
83.28726404721954
 20
60.17650115473443
 30
0.0
  0
SPLINE
  5
FB
330
1F
100
AcDbEntity
  8
0
  6
Continuous
 62
     7
370
    25
100
AcDbSpline
210
0.0
220
0.0
230
1.0
 70
     8
 71
     3
 72
    16
 73
    12
 74
     0
 42
0.00000001
 43
0.00000001
 40
0.0
 40
0.0
 40
0.0
 40
0.0
 40
0.2500000000000003
 40
0.2500000000000003
 40
0.5000000000000004
 40
0.5000000000000004
 40
0.6250000000000003
 40
0.6250000000000003
 40
0.7500000000000002
 40
0.7500000000000002
 40
1.0
 40
1.0
 40
1.0
 40
1.0
 10
83.28726404721972
 20
60.17650115473435
 30
0.0
 10
83.51857880090236
 20
60.87044541578223
 30
0.0
 10
83.7092240942328
 20
61.56944914232644
 30
0.0
 10
83.9733297506401
 20
62.9820349327268
 30
0.0
 10
84.04591894195407
 20
63.69572537430513
 30
0.0
 10
84.04671618804501
 20
64.77970749304224
 30
0.0
 10
84.02897093142157
 20
65.14273492136111
 30
0.0
 10
83.95977384789178
 20
65.86084148422488
 30
0.0
 10
83.9083922418295
 20
66.21748722080899
 30
0.0
 10
83.70998424309289
 20
67.28107483966481
 30
0.0
 10
83.51886714138892
 20
67.98169187222626
 30
0.0
 10
83.28726404721954
 20
68.67650115473444
 30
0.0
  0
SPLINE
  5
FC
330
1F
100
AcDbEntity
  8
0
  6
Continuous
 62
     7
370
    25
100
AcDbSpline
210
0.0
220
0.0
230
1.0
 70
    24
 71
     3
 72
    14
 73
    10
 74
     0
 42
0.00000001
 43
0.00000001
 40
0.0
 40
0.0
 40
0.0
 40
0.0
 40
0.1638183221145663
 40
0.3276822632941948
 40
0.491462539743855
 40
0.6582745603501278
 40
0.8251905007315702
 40
0.9919717979601547
 40
1.0
 40
1.0
 40
1.0
 40
1.0
 10
83.28726404721932
 20
68.67650115473441
 30
0.0
 10
83.36030721012386
 20
68.67650115473441
 30
0.0
 10
83.50641387651972
 20
68.67650115473441
 30
0.0
 10
83.68975802701165
 20
68.67650115473441
 30
0.0
 10
83.84212915302446
 20
68.67650115473441
 30
0.0
 10
83.9571210020619
 20
68.67650115473441
 30
0.0
 10
84.02468711841816
 20
68.67650115473441
 30
0.0
 10
84.05352917601708
 20
68.6765011547344
 30
0.0
 10
84.04573009230842
 20
68.67650115473441
 30
0.0
 10
84.04537191600794
 20
68.67650115473441
 30
0.0
  0
SPLINE
  5
FD
330
1F
100
AcDbEntity
  8
0
  6
Continuous
 62
     7
370
    25
100
AcDbSpline
210
0.0
220
0.0
230
1.0
 70
    24
 71
     3
 72
    13
 73
     9
 74
     0
 42
0.00000001
 43
0.00000001
 40
0.0
 40
0.0
 40
0.0
 40
0.0
 40
0.1580736792365672
 40
0.3243087548702502
 40
0.4904390740748464
 40
0.6602462230940723
 40
0.830148623820693
 40
1.0
 40
1.0
 40
1.0
 40
1.0
 10
84.04537191600794
 20
51.6765011547344
 30
0.0
 10
84.04162795967241
 20
51.6765011547344
 30
0.0
 10
84.0339467452961
 20
51.6765011547344
 30
0.0
 10
83.9651101113974
 20
51.6765011547344
 30
0.0
 10
83.85546333677559
 20
51.6765011547344
 30
0.0
 10
83.70238341379307
 20
51.6765011547344
 30
0.0
 10
83.51424095979006
 20
51.6765011547344
 30
0.0
 10
83.36291544267259
 20
51.67650115473441
 30
0.0
 10
83.28726404721932
 20
51.6765011547344
 30
0.0
  0
LINE
  5
FE
330
1F
100
AcDbEntity
  8
0
  6
Continuous
 62
     7
370
    25
100
AcDbLine
 10
84.1907909931
 20
51.9265011547
 30
0.0
 11
84.1907909931
 21
68.4265011547
 31
0.0
  0
SPLINE
  5
FF
330
1F
100
AcDbEntity
  8
0
  6
Continuous
 62
     7
370
    25
100
AcDbSpline
210
0.0
220
0.0
230
1.0
 70
     8
 71
     3
 72
    16
 73
    12
 74
     0
 42
0.00000001
 43
0.00000001
 40
0.0
 40
0.0
 40
0.0
 40
0.0
 40
0.2500000000000003
 40
0.2500000000000003
 40
0.5000000000000004
 40
0.5000000000000004
 40
0.6250000000000003
 40
0.6250000000000003
 40
0.7500000000000002
 40
0.7500000000000002
 40
1.0
 40
1.0
 40
1.0
 40
1.0
 10
80.09431793892342
 20
60.17650115473435
 30
0.0
 10
79.86300318524079
 20
60.87044541578223
 30
0.0
 10
79.67235789191035
 20
61.56944914232644
 30
0.0
 10
79.40825223550304
 20
62.9820349327268
 30
0.0
 10
79.33566304418909
 20
63.69572537430513
 30
0.0
 10
79.33486579809814
 20
64.77970749304224
 30
0.0
 10
79.35261105472158
 20
65.14273492136111
 30
0.0
 10
79.42180813825136
 20
65.86084148422488
 30
0.0
 10
79.47318974431366
 20
66.21748722080899
 30
0.0
 10
79.67159774305027
 20
67.28107483966481
 30
0.0
 10
79.86271484475422
 20
67.98169187222626
 30
0.0
 10
80.09431793892362
 20
68.67650115473444
 30
0.0
  0
LINE
  5
100
330
1F
100
AcDbEntity
  8
0
  6
Continuous
 62
     7
370
    25
100
AcDbLine
 10
80.0943179389
 20
68.6765011547
 30
0.0
 11
83.2872640472
 21
68.6765011547
 31
0.0
  0
LINE
  5
101
330
1F
100
AcDbEntity
  8
0
  6
Continuous
 62
     7
370
    25
100
AcDbLine
 10
80.0943179389
 20
60.1765011547
 30
0.0
 11
83.2872640472
 21
60.1765011547
 31
0.0
  0
SPLINE
  5
102
330
1F
100
AcDbEntity
  8
0
  6
Continuous
 62
     7
370
    25
100
AcDbSpline
210
0.0
220
0.0
230
1.0
 70
    24
 71
     3
 72
    13
 73
     9
 74
     0
 42
0.00000001
 43
0.00000001
 40
0.0
 40
0.0
 40
0.0
 40
0.0
 40
0.1580736792365672
 40
0.3243087548702502
 40
0.4904390740748464
 40
0.6602462230940723
 40
0.830148623820693
 40
1.0
 40
1.0
 40
1.0
 40
1.0
 10
79.33621007013521
 20
51.6765011547344
 30
0.0
 10
79.33995402647075
 20
51.6765011547344
 30
0.0
 10
79.34763524084705
 20
51.6765011547344
 30
0.0
 10
79.41647187474577
 20
51.6765011547344
 30
0.0
 10
79.52611864936756
 20
51.6765011547344
 30
0.0
 10
79.67919857235007
 20
51.6765011547344
 30
0.0
 10
79.86734102635309
 20
51.6765011547344
 30
0.0
 10
80.01866654347056
 20
51.67650115473441
 30
0.0
 10
80.09431793892382
 20
51.6765011547344
 30
0.0
  0
SPLINE
  5
103
330
1F
100
AcDbEntity
  8
0
  6
Continuous
 62
     7
370
    25
100
AcDbSpline
210
0.0
220
0.0
230
1.0
 70
    24
 71
     3
 72
    14
 73
    10
 74
     0
 42
0.00000001
 43
0.00000001
 40
0.0
 40
0.0
 40
0.0
 40
0.0
 40
0.1638183221145663
 40
0.3276822632941948
 40
0.491462539743855
 40
0.6582745603501278
 40
0.8251905007315702
 40
0.9919717979601547
 40
1.0
 40
1.0
 40
1.0
 40
1.0
 10
80.09431793892382
 20
68.67650115473441
 30
0.0
 10
80.0212747760193
 20
68.67650115473441
 30
0.0
 10
79.87516810962343
 20
68.67650115473441
 30
0.0
 10
79.69182395913151
 20
68.67650115473441
 30
0.0
 10
79.5394528331187
 20
68.67650115473441
 30
0.0
 10
79.42446098408125
 20
68.67650115473441
 30
0.0
 10
79.35689486772502
 20
68.67650115473441
 30
0.0
 10
79.32805281012607
 20
68.6765011547344
 30
0.0
 10
79.33585189383473
 20
68.67650115473441
 30
0.0
 10
79.33621007013522
 20
68.67650115473441
 30
0.0
  0
SPLINE
  5
104
330
1F
100
AcDbEntity
  8
0
  6
Continuous
 62
     7
370
    25
100
AcDbSpline
210
0.0
220
0.0
230
1.0
 70
     8
 71
     3
 72
    16
 73
    12
 74
     0
 42
0.00000001
 43
0.00000001
 40
0.0
 40
0.0
 40
0.0
 40
0.0
 40
0.2500000000000002
 40
0.2500000000000002
 40
0.5000000000000003
 40
0.5000000000000003
 40
0.6250000000000002
 40
0.6250000000000002
 40
0.7500000000000002
 40
0.7500000000000002
 40
1.0
 40
1.0
 40
1.0
 40
1.0
 10
80.09431793892341
 20
51.67650115473436
 30
0.0
 10
79.86300318524079
 20
52.37044541578224
 30
0.0
 10
79.67235789191035
 20
53.06944914232645
 30
0.0
 10
79.40825223550304
 20
54.4820349327268
 30
0.0
 10
79.33566304418909
 20
55.19572537430513
 30
0.0
 10
79.33486579809814
 20
56.27970749304223
 30
0.0
 10
79.35261105472158
 20
56.6427349213611
 30
0.0
 10
79.42180813825136
 20
57.36084148422487
 30
0.0
 10
79.47318974431366
 20
57.71748722080898
 30
0.0
 10
79.67159774305027
 20
58.7810748396648
 30
0.0
 10
79.86271484475422
 20
59.48169187222624
 30
0.0
 10
80.09431793892362
 20
60.17650115473443
 30
0.0
  0
LINE
  5
105
330
1F
100
AcDbEntity
  8
0
  6
Continuous
 62
     7
370
    25
100
AcDbLine
 10
79.1907909931
 20
51.9265011547
 30
0.0
 11
79.1907909931
 21
68.4265011547
 31
0.0
  0
LINE
  5
106
330
1F
100
AcDbEntity
  8
0
  6
Continuous
 62
     7
370
    25
100
AcDbLine
 10
80.0943179389
 20
51.6765011547
 30
0.0
 11
83.2872640472
 21
51.6765011547
 31
0.0
  0
LINE
  5
107
330
1F
100
AcDbEntity
  8
0
  6
Continuous
 62
     7
370
    25
100
AcDbLine
 10
67.1920813157
 20
66.8349789773
 30
0.0
 11
67.1920813157
 21
53.5180233322
 31
0.0
  0
LINE
  5
108
330
1F
100
AcDbEntity
  8
0
  6
Continuous
 62
     7
370
    25
100
AcDbLine
 10
66.1907909931
 20
60.1765011547
 30
0.0
 11
66.1907909931
 21
65.8336886547
 31
0.0
  0
LINE
  5
109
330
1F
100
AcDbEntity
  8
0
  6
Continuous
 62
     7
370
    25
100
AcDbLine
 10
66.1907909931
 20
54.5193136547
 30
0.0
 11
66.1907909931
 21
60.1765011547
 31
0.0
  0
LINE
  5
10A
330
1F
100
AcDbEntity
  8
0
  6
Continuous
 62
     7
370
    18
100
AcDbLine
 10
66.1907909931
 20
65.7766930827
 30
0.0
 11
77.7907909931
 21
66.1391930827
 31
0.0
  0
LINE
  5
10B
330
1F
100
AcDbEntity
  8
0
  6
Continuous
 62
     7
370
    18
100
AcDbLine
 10
66.1907909931
 20
54.5763092268
 30
0.0
 11
77.7907909931
 21
54.2138092268
 31
0.0
  0
LINE
  5
10C
330
1F
100
AcDbEntity
  8
0
  6
Continuous
 62
     7
370
    25
100
AcDbLine
 10
77.7907909931
 20
53.1868136547
 30
0.0
 11
77.7907909931
 21
67.1661886547
 31
0.0
  0
LINE
  5
10D
330
1F
100
AcDbEntity
  8
FORMAT
  6
CENTERX2
370
    18
100
AcDbLine
 10
85.1687406661
 20
60.1765011547
 30
0.0
 11
65.1907909931
 21
60.1765011547
 31
0.0
  0
ENDSEC
  0
SECTION
  2
OBJECTS
  0
DICTIONARY
  5
C
330
0
100
AcDbDictionary
281
     1
  3
ACAD_GROUP
350
D
  3
ACAD_LAYOUT
350
1A
  3
ACAD_MLINESTYLE
350
17
  3
ACAD_PLOTSETTINGS
350
19
  3
ACAD_PLOTSTYLENAME
350
E
  3
ACAD_SCALELIST
350
47
  3
DWGPROPS
350
10E
  0
DICTIONARY
  5
D
102
{ACAD_REACTORS
330
C
102
}
330
C
100
AcDbDictionary
281
     1
  0
DICTIONARY
  5
1A
102
{ACAD_REACTORS
330
C
102
}
330
C
100
AcDbDictionary
281
     1
  3
Layout1
350
1E
  3
Layout2
350
26
  3
Model
350
22
  0
DICTIONARY
  5
17
102
{ACAD_REACTORS
330
C
102
}
330
C
100
AcDbDictionary
281
     1
  3
Standard
350
18
  0
DICTIONARY
  5
19
102
{ACAD_REACTORS
330
C
102
}
330
C
100
AcDbDictionary
281
     1
  0
ACDBDICTIONARYWDFLT
  5
E
102
{ACAD_REACTORS
330
C
102
}
330
C
100
AcDbDictionary
281
     1
  3
Normal
350
F
100
AcDbDictionaryWithDefault
340
F
  0
DICTIONARY
  5
47
102
{ACAD_REACTORS
330
C
102
}
330
C
100
AcDbDictionary
281
     1
  3
A0
350
48
  3
A1
350
49
  3
A2
350
4A
  3
A3
350
4B
  3
A4
350
4C
  3
A5
350
4D
  3
A6
350
4E
  3
A7
350
4F
  3
A8
350
50
  3
A9
350
51
  3
B0
350
52
  3
B1
350
53
  3
B2
350
54
  3
B3
350
55
  3
B4
350
56
  3
B5
350
57
  3
B6
350
58
  0
XRECORD
  5
10E
102
{ACAD_REACTORS
330
C
102
}
330
C
100
AcDbXrecord
280
     1
  1
DWGPROPS COOKIE
  2

  3

  4

  6

  7

  8
user28
  9

300
=
301
=
302
=
303
=
304
=
305
=
306
=
307
=
308
=
309
=
 40
0.0
 41
2460398.302676169
 42
2460398.302676771
  1

 90
        0
  0
LAYOUT
  5
1E
102
{ACAD_REACTORS
330
1A
102
}
330
1A
100
AcDbPlotSettings
  1

  2
none_device
  4

  6

 40
0.0
 41
0.0
 42
0.0
 43
0.0
 44
0.0
 45
0.0
 46
0.0
 47
0.0
 48
0.0
 49
0.0
140
0.0
141
0.0
142
1.0
143
1.0
 70
   688
 72
     1
 73
     0
 74
     5
  7

 75
    16
147
1.0
148
0.0
149
0.0
100
AcDbLayout
  1
Layout1
 70
     1
 71
     1
 10
0.0
 20
0.0
 11
420.0
 21
297.0
 12
0.0
 22
0.0
 32
0.0
 14
1.0000000000E+20
 24
1.0000000000E+20
 34
1.0000000000E+20
 15
-1.0000000000E+20
 25
-1.0000000000E+20
 35
-1.0000000000E+20
146
0.0
 13
0.0
 23
0.0
 33
0.0
 16
1.0
 26
0.0
 36
0.0
 17
0.0
 27
1.0
 37
0.0
 76
     0
330
1B
  0
LAYOUT
  5
26
102
{ACAD_REACTORS
330
1A
102
}
330
1A
100
AcDbPlotSettings
  1

  2
none_device
  4

  6

 40
0.0
 41
0.0
 42
0.0
 43
0.0
 44
0.0
 45
0.0
 46
0.0
 47
0.0
 48
0.0
 49
0.0
140
0.0
141
0.0
142
1.0
143
1.0
 70
   688
 72
     1
 73
     0
 74
     5
  7

 75
    16
147
1.0
148
0.0
149
0.0
100
AcDbLayout
  1
Layout2
 70
     1
 71
     2
 10
0.0
 20
0.0
 11
0.0
 21
0.0
 12
0.0
 22
0.0
 32
0.0
 14
0.0
 24
0.0
 34
0.0
 15
0.0
 25
0.0
 35
0.0
146
0.0
 13
0.0
 23
0.0
 33
0.0
 16
1.0
 26
0.0
 36
0.0
 17
0.0
 27
1.0
 37
0.0
 76
     0
330
23
  0
LAYOUT
  5
22
102
{ACAD_REACTORS
330
1A
102
}
330
1A
100
AcDbPlotSettings
  1

  2
none_device
  4
Letter_(8.50_x_11.00_Inches)
  6

 40
6.35
 41
6.35
 42
6.35000508
 43
6.35000508
 44
215.9
 45
279.4
 46
0.0
 47
0.0
 48
0.0
 49
0.0
140
0.0
141
0.0
142
1.0
143
1.0
 70
  1712
 72
     1
 73
     0
 74
     0
  7

 75
     0
147
1.0
148
0.0
149
0.0
100
AcDbLayout
  1
Model
 70
     1
 71
     0
 10
0.0
 20
0.0
 11
148.5
 21
105.0
 12
0.0
 22
0.0
 32
0.0
 14
0.0
 24
0.0
 34
0.0
 15
148.5
 25
105.0
 35
0.0
146
0.0
 13
0.0
 23
0.0
 33
0.0
 16
1.0
 26
0.0
 36
0.0
 17
0.0
 27
1.0
 37
0.0
 76
     0
330
1F
331
29
  0
MLINESTYLE
  5
18
102
{ACAD_REACTORS
330
17
102
}
330
17
100
AcDbMlineStyle
  2
Standard
 70
     0
  3

 62
   256
 51
90.0
 52
90.0
 71
     2
 49
0.5
 62
   256
  6
BYLAYER
 49
-0.5
 62
   256
  6
BYLAYER
  0
ACDBPLACEHOLDER
  5
F
102
{ACAD_REACTORS
330
E
102
}
330
E
  0
SCALE
  5
48
102
{ACAD_REACTORS
330
47
102
}
330
47
100
AcDbScale
 70
     0
300
1:1
140
1.0
141
1.0
290
     1
  0
SCALE
  5
49
102
{ACAD_REACTORS
330
47
102
}
330
47
100
AcDbScale
 70
     0
300
1:2
140
1.0
141
2.0
290
     0
  0
SCALE
  5
4A
102
{ACAD_REACTORS
330
47
102
}
330
47
100
AcDbScale
 70
     0
300
1:4
140
1.0
141
4.0
290
     0
  0
SCALE
  5
4B
102
{ACAD_REACTORS
330
47
102
}
330
47
100
AcDbScale
 70
     0
300
1:5
140
1.0
141
5.0
290
     0
  0
SCALE
  5
4C
102
{ACAD_REACTORS
330
47
102
}
330
47
100
AcDbScale
 70
     0
300
1:8
140
1.0
141
8.0
290
     0
  0
SCALE
  5
4D
102
{ACAD_REACTORS
330
47
102
}
330
47
100
AcDbScale
 70
     0
300
1:10
140
1.0
141
10.0
290
     0
  0
SCALE
  5
4E
102
{ACAD_REACTORS
330
47
102
}
330
47
100
AcDbScale
 70
     0
300
1:16
140
1.0
141
16.0
290
     0
  0
SCALE
  5
4F
102
{ACAD_REACTORS
330
47
102
}
330
47
100
AcDbScale
 70
     0
300
1:20
140
1.0
141
20.0
290
     0
  0
SCALE
  5
50
102
{ACAD_REACTORS
330
47
102
}
330
47
100
AcDbScale
 70
     0
300
1:30
140
1.0
141
30.0
290
     0
  0
SCALE
  5
51
102
{ACAD_REACTORS
330
47
102
}
330
47
100
AcDbScale
 70
     0
300
1:40
140
1.0
141
40.0
290
     0
  0
SCALE
  5
52
102
{ACAD_REACTORS
330
47
102
}
330
47
100
AcDbScale
 70
     0
300
1:50
140
1.0
141
50.0
290
     0
  0
SCALE
  5
53
102
{ACAD_REACTORS
330
47
102
}
330
47
100
AcDbScale
 70
     0
300
1:100
140
1.0
141
100.0
290
     0
  0
SCALE
  5
54
102
{ACAD_REACTORS
330
47
102
}
330
47
100
AcDbScale
 70
     0
300
2:1
140
2.0
141
1.0
290
     0
  0
SCALE
  5
55
102
{ACAD_REACTORS
330
47
102
}
330
47
100
AcDbScale
 70
     0
300
4:1
140
4.0
141
1.0
290
     0
  0
SCALE
  5
56
102
{ACAD_REACTORS
330
47
102
}
330
47
100
AcDbScale
 70
     0
300
8:1
140
8.0
141
1.0
290
     0
  0
SCALE
  5
57
102
{ACAD_REACTORS
330
47
102
}
330
47
100
AcDbScale
 70
     0
300
10:1
140
10.0
141
1.0
290
     0
  0
SCALE
  5
58
102
{ACAD_REACTORS
330
47
102
}
330
47
100
AcDbScale
 70
     0
300
100:1
140
100.0
141
1.0
290
     0
  0
ENDSEC
  0
EOF
