  0
SECTION
  2
HEADER
  9
$ACADVER
  1
AC1015
  9
$ACADMAINTVER
 70
     6
  9
$DWGCODEPAGE
  3
DOS932
  9
$INSBASE
 10
0.0
 20
0.0
 30
0.0
  9
$EXTMIN
 10
0.0
 20
0.0
 30
0.0
  9
$EXTMAX
 10
297.0
 20
210.0
 30
0.0
  9
$LIMMIN
 10
0.0
 20
0.0
  9
$LIMMAX
 10
297.0
 20
210.0
  9
$ORTHOMODE
 70
     0
  9
$REGENMODE
 70
     1
  9
$FILLMODE
 70
     1
  9
$QTEXTMODE
 70
     0
  9
$MIRRTEXT
 70
     1
  9
$LTSCALE
 40
1.0
  9
$ATTMODE
 70
     1
  9
$TEXTSIZE
 40
3.5277777778
  9
$TRACEWID
 40
1.0
  9
$TEXTSTYLE
  7
Standard
  9
$CLAYER
  8
0
  9
$CELTYPE
  6
ByLayer
  9
$CECOLOR
 62
   256
  9
$CELTSCALE
 40
1.0
  9
$DISPSILH
 70
     0
  9
$DIMSCALE
 40
1.0
  9
$DIMASZ
 40
2.728515625
  9
$DIMEXO
 40
1.0
  9
$DIMDLI
 40
3.75
  9
$DIMRND
 40
0.0
  9
$DIMDLE
 40
0.0
  9
$DIMEXE
 40
1.0
  9
$DIMTP
 40
0.0
  9
$DIMTM
 40
0.0
  9
$DIMTXT
 40
3.5277777778
  9
$DIMCEN
 40
2.5
  9
$DIMTSZ
 40
0.0
  9
$DIMTOL
 70
     0
  9
$DIMLIM
 70
     0
  9
$DIMTIH
 70
     1
  9
$DIMTOH
 70
     1
  9
$DIMSE1
 70
     0
  9
$DIMSE2
 70
     0
  9
$DIMTAD
 70
     1
  9
$DIMZIN
 70
     0
  9
$DIMBLK
  1

  9
$DIMASO
 70
     1
  9
$DIMSHO
 70
     1
  9
$DIMPOST
  1

  9
$DIMAPOST
  1

  9
$DIMALT
 70
     0
  9
$DIMALTD
 70
     3
  9
$DIMALTF
 40
0.0393700787
  9
$DIMLFAC
 40
1.0
  9
$DIMTOFL
 70
     1
  9
$DIMTVP
 40
0.0
  9
$DIMTIX
 70
     0
  9
$DIMSOXD
 70
     0
  9
$DIMSAH
 70
     0
  9
$DIMBLK1
  1

  9
$DIMBLK2
  1

  9
$DIMSTYLE
  2
ISO-25
  9
$DIMCLRD
 70
     0
  9
$DIMCLRE
 70
     0
  9
$DIMCLRT
 70
     0
  9
$DIMTFAC
 40
1.0
  9
$DIMGAP
 40
1.524
  9
$DIMJUST
 70
     0
  9
$DIMSD1
 70
     0
  9
$DIMSD2
 70
     0
  9
$DIMTOLJ
 70
     0
  9
$DIMTZIN
 70
     0
  9
$DIMALTZ
 70
     0
  9
$DIMALTTZ
 70
     0
  9
$DIMUPT
 70
     0
  9
$DIMDEC
 70
     2
  9
$DIMTDEC
 70
     2
  9
$DIMALTU
 70
     2
  9
$DIMALTTD
 70
     3
  9
$DIMTXSTY
  7
Standard
  9
$DIMAUNIT
 70
     0
  9
$DIMADEC
 70
     2
  9
$DIMALTRND
 40
0.0
  9
$DIMAZIN
 70
     0
  9
$DIMDSEP
 70
    44
  9
$DIMATFIT
 70
     3
  9
$DIMFRAC
 70
     0
  9
$DIMLDRBLK
  1

  9
$DIMLUNIT
 70
     2
  9
$DIMLWD
 70
    -2
  9
$DIMLWE
 70
    -2
  9
$DIMTMOVE
 70
     0
  9
$LUNITS
 70
     2
  9
$LUPREC
 70
     2
  9
$SKETCHINC
 40
1.0
  9
$FILLETRAD
 40
0.0
  9
$AUNITS
 70
     0
  9
$AUPREC
 70
     2
  9
$MENU
  1
.
  9
$ELEVATION
 40
0.0
  9
$PELEVATION
 40
0.0
  9
$THICKNESS
 40
0.0
  9
$LIMCHECK
 70
     0
  9
$CHAMFERA
 40
0.0
  9
$CHAMFERB
 40
0.0
  9
$CHAMFERC
 40
0.0
  9
$CHAMFERD
 40
0.0
  9
$SKPOLY
 70
     0
  9
$TDCREATE
 40
2460481.728752604
  9
$TDUCREATE
 40
2460481.353752604
  9
$TDUPDATE
 40
2460481.728753426
  9
$TDUUPDATE
 40
2460481.353753426
  9
$TDINDWG
 40
0.0000000116
  9
$TDUSRTIMER
 40
0.0000000116
  9
$USRTIMER
 70
     1
  9
$ANGBASE
 50
0.0
  9
$ANGDIR
 70
     0
  9
$PDMODE
 70
     0
  9
$PDSIZE
 40
-1.0
  9
$PLINEWID
 40
0.0
  9
$SPLFRAME
 70
     0
  9
$SPLINETYPE
 70
     6
  9
$SPLINESEGS
 70
     8
  9
$HANDSEED
  5
249
  9
$SURFTAB1
 70
     6
  9
$SURFTAB2
 70
     6
  9
$SURFTYPE
 70
     6
  9
$SURFU
 70
     6
  9
$SURFV
 70
     6
  9
$UCSBASE
  2

  9
$UCSNAME
  2

  9
$UCSORG
 10
0.0
 20
0.0
 30
0.0
  9
$UCSXDIR
 10
1.0
 20
0.0
 30
0.0
  9
$UCSYDIR
 10
0.0
 20
1.0
 30
0.0
  9
$UCSORTHOREF
  2

  9
$UCSORTHOVIEW
 70
     0
  9
$UCSORGTOP
 10
0.0
 20
0.0
 30
0.0
  9
$UCSORGBOTTOM
 10
0.0
 20
0.0
 30
0.0
  9
$UCSORGLEFT
 10
0.0
 20
0.0
 30
0.0
  9
$UCSORGRIGHT
 10
0.0
 20
0.0
 30
0.0
  9
$UCSORGFRONT
 10
0.0
 20
0.0
 30
0.0
  9
$UCSORGBACK
 10
0.0
 20
0.0
 30
0.0
  9
$PUCSBASE
  2

  9
$PUCSNAME
  2

  9
$PUCSORG
 10
0.0
 20
0.0
 30
0.0
  9
$PUCSXDIR
 10
1.0
 20
0.0
 30
0.0
  9
$PUCSYDIR
 10
0.0
 20
1.0
 30
0.0
  9
$PUCSORTHOREF
  2

  9
$PUCSORTHOVIEW
 70
     0
  9
$PUCSORGTOP
 10
0.0
 20
0.0
 30
0.0
  9
$PUCSORGBOTTOM
 10
0.0
 20
0.0
 30
0.0
  9
$PUCSORGLEFT
 10
0.0
 20
0.0
 30
0.0
  9
$PUCSORGRIGHT
 10
0.0
 20
0.0
 30
0.0
  9
$PUCSORGFRONT
 10
0.0
 20
0.0
 30
0.0
  9
$PUCSORGBACK
 10
0.0
 20
0.0
 30
0.0
  9
$USERI1
 70
     0
  9
$USERI2
 70
     0
  9
$USERI3
 70
     0
  9
$USERI4
 70
     0
  9
$USERI5
 70
     0
  9
$USERR1
 40
0.0
  9
$USERR2
 40
0.0
  9
$USERR3
 40
0.0
  9
$USERR4
 40
0.0
  9
$USERR5
 40
0.0
  9
$WORLDVIEW
 70
     1
  9
$SHADEDGE
 70
     3
  9
$SHADEDIF
 70
    70
  9
$TILEMODE
 70
     1
  9
$MAXACTVP
 70
    64
  9
$PINSBASE
 10
0.0
 20
0.0
 30
0.0
  9
$PLIMCHECK
 70
     0
  9
$PEXTMIN
 10
1.0000000000E+20
 20
1.0000000000E+20
 30
1.0000000000E+20
  9
$PEXTMAX
 10
-1.0000000000E+20
 20
-1.0000000000E+20
 30
-1.0000000000E+20
  9
$PLIMMIN
 10
0.0
 20
0.0
  9
$PLIMMAX
 10
420.0
 20
297.0
  9
$UNITMODE
 70
     0
  9
$VISRETAIN
 70
     1
  9
$PLINEGEN
 70
     0
  9
$PSLTSCALE
 70
     1
  9
$TREEDEPTH
 70
  3020
  9
$CMLSTYLE
  2
Standard
  9
$CMLJUST
 70
     0
  9
$CMLSCALE
 40
20.0
  9
$PROXYGRAPHICS
 70
     1
  9
$MEASUREMENT
 70
     1
  9
$CELWEIGHT
370
    -1
  9
$ENDCAPS
280
     0
  9
$JOINSTYLE
280
     0
  9
$LWDISPLAY
290
     1
  9
$INSUNITS
 70
     4
  9
$HYPERLINKBASE
  1

  9
$STYLESHEET
  1

  9
$XEDIT
290
     1
  9
$CEPSNTYPE
380
     0
  9
$PSTYLEMODE
290
     1
  9
$FINGERPRINTGUID
  2
{fcccd3a7-18ce-4566-beec-84af085266b1}
  9
$VERSIONGUID
  2
{FAEB1C32-E019-11D5-929B-00C0DF256EC4}
  9
$EXTNAMES
290
     1
  9
$PSVPSCALE
 40
0.0
  9
$OLESTARTUP
290
     0
  0
ENDSEC
  0
SECTION
  2
CLASSES
  0
CLASS
  1
ACDBDICTIONARYWDFLT
  2
AcDbDictionaryWithDefault
  3
ObjectDBX Classes
 90
        0
280
     0
281
     0
  0
CLASS
  1
VISUALSTYLE
  2
AcDbVisualStyle
  3
ObjectDBX Classes
 90
     4095
280
     0
281
     0
  0
CLASS
  1
MATERIAL
  2
AcDbMaterial
  3
ObjectDBX Classes
 90
     1153
280
     0
281
     0
  0
CLASS
  1
SCALE
  2
AcDbScale
  3
ObjectDBX Classes
 90
     1153
280
     0
281
     0
  0
CLASS
  1
TABLESTYLE
  2
AcDbTableStyle
  3
ObjectDBX Classes
 90
     4095
280
     0
281
     0
  0
CLASS
  1
MLEADERSTYLE
  2
AcDbMLeaderStyle
  3
ACDB_MLEADERSTYLE_CLASS
 90
     4095
280
     0
281
     0
  0
CLASS
  1
SUN
  2
AcDbSun
  3
SCENEOE
 90
     1153
280
     0
281
     0
  0
CLASS
  1
ACDBPLACEHOLDER
  2
AcDbPlaceHolder
  3
ObjectDBX Classes
 90
        0
280
     0
281
     0
  0
CLASS
  1
LAYOUT
  2
AcDbLayout
  3
ObjectDBX Classes
 90
        0
280
     0
281
     0
  0
ENDSEC
  0
SECTION
  2
TABLES
  0
TABLE
  2
VPORT
  5
8
330
0
100
AcDbSymbolTable
 70
     1
  0
VPORT
  5
29
330
8
100
AcDbSymbolTableRecord
100
AcDbViewportTableRecord
  2
*Active
 70
     0
 10
0.0
 20
0.0
 11
1.0
 21
1.0
 12
148.5
 22
105.0
 13
0.0
 23
0.0
 14
10.0
 24
10.0
 15
10.0
 25
10.0
 16
0.0
 26
0.0
 36
1.0
 17
0.0
 27
0.0
 37
0.0
 40
210.0
 41
1.4142857143
 42
50.0
 43
0.0
 44
0.0
 50
0.0
 51
0.0
 71
     0
 72
  2000
 73
     1
 74
     3
 75
     0
 76
     0
 77
     0
 78
     0
281
     0
 65
     1
110
0.0
120
0.0
130
0.0
111
1.0
121
0.0
131
0.0
112
0.0
122
1.0
132
0.0
 79
     0
146
0.0
  0
ENDTAB
  0
TABLE
  2
LTYPE
  5
5
330
0
100
AcDbSymbolTable
 70
     6
  0
LTYPE
  5
14
330
5
100
AcDbSymbolTableRecord
100
AcDbLinetypeTableRecord
  2
ByBlock
 70
     0
  3

 72
    65
 73
     0
 40
0.0
  0
LTYPE
  5
15
330
5
100
AcDbSymbolTableRecord
100
AcDbLinetypeTableRecord
  2
ByLayer
 70
     0
  3

 72
    65
 73
     0
 40
0.0
  0
LTYPE
  5
16
330
5
100
AcDbSymbolTableRecord
100
AcDbLinetypeTableRecord
  2
Continuous
 70
     0
  3
Solid line
 72
    65
 73
     0
 40
0.0
  0
LTYPE
  5
5E
330
5
100
AcDbSymbolTableRecord
100
AcDbLinetypeTableRecord
  2
HIDDEN
 70
     0
  3
Hidden __ __ __ __ __ __ __ __ __ __ __ __ __ __
 72
    65
 73
     2
 40
1.905
 49
1.27
 74
     0
 49
-0.635
 74
     0
  0
LTYPE
  5
5F
330
5
100
AcDbSymbolTableRecord
100
AcDbLinetypeTableRecord
  2
PHANTOM
 70
     0
  3
Phantom ______  __  __  ______  __  __  ______
 72
    65
 73
     6
 40
12.7
 49
6.35
 74
     0
 49
-1.27
 74
     0
 49
1.27
 74
     0
 49
-1.27
 74
     0
 49
1.27
 74
     0
 49
-1.27
 74
     0
  0
LTYPE
  5
60
330
5
100
AcDbSymbolTableRecord
100
AcDbLinetypeTableRecord
  2
CENTER
 70
     0
  3
Center ____ _ ____ _ ____ _ ____ _ ____ _ ____
 72
    65
 73
     4
 40
10.16
 49
6.35
 74
     0
 49
-1.27
 74
     0
 49
1.27
 74
     0
 49
-1.27
 74
     0
  0
LTYPE
  5
61
330
5
100
AcDbSymbolTableRecord
100
AcDbLinetypeTableRecord
  2
CENTERX2
 70
     0
  3
Center (2x) ________  __  ________  __  _____
 72
    65
 73
     4
 40
20.32
 49
12.7
 74
     0
 49
-2.54
 74
     0
 49
2.54
 74
     0
 49
-2.54
 74
     0
  0
LTYPE
  5
62
330
5
100
AcDbSymbolTableRecord
100
AcDbLinetypeTableRecord
  2
DOT2
 70
     0
  3
Dot (.5x) ........................................
 72
    65
 73
     2
 40
0.635
 49
0.0
 74
     0
 49
-0.635
 74
     0
  0
ENDTAB
  0
TABLE
  2
LAYER
  5
2
330
0
100
AcDbSymbolTable
 70
     2
  0
LAYER
  5
10
330
2
100
AcDbSymbolTableRecord
100
AcDbLayerTableRecord
  2
0
 70
     0
 62
     7
  6
Continuous
370
    -3
390
F
  0
LAYER
  5
63
330
2
100
AcDbSymbolTableRecord
100
AcDbLayerTableRecord
  2
FORMAT
 70
     0
 62
     7
  6
Continuous
370
    -3
390
F
  0
ENDTAB
  0
TABLE
  2
STYLE
  5
3
330
0
100
AcDbSymbolTable
 70
     2
  0
STYLE
  5
11
330
3
100
AcDbSymbolTableRecord
100
AcDbTextStyleTableRecord
  2
Standard
 70
     0
 40
0.0
 41
1.0
 50
0.0
 71
     0
 42
3.5277777778
  3
txt
  4
bigfont
  0
STYLE
  5
64
330
3
100
AcDbSymbolTableRecord
100
AcDbTextStyleTableRecord
  2
SLDTEXTSTYLE0
 70
     0
 40
0.0
 41
0.7
 50
0.0
 71
     0
 42
3.5277777778
  3
TXT
  4
bigfont
  0
ENDTAB
  0
TABLE
  2
VIEW
  5
6
330
0
100
AcDbSymbolTable
 70
     0
  0
ENDTAB
  0
TABLE
  2
UCS
  5
7
330
0
100
AcDbSymbolTable
 70
     0
  0
ENDTAB
  0
TABLE
  2
APPID
  5
9
330
0
100
AcDbSymbolTable
 70
     1
  0
APPID
  5
12
330
9
100
AcDbSymbolTableRecord
100
AcDbRegAppTableRecord
  2
ACAD
 70
     0
  0
ENDTAB
  0
TABLE
  2
DIMSTYLE
  5
A
330
0
100
AcDbSymbolTable
 70
     1
100
AcDbDimStyleTable
  0
DIMSTYLE
105
27
330
A
100
AcDbSymbolTableRecord
100
AcDbDimStyleTableRecord
  2
ISO-25
 70
     0
 41
2.5
 42
0.625
 43
3.75
 44
1.25
 73
     0
 74
     0
 77
     1
 78
     8
140
2.5
141
2.5
143
0.0393700787
147
0.625
171
     3
172
     1
178
     0
271
     2
272
     2
274
     3
278
    44
283
     0
284
     8
340
11
  0
ENDTAB
  0
TABLE
  2
BLOCK_RECORD
  5
1
330
0
100
AcDbSymbolTable
 70
     3
  0
BLOCK_RECORD
  5
1F
330
1
100
AcDbSymbolTableRecord
100
AcDbBlockTableRecord
  2
*Model_Space
340
22
  0
BLOCK_RECORD
  5
1B
330
1
100
AcDbSymbolTableRecord
100
AcDbBlockTableRecord
  2
*Paper_Space
340
1E
  0
BLOCK_RECORD
  5
23
330
1
100
AcDbSymbolTableRecord
100
AcDbBlockTableRecord
  2
*Paper_Space0
340
26
  0
BLOCK_RECORD
  5
182
330
1
100
AcDbSymbolTableRecord
100
AcDbBlockTableRecord
  2
SW_CENTERMARKSYMBOL_0
340
0
102
{BLKREFS
331
18D
102
}
  0
BLOCK_RECORD
  5
23A
330
1
100
AcDbSymbolTableRecord
100
AcDbBlockTableRecord
  2
SW_CENTERMARKSYMBOL_1
340
0
102
{BLKREFS
331
245
102
}
  0
ENDTAB
  0
ENDSEC
  0
SECTION
  2
BLOCKS
  0
BLOCK
  5
20
330
1F
100
AcDbEntity
  8
0
100
AcDbBlockBegin
  2
*Model_Space
 70
     0
 10
0.0
 20
0.0
 30
0.0
  3
*Model_Space
  1

  0
ENDBLK
  5
21
330
1F
100
AcDbEntity
  8
0
100
AcDbBlockEnd
  0
BLOCK
  5
1C
330
1B
100
AcDbEntity
 67
     1
  8
0
100
AcDbBlockBegin
  2
*Paper_Space
 70
     0
 10
0.0
 20
0.0
 30
0.0
  3
*Paper_Space
  1

  0
ENDBLK
  5
1D
330
1B
100
AcDbEntity
 67
     1
  8
0
100
AcDbBlockEnd
  0
BLOCK
  5
24
330
23
100
AcDbEntity
  8
0
100
AcDbBlockBegin
  2
*Paper_Space0
 70
     0
 10
0.0
 20
0.0
 30
0.0
  3
*Paper_Space0
  1

  0
ENDBLK
  5
25
330
23
100
AcDbEntity
  8
0
100
AcDbBlockEnd
  0
BLOCK
  5
183
330
182
100
AcDbEntity
  8
0
100
AcDbBlockBegin
  2
SW_CENTERMARKSYMBOL_0
 70
     0
 10
0.0
 20
0.0
 30
0.0
  3
SW_CENTERMARKSYMBOL_0
  1

  0
LINE
  5
185
330
182
100
AcDbEntity
  8
FORMAT
 62
     0
100
AcDbLine
 10
0.0
 20
0.0
 30
0.0
 11
0.0
 21
2.5
 31
0.0
  0
LINE
  5
186
330
182
100
AcDbEntity
  8
FORMAT
 62
     0
100
AcDbLine
 10
0.0
 20
0.0
 30
0.0
 11
-2.5
 21
0.0
 31
0.0
  0
LINE
  5
187
330
182
100
AcDbEntity
  8
FORMAT
 62
     0
100
AcDbLine
 10
0.0
 20
0.0
 30
0.0
 11
0.0
 21
-2.5
 31
0.0
  0
LINE
  5
188
330
182
100
AcDbEntity
  8
FORMAT
 62
     0
100
AcDbLine
 10
0.0
 20
0.0
 30
0.0
 11
2.5
 21
0.0
 31
0.0
  0
LINE
  5
189
330
182
100
AcDbEntity
  8
FORMAT
 62
     0
100
AcDbLine
 10
0.0
 20
5.0
 30
0.0
 11
0.0
 21
29.7458541285
 31
0.0
  0
LINE
  5
18A
330
182
100
AcDbEntity
  8
FORMAT
 62
     0
100
AcDbLine
 10
-5.0
 20
0.0
 30
0.0
 11
-12.5
 21
0.0
 31
0.0
  0
LINE
  5
18B
330
182
100
AcDbEntity
  8
FORMAT
 62
     0
100
AcDbLine
 10
0.0
 20
-5.0
 30
0.0
 11
0.0
 21
-12.5
 31
0.0
  0
LINE
  5
18C
330
182
100
AcDbEntity
  8
FORMAT
 62
     0
100
AcDbLine
 10
5.0
 20
0.0
 30
0.0
 11
12.5
 21
0.0
 31
0.0
  0
ENDBLK
  5
184
330
182
100
AcDbEntity
  8
0
100
AcDbBlockEnd
  0
BLOCK
  5
23B
330
23A
100
AcDbEntity
  8
0
100
AcDbBlockBegin
  2
SW_CENTERMARKSYMBOL_1
 70
     0
 10
0.0
 20
0.0
 30
0.0
  3
SW_CENTERMARKSYMBOL_1
  1

  0
LINE
  5
23D
330
23A
100
AcDbEntity
  8
FORMAT
 62
     0
100
AcDbLine
 10
0.0
 20
0.0
 30
0.0
 11
0.0
 21
2.5
 31
0.0
  0
LINE
  5
23E
330
23A
100
AcDbEntity
  8
FORMAT
 62
     0
100
AcDbLine
 10
0.0
 20
0.0
 30
0.0
 11
-2.5
 21
0.0
 31
0.0
  0
LINE
  5
23F
330
23A
100
AcDbEntity
  8
FORMAT
 62
     0
100
AcDbLine
 10
0.0
 20
0.0
 30
0.0
 11
0.0
 21
-2.5
 31
0.0
  0
LINE
  5
240
330
23A
100
AcDbEntity
  8
FORMAT
 62
     0
100
AcDbLine
 10
0.0
 20
0.0
 30
0.0
 11
2.5
 21
0.0
 31
0.0
  0
LINE
  5
241
330
23A
100
AcDbEntity
  8
FORMAT
 62
     0
100
AcDbLine
 10
0.0
 20
5.0
 30
0.0
 11
0.0
 21
9.95
 31
0.0
  0
LINE
  5
242
330
23A
100
AcDbEntity
  8
FORMAT
 62
     0
100
AcDbLine
 10
-5.0
 20
0.0
 30
0.0
 11
-42.1198460858
 21
0.0
 31
0.0
  0
LINE
  5
243
330
23A
100
AcDbEntity
  8
FORMAT
 62
     0
100
AcDbLine
 10
0.0
 20
-5.0
 30
0.0
 11
0.0
 21
-9.95
 31
0.0
  0
LINE
  5
244
330
23A
100
AcDbEntity
  8
FORMAT
 62
     0
100
AcDbLine
 10
5.0
 20
0.0
 30
0.0
 11
21.6694886169
 21
0.0
 31
0.0
  0
ENDBLK
  5
23C
330
23A
100
AcDbEntity
  8
0
100
AcDbBlockEnd
  0
ENDSEC
  0
SECTION
  2
ENTITIES
  0
MTEXT
  5
65
330
1F
100
AcDbEntity
  8
FORMAT
100
AcDbMText
 10
135.8799155686
 20
87.1163419311
 30
0.0
 40
3.7041666667
 41
0.0
 71
     1
 72
     1
  1
エースボール　BV-1022
  7
SLDTEXTSTYLE0
 73
     1
 44
1.0
  0
LINE
  5
66
330
1F
100
AcDbEntity
  8
0
  6
Continuous
 62
     7
370
    25
100
AcDbLine
 10
140.0849682374
 20
54.4513981639
 30
0.0
 11
138.2169342487
 21
54.4513981639
 31
0.0
  0
LINE
  5
67
330
1F
100
AcDbEntity
  8
0
  6
Continuous
 62
     7
370
    25
100
AcDbLine
 10
138.2169342487
 20
34.4513981639
 30
0.0
 11
140.0849682374
 21
34.4513981639
 31
0.0
  0
ARC
  5
68
330
1F
100
AcDbEntity
  8
0
  6
Continuous
 62
     7
370
    25
100
AcDbCircle
 10
121.3349682374
 20
35.4513981639
 30
0.0
 40
1.5
100
AcDbArc
 50
318.1896851042
 51
0.0
  0
ARC
  5
69
330
1F
100
AcDbEntity
  8
0
  6
Continuous
 62
     7
370
    25
100
AcDbCircle
 10
121.3349682374
 20
53.4513981639
 30
0.0
 40
1.5
100
AcDbArc
 50
0.0
 51
41.8103148958
  0
ARC
  5
6A
330
1F
100
AcDbEntity
  8
0
  6
Continuous
 62
     7
370
    25
100
AcDbCircle
 10
139.3349682374
 20
53.4513981639
 30
0.0
 40
1.5
100
AcDbArc
 50
138.1896851042
 51
180.0
  0
ARC
  5
6B
330
1F
100
AcDbEntity
  8
0
  6
Continuous
 62
     7
370
    25
100
AcDbCircle
 10
139.3349682374
 20
35.4513981639
 30
0.0
 40
1.5
100
AcDbArc
 50
180.0
 51
221.8103148958
  0
LINE
  5
6C
330
1F
100
AcDbEntity
  8
0
  6
Continuous
 62
     7
370
    25
100
AcDbLine
 10
120.5849682374
 20
34.4513981639
 30
0.0
 11
122.4530022262
 21
34.4513981639
 31
0.0
  0
LINE
  5
6D
330
1F
100
AcDbEntity
  8
0
  6
Continuous
 62
     7
370
    25
100
AcDbLine
 10
122.4530022262
 20
54.4513981639
 30
0.0
 11
120.5849682374
 21
54.4513981639
 31
0.0
  0
LINE
  5
6E
330
1F
100
AcDbEntity
  8
0
  6
Continuous
 62
     7
370
    25
100
AcDbLine
 10
140.0849682374
 20
34.4513981639
 30
0.0
 11
140.3349682374
 21
34.7013981639
 31
0.0
  0
LINE
  5
6F
330
1F
100
AcDbEntity
  8
0
  6
Continuous
 62
     7
370
    25
100
AcDbLine
 10
140.3349682374
 20
54.2013981639
 30
0.0
 11
140.0849682374
 21
54.4513981639
 31
0.0
  0
LINE
  5
70
330
1F
100
AcDbEntity
  8
0
  6
Continuous
 62
     7
370
    25
100
AcDbLine
 10
120.5849682374
 20
54.4513981639
 30
0.0
 11
120.3349682374
 21
54.2013981639
 31
0.0
  0
LINE
  5
71
330
1F
100
AcDbEntity
  8
0
  6
Continuous
 62
     7
370
    25
100
AcDbLine
 10
120.3349682374
 20
34.7013981639
 30
0.0
 11
120.5849682374
 21
34.4513981639
 31
0.0
  0
LINE
  5
72
330
1F
100
AcDbEntity
  8
0
  6
Continuous
 62
     7
370
    25
100
AcDbLine
 10
150.0849682374
 20
36.2013981639
 30
0.0
 11
150.3349682374
 21
36.4513981639
 31
0.0
  0
LINE
  5
73
330
1F
100
AcDbEntity
  8
0
  6
Continuous
 62
     7
370
    25
100
AcDbLine
 10
150.3349682374
 20
52.4513981639
 30
0.0
 11
150.0849682374
 21
52.7013981639
 31
0.0
  0
LINE
  5
74
330
1F
100
AcDbEntity
  8
0
  6
Continuous
 62
     7
370
    25
100
AcDbLine
 10
150.0849682374
 20
52.7013981639
 30
0.0
 11
140.3349682374
 21
52.7013981639
 31
0.0
  0
LINE
  5
75
330
1F
100
AcDbEntity
  8
0
  6
Continuous
 62
     7
370
    25
100
AcDbLine
 10
140.3349682374
 20
36.2013981639
 30
0.0
 11
150.0849682374
 21
36.2013981639
 31
0.0
  0
ARC
  5
76
330
1F
100
AcDbEntity
  8
0
  6
Continuous
 62
     7
370
    25
100
AcDbCircle
 10
137.3349682374
 20
53.4513981639
 30
0.0
 40
0.5
100
AcDbArc
 50
270.0
 51
0.0
  0
ARC
  5
77
330
1F
100
AcDbEntity
  8
0
  6
Continuous
 62
     7
370
    25
100
AcDbCircle
 10
123.3349682374
 20
53.4513981639
 30
0.0
 40
0.5
100
AcDbArc
 50
180.0
 51
270.0
  0
ARC
  5
78
330
1F
100
AcDbEntity
  8
0
  6
Continuous
 62
     7
370
    25
100
AcDbCircle
 10
123.3349682374
 20
35.4513981639
 30
0.0
 40
0.5
100
AcDbArc
 50
90.0
 51
180.0
  0
ARC
  5
79
330
1F
100
AcDbEntity
  8
0
  6
Continuous
 62
     7
370
    25
100
AcDbCircle
 10
137.3349682374
 20
35.4513981639
 30
0.0
 40
0.5
100
AcDbArc
 50
0.0
 51
90.0
  0
LINE
  5
7A
330
1F
100
AcDbEntity
  8
0
  6
Continuous
 62
     7
370
    25
100
AcDbLine
 10
123.9526473625
 20
52.9513981639
 30
0.0
 11
123.3349682374
 21
52.9513981639
 31
0.0
  0
LINE
  5
7B
330
1F
100
AcDbEntity
  8
0
  6
Continuous
 62
     7
370
    25
100
AcDbLine
 10
137.3349682374
 20
52.9513981639
 30
0.0
 11
136.7349682374
 21
52.9513981639
 31
0.0
  0
LINE
  5
7C
330
1F
100
AcDbEntity
  8
0
  6
Continuous
 62
     7
370
    25
100
AcDbLine
 10
123.3349682374
 20
35.9513981639
 30
0.0
 11
137.3349682374
 21
35.9513981639
 31
0.0
  0
SPLINE
  5
7D
330
1F
100
AcDbEntity
  8
0
  6
Continuous
 62
     7
370
    25
100
AcDbSpline
210
0.0
220
0.0
230
1.0
 70
     8
 71
     3
 72
    13
 73
     9
 74
     0
 42
0.00000001
 43
0.00000001
 40
0.0
 40
0.0
 40
0.0
 40
0.0
 40
0.1657648999013929
 40
0.3288516425910938
 40
0.5079757807440833
 40
0.6908230418584143
 40
0.8659232900064849
 40
1.0
 40
1.0
 40
1.0
 40
1.0
 10
136.7352761846215
 20
52.95473153549231
 30
0.0
 10
136.6915820183222
 20
52.95661395260122
 30
0.0
 10
136.6048996243553
 20
52.96034837381267
 30
0.0
 10
136.4807157996601
 20
53.01450646367269
 30
0.0
 10
136.3703483380459
 20
53.09894189779399
 30
0.0
 10
136.2875358675617
 20
53.21473675481018
 30
0.0
 10
136.2411027986336
 20
53.33749920910308
 30
0.0
 10
136.2378161204889
 20
53.41873373690259
 30
0.0
 10
136.2363908299528
 20
53.45396164745163
 30
0.0
  0
SPLINE
  5
7E
330
1F
100
AcDbEntity
  8
0
  6
Continuous
 62
     7
370
    25
100
AcDbSpline
210
0.0
220
0.0
230
1.0
 70
     8
 71
     3
 72
    13
 73
     9
 74
     0
 42
0.00000001
 43
0.00000001
 40
0.0
 40
0.0
 40
0.0
 40
0.0
 40
0.1607063118245939
 40
0.3468543103550863
 40
0.5363367921067442
 40
0.7155426209750598
 40
0.8707860443061729
 40
0.9999999999999999
 40
0.9999999999999999
 40
0.9999999999999999
 40
0.9999999999999999
 10
124.4338681608359
 20
53.44228634822097
 30
0.0
 10
124.4306439322047
 20
53.40158008659169
 30
0.0
 10
124.4236850418812
 20
53.31372328654287
 30
0.0
 10
124.3671993111027
 20
53.18753418525067
 30
0.0
 10
124.2773906810733
 20
53.07770219573315
 30
0.0
 10
124.1665583291303
 20
53.00253586840266
 30
0.0
 10
124.0554111183597
 20
52.9607713442802
 30
0.0
 10
123.9835188924332
 20
52.95487589338273
 30
0.0
 10
123.9508620531998
 20
52.95219790157365
 30
0.0
  0
LINE
  5
7F
330
1F
100
AcDbEntity
  8
0
  6
Continuous
 62
     7
370
    25
100
AcDbLine
 10
136.2349682374
 20
53.4513981639
 30
0.0
 11
136.2349682374
 21
54.9513981639
 31
0.0
  0
LINE
  5
80
330
1F
100
AcDbEntity
  8
0
  6
Continuous
 62
     7
370
    25
100
AcDbLine
 10
124.4349682374
 20
54.9513981639
 30
0.0
 11
124.4349682374
 21
53.440127424
 31
0.0
  0
LINE
  5
81
330
1F
100
AcDbEntity
  8
0
  6
Continuous
 62
     7
370
    25
100
AcDbLine
 10
117.5349682374
 20
52.4513981639
 30
0.0
 11
117.3349682374
 21
52.2513981639
 31
0.0
  0
LINE
  5
82
330
1F
100
AcDbEntity
  8
0
  6
Continuous
 62
     7
370
    25
100
AcDbLine
 10
117.3349682374
 20
36.6513981639
 30
0.0
 11
117.5349682374
 21
36.4513981639
 31
0.0
  0
LINE
  5
83
330
1F
100
AcDbEntity
  8
0
  6
Continuous
 62
     7
370
    25
100
AcDbLine
 10
120.3349682374
 20
52.4513981639
 30
0.0
 11
117.5349682374
 21
52.4513981639
 31
0.0
  0
LINE
  5
84
330
1F
100
AcDbEntity
  8
0
  6
Continuous
 62
     7
370
    25
100
AcDbLine
 10
117.5349682374
 20
36.4513981639
 30
0.0
 11
120.3349682374
 21
36.4513981639
 31
0.0
  0
LINE
  5
85
330
1F
100
AcDbEntity
  8
0
  6
Continuous
 62
     7
370
    25
100
AcDbLine
 10
108.3349682374
 20
51.0298981639
 30
0.0
 11
107.3349682374
 21
50.0298981639
 31
0.0
  0
LINE
  5
86
330
1F
100
AcDbEntity
  8
0
  6
Continuous
 62
     7
370
    25
100
AcDbLine
 10
107.3349682374
 20
38.8728981639
 30
0.0
 11
108.3349682374
 21
37.8728981639
 31
0.0
  0
LINE
  5
87
330
1F
100
AcDbEntity
  8
0
  6
Continuous
 62
     7
370
    25
100
AcDbLine
 10
117.3349682374
 20
51.0298981639
 30
0.0
 11
108.3349682374
 21
51.0298981639
 31
0.0
  0
LINE
  5
88
330
1F
100
AcDbEntity
  8
0
  6
Continuous
 62
     7
370
    25
100
AcDbLine
 10
108.3349682374
 20
37.8728981639
 30
0.0
 11
117.3349682374
 21
37.8728981639
 31
0.0
  0
LINE
  5
89
330
1F
100
AcDbEntity
  8
0
  6
Continuous
 62
     7
370
    25
100
AcDbLine
 10
137.3349682374
 20
54.9513981639
 30
0.0
 11
137.7849682374
 21
62.9513981639
 31
0.0
  0
LINE
  5
8A
330
1F
100
AcDbEntity
  8
0
  6
Continuous
 62
     7
370
    25
100
AcDbLine
 10
137.7849682374
 20
62.9513981639
 30
0.0
 11
135.8349682374
 21
70.9513981639
 31
0.0
  0
LINE
  5
8B
330
1F
100
AcDbEntity
  8
0
  6
Continuous
 62
     7
370
    25
100
AcDbLine
 10
123.2643116117
 20
56.2075159552
 30
0.0
 11
123.3349682374
 21
54.9513981639
 31
0.0
  0
LINE
  5
8C
330
1F
100
AcDbEntity
  8
0
  6
Continuous
 62
     7
370
    25
100
AcDbLine
 10
124.8349682374
 20
70.9513981639
 30
0.0
 11
124.5809913971
 21
69.909441896
 31
0.0
  0
LINE
  5
8D
330
1F
100
AcDbEntity
  8
0
  6
Continuous
 62
     7
370
    25
100
AcDbLine
 10
138.2169342487
 20
34.4513981639
 30
0.0
 11
138.2169342487
 21
54.4513981639
 31
0.0
  0
LINE
  5
8E
330
1F
100
AcDbEntity
  8
0
  6
Continuous
 62
     7
370
    25
100
AcDbLine
 10
140.0849682374
 20
34.4513981639
 30
0.0
 11
140.0849682374
 21
54.4513981639
 31
0.0
  0
LINE
  5
8F
330
1F
100
AcDbEntity
  8
0
  6
Continuous
 62
     7
370
    25
100
AcDbLine
 10
122.4530022262
 20
44.4513981639
 30
0.0
 11
122.4530022262
 21
34.4513981639
 31
0.0
  0
LINE
  5
90
330
1F
100
AcDbEntity
  8
0
  6
Continuous
 62
     7
370
    25
100
AcDbLine
 10
122.4530022262
 20
54.4513981639
 30
0.0
 11
122.4530022262
 21
44.4513981639
 31
0.0
  0
LINE
  5
91
330
1F
100
AcDbEntity
  8
0
  6
Continuous
 62
     7
370
    25
100
AcDbLine
 10
122.8349682374
 20
53.4513981639
 30
0.0
 11
122.8349682374
 21
49.9513981639
 31
0.0
  0
SPLINE
  5
92
330
1F
100
AcDbEntity
  8
0
  6
Continuous
 62
     7
370
    25
100
AcDbSpline
210
0.0
220
0.0
230
1.0
 70
     8
 71
     3
 72
     8
 73
     4
 74
     0
 42
0.00000001
 43
0.00000001
 40
0.0
 40
0.0
 40
0.0
 40
0.0
 40
1.0
 40
1.0
 40
1.0
 40
1.0
 10
122.7377671127853
 20
49.85108801540925
 30
0.0
 10
122.8056035303614
 20
49.88245095642003
 30
0.0
 10
122.8349682374393
 20
49.91591911706958
 30
0.0
 10
122.8349682374393
 20
49.95139816391335
 30
0.0
  0
SPLINE
  5
93
330
1F
100
AcDbEntity
  8
0
  6
Continuous
 62
     7
370
    25
100
AcDbSpline
210
0.0
220
0.0
230
1.0
 70
     8
 71
     3
 72
    12
 73
     8
 74
     0
 42
0.00000001
 43
0.00000001
 40
0.0
 40
0.0
 40
0.0
 40
0.0
 40
0.4999999999999992
 40
0.4999999999999992
 40
0.7499999999999996
 40
0.7499999999999996
 40
1.0
 40
1.0
 40
1.0
 40
1.0
 10
122.7377671127853
 20
49.85108801540925
 30
0.0
 10
122.6698973527755
 20
49.81970965912715
 30
0.0
 10
122.5938628015218
 20
49.6860011386286
 30
0.0
 10
122.5472182031448
 20
49.40797502896282
 30
0.0
 10
122.5427792066222
 20
49.30112884495886
 30
0.0
 10
122.558509820415
 20
49.07424737090312
 30
0.0
 10
122.5783902503574
 20
48.9540783985985
 30
0.0
 10
122.6058821703372
 20
48.83262875378826
 30
0.0
  0
SPLINE
  5
94
330
1F
100
AcDbEntity
  8
0
  6
Continuous
 62
     7
370
    25
100
AcDbSpline
210
0.0
220
0.0
230
1.0
 70
     8
 71
     3
 72
    12
 73
     8
 74
     0
 42
0.00000001
 43
0.00000001
 40
0.0
 40
0.0
 40
0.0
 40
0.0
 40
0.4999999999999998
 40
0.4999999999999998
 40
0.7499999999999999
 40
0.7499999999999999
 40
1.0
 40
1.0
 40
1.0
 40
1.0
 10
122.8349682374393
 20
44.45139816391334
 30
0.0
 10
122.8349682374393
 20
45.18535518607055
 30
0.0
 10
122.8395256324385
 20
45.91833363043337
 30
0.0
 10
122.8123419680592
 20
47.01515774337977
 30
0.0
 10
122.796892297142
 20
47.38030533195021
 30
0.0
 10
122.7340286956102
 20
48.10909334581426
 30
0.0
 10
122.6869987724419
 20
48.47428410121258
 30
0.0
 10
122.6058821703372
 20
48.83262875378826
 30
0.0
  0
SPLINE
  5
95
330
1F
100
AcDbEntity
  8
0
  6
Continuous
 62
     7
370
    25
100
AcDbSpline
210
0.0
220
0.0
230
1.0
 70
     8
 71
     3
 72
    12
 73
     8
 74
     0
 42
0.00000001
 43
0.00000001
 40
0.0
 40
0.0
 40
0.0
 40
0.0
 40
0.2500000000000001
 40
0.2500000000000001
 40
0.5000000000000002
 40
0.5000000000000002
 40
1.0
 40
1.0
 40
1.0
 40
1.0
 10
122.6058821703372
 20
40.07016757403844
 30
0.0
 10
122.6869987724419
 20
40.42851222661412
 30
0.0
 10
122.7340286956102
 20
40.79370298201245
 30
0.0
 10
122.796892297142
 20
41.52249099587649
 30
0.0
 10
122.8123419680592
 20
41.88763858444693
 30
0.0
 10
122.8395256324385
 20
42.98446269739333
 30
0.0
 10
122.8349682374393
 20
43.71744114175613
 30
0.0
 10
122.8349682374393
 20
44.45139816391335
 30
0.0
  0
SPLINE
  5
96
330
1F
100
AcDbEntity
  8
0
  6
Continuous
 62
     7
370
    25
100
AcDbSpline
210
0.0
220
0.0
230
1.0
 70
     8
 71
     3
 72
    14
 73
    10
 74
     0
 42
0.00000001
 43
0.00000001
 40
0.0
 40
0.0
 40
0.0
 40
0.0
 40
0.25
 40
0.25
 40
0.5
 40
0.5
 40
0.75
 40
0.75
 40
1.0
 40
1.0
 40
1.0
 40
1.0
 10
122.6058821703372
 20
40.07016757403844
 30
0.0
 10
122.5783611825921
 20
39.94858951805274
 30
0.0
 10
122.5584412607557
 20
39.82806478102761
 30
0.0
 10
122.5427742189377
 20
39.6010885219195
 30
0.0
 10
122.54726605075
 20
39.49411854435332
 30
0.0
 10
122.5785223960336
 20
39.30865299257359
 30
0.0
 10
122.6048949794153
 20
39.22976773145476
 30
0.0
 10
122.6677315305596
 20
39.10912994028166
 30
0.0
 10
122.7037711094197
 20
39.06742574983905
 30
0.0
 10
122.7377671127853
 20
39.05170831241745
 30
0.0
  0
SPLINE
  5
97
330
1F
100
AcDbEntity
  8
0
  6
Continuous
 62
     7
370
    25
100
AcDbSpline
210
0.0
220
0.0
230
1.0
 70
     8
 71
     3
 72
     8
 73
     4
 74
     0
 42
0.00000001
 43
0.00000001
 40
0.0
 40
0.0
 40
0.0
 40
0.0
 40
1.0
 40
1.0
 40
1.0
 40
1.0
 10
122.8349682374393
 20
38.95139816391335
 30
0.0
 10
122.8349682374393
 20
38.98687721075712
 30
0.0
 10
122.8056035303614
 20
39.02034537140668
 30
0.0
 10
122.7377671127853
 20
39.05170831241746
 30
0.0
  0
LINE
  5
98
330
1F
100
AcDbEntity
  8
0
  6
Continuous
 62
     7
370
    25
100
AcDbLine
 10
122.8349682374
 20
38.9513981639
 30
0.0
 11
122.8349682374
 21
35.4513981639
 31
0.0
  0
SPLINE
  5
99
330
1F
100
AcDbEntity
  8
0
  6
Continuous
 62
     7
370
    25
100
AcDbSpline
210
0.0
220
0.0
230
1.0
 70
     8
 71
     3
 72
     8
 73
     4
 74
     0
 42
0.00000001
 43
0.00000001
 40
0.0
 40
0.0
 40
0.0
 40
0.0
 40
1.0
 40
1.0
 40
1.0
 40
1.0
 10
137.9321693620932
 20
39.05170831241746
 30
0.0
 10
137.8643329445171
 20
39.02034537140668
 30
0.0
 10
137.8349682374393
 20
38.98687721075712
 30
0.0
 10
137.8349682374393
 20
38.95139816391335
 30
0.0
  0
SPLINE
  5
9A
330
1F
100
AcDbEntity
  8
0
  6
Continuous
 62
     7
370
    25
100
AcDbSpline
210
0.0
220
0.0
230
1.0
 70
     8
 71
     3
 72
    12
 73
     8
 74
     0
 42
0.00000001
 43
0.00000001
 40
0.0
 40
0.0
 40
0.0
 40
0.0
 40
0.5000000000000001
 40
0.5000000000000001
 40
0.75
 40
0.75
 40
1.0
 40
1.0
 40
1.0
 40
1.0
 10
137.9321693620932
 20
39.05170831241746
 30
0.0
 10
138.000039122103
 20
39.08308666869955
 30
0.0
 10
138.0760736733567
 20
39.2167951891981
 30
0.0
 10
138.1227182717337
 20
39.49482129886388
 30
0.0
 10
138.1271572682564
 20
39.60166748286784
 30
0.0
 10
138.1114266544635
 20
39.82854895692359
 30
0.0
 10
138.0915462245212
 20
39.9487179292282
 30
0.0
 10
138.0640543045413
 20
40.07016757403844
 30
0.0
  0
SPLINE
  5
9B
330
1F
100
AcDbEntity
  8
0
  6
Continuous
 62
     7
370
    25
100
AcDbSpline
210
0.0
220
0.0
230
1.0
 70
     8
 71
     3
 72
    12
 73
     8
 74
     0
 42
0.00000001
 43
0.00000001
 40
0.0
 40
0.0
 40
0.0
 40
0.0
 40
0.5
 40
0.5
 40
0.75
 40
0.75
 40
1.0
 40
1.0
 40
1.0
 40
1.0
 10
137.8349682374393
 20
44.45139816391336
 30
0.0
 10
137.8349682374393
 20
43.71744114175614
 30
0.0
 10
137.83041084244
 20
42.98446269739334
 30
0.0
 10
137.8575945068193
 20
41.88763858444693
 30
0.0
 10
137.8730441777365
 20
41.52249099587649
 30
0.0
 10
137.9359077792683
 20
40.79370298201245
 30
0.0
 10
137.9829377024367
 20
40.42851222661412
 30
0.0
 10
138.0640543045413
 20
40.07016757403844
 30
0.0
  0
SPLINE
  5
9C
330
1F
100
AcDbEntity
  8
0
  6
Continuous
 62
     7
370
    25
100
AcDbSpline
210
0.0
220
0.0
230
1.0
 70
     8
 71
     3
 72
    12
 73
     8
 74
     0
 42
0.00000001
 43
0.00000001
 40
0.0
 40
0.0
 40
0.0
 40
0.0
 40
0.25
 40
0.25
 40
0.5
 40
0.5
 40
1.0
 40
1.0
 40
1.0
 40
1.0
 10
138.0640543045413
 20
48.83262875378826
 30
0.0
 10
137.9829377024367
 20
48.47428410121258
 30
0.0
 10
137.9359077792683
 20
48.10909334581426
 30
0.0
 10
137.8730441777365
 20
47.38030533195022
 30
0.0
 10
137.8575945068193
 20
47.01515774337978
 30
0.0
 10
137.83041084244
 20
45.91833363043337
 30
0.0
 10
137.8349682374393
 20
45.18535518607057
 30
0.0
 10
137.8349682374393
 20
44.45139816391335
 30
0.0
  0
SPLINE
  5
9D
330
1F
100
AcDbEntity
  8
0
  6
Continuous
 62
     7
370
    25
100
AcDbSpline
210
0.0
220
0.0
230
1.0
 70
     8
 71
     3
 72
    14
 73
    10
 74
     0
 42
0.00000001
 43
0.00000001
 40
0.0
 40
0.0
 40
0.0
 40
0.0
 40
0.25
 40
0.25
 40
0.5
 40
0.5
 40
0.75
 40
0.75
 40
1.0
 40
1.0
 40
1.0
 40
1.0
 10
138.0640543045413
 20
48.83262875378826
 30
0.0
 10
138.0915752922864
 20
48.95420680977397
 30
0.0
 10
138.1114952141228
 20
49.07473154679909
 30
0.0
 10
138.1271622559408
 20
49.3017078059072
 30
0.0
 10
138.1226704241285
 20
49.40867778347337
 30
0.0
 10
138.091414078845
 20
49.5941433352531
 30
0.0
 10
138.0650414954632
 20
49.67302859637194
 30
0.0
 10
138.0022049443189
 20
49.79366638754503
 30
0.0
 10
137.9661653654588
 20
49.83537057798764
 30
0.0
 10
137.9321693620932
 20
49.85108801540925
 30
0.0
  0
SPLINE
  5
9E
330
1F
100
AcDbEntity
  8
0
  6
Continuous
 62
     7
370
    25
100
AcDbSpline
210
0.0
220
0.0
230
1.0
 70
     8
 71
     3
 72
     8
 73
     4
 74
     0
 42
0.00000001
 43
0.00000001
 40
0.0
 40
0.0
 40
0.0
 40
0.0
 40
1.0
 40
1.0
 40
1.0
 40
1.0
 10
137.8349682374393
 20
49.95139816391335
 30
0.0
 10
137.8349682374393
 20
49.91591911706958
 30
0.0
 10
137.8643329445171
 20
49.88245095642003
 30
0.0
 10
137.9321693620932
 20
49.85108801540925
 30
0.0
  0
LINE
  5
9F
330
1F
100
AcDbEntity
  8
0
  6
Continuous
 62
     7
370
    25
100
AcDbLine
 10
137.8349682374
 20
49.9513981639
 30
0.0
 11
137.8349682374
 21
53.4513981639
 31
0.0
  0
LINE
  5
A0
330
1F
100
AcDbEntity
  8
0
  6
Continuous
 62
     7
370
    25
100
AcDbLine
 10
137.8349682374
 20
35.4513981639
 30
0.0
 11
137.8349682374
 21
38.9513981639
 31
0.0
  0
LINE
  5
A1
330
1F
100
AcDbEntity
  8
0
  6
Continuous
 62
     7
370
    25
100
AcDbLine
 10
120.5849682374
 20
44.4513981639
 30
0.0
 11
120.5849682374
 21
34.4513981639
 31
0.0
  0
LINE
  5
A2
330
1F
100
AcDbEntity
  8
0
  6
Continuous
 62
     7
370
    25
100
AcDbLine
 10
120.5849682374
 20
54.4513981639
 30
0.0
 11
120.5849682374
 21
44.4513981639
 31
0.0
  0
LINE
  5
A3
330
1F
100
AcDbEntity
  8
0
  6
Continuous
 62
     7
370
    25
100
AcDbLine
 10
140.3349682374
 20
54.2013981639
 30
0.0
 11
140.3349682374
 21
34.7013981639
 31
0.0
  0
LINE
  5
A4
330
1F
100
AcDbEntity
  8
0
  6
Continuous
 62
     7
370
    25
100
AcDbLine
 10
120.3349682374
 20
44.4513981639
 30
0.0
 11
120.3349682374
 21
54.2013981639
 31
0.0
  0
LINE
  5
A5
330
1F
100
AcDbEntity
  8
0
  6
Continuous
 62
     7
370
    25
100
AcDbLine
 10
120.3349682374
 20
34.7013981639
 30
0.0
 11
120.3349682374
 21
44.4513981639
 31
0.0
  0
LINE
  5
A6
330
1F
100
AcDbEntity
  8
0
  6
Continuous
 62
     7
370
    25
100
AcDbLine
 10
137.8349682374
 20
44.4513981639
 30
0.0
 11
137.3349682374
 21
44.4513981639
 31
0.0
  0
SPLINE
  5
A7
330
1F
100
AcDbEntity
  8
0
  6
Continuous
 62
     7
370
    25
100
AcDbSpline
210
0.0
220
0.0
230
1.0
 70
     8
 71
     3
 72
    14
 73
    10
 74
     0
 42
0.00000001
 43
0.00000001
 40
0.0
 40
0.0
 40
0.0
 40
0.0
 40
0.2499999999999999
 40
0.2499999999999999
 40
0.4999999999999999
 40
0.4999999999999999
 40
0.7499999999999999
 40
0.7499999999999999
 40
1.0
 40
1.0
 40
1.0
 40
1.0
 10
137.3349682374393
 20
44.45139816391335
 30
0.0
 10
137.3349682374393
 20
44.82791487600031
 30
0.0
 10
137.3345589757196
 20
45.20445093362927
 30
0.0
 10
137.3378703238255
 20
45.95732783247787
 30
0.0
 10
137.3416338092902
 20
46.33366664699321
 30
0.0
 10
137.3674070650699
 20
47.08548178570835
 30
0.0
 10
137.3893251597484
 20
47.46096244335736
 30
0.0
 10
137.4745428229336
 20
48.20996768262604
 30
0.0
 10
137.5378558090845
 20
48.5855755980675
 30
0.0
 10
137.6404163269086
 20
48.95139816391335
 30
0.0
  0
LINE
  5
A8
330
1F
100
AcDbEntity
  8
0
  6
Continuous
 62
     7
370
    25
100
AcDbLine
 10
138.0640543045
 20
48.8326287538
 30
0.0
 11
137.6404163269
 21
48.9513981639
 31
0.0
  0
LINE
  5
A9
330
1F
100
AcDbEntity
  8
0
  6
Continuous
 62
     7
370
    25
100
AcDbLine
 10
138.0640543045
 20
40.070167574
 30
0.0
 11
137.6404163269
 21
39.9513981639
 31
0.0
  0
SPLINE
  5
AA
330
1F
100
AcDbEntity
  8
0
  6
Continuous
 62
     7
370
    25
100
AcDbSpline
210
0.0
220
0.0
230
1.0
 70
     8
 71
     3
 72
    14
 73
    10
 74
     0
 42
0.00000001
 43
0.00000001
 40
0.0
 40
0.0
 40
0.0
 40
0.0
 40
0.2500000000000002
 40
0.2500000000000002
 40
0.5000000000000003
 40
0.5000000000000003
 40
0.7500000000000002
 40
0.7500000000000002
 40
1.0
 40
1.0
 40
1.0
 40
1.0
 10
137.6404163269086
 20
39.95139816391335
 30
0.0
 10
137.5378558090845
 20
40.31722072975921
 30
0.0
 10
137.4745428229336
 20
40.69282864520066
 30
0.0
 10
137.3893251597484
 20
41.44183388446934
 30
0.0
 10
137.3674070650699
 20
41.81731454211835
 30
0.0
 10
137.3416338092902
 20
42.56912968083349
 30
0.0
 10
137.3378703238255
 20
42.94546849534884
 30
0.0
 10
137.3345589757196
 20
43.69834539419742
 30
0.0
 10
137.3349682374393
 20
44.07488145182639
 30
0.0
 10
137.3349682374393
 20
44.45139816391336
 30
0.0
  0
SPLINE
  5
AB
330
1F
100
AcDbEntity
  8
0
  6
Continuous
 62
     7
370
    25
100
AcDbSpline
210
0.0
220
0.0
230
1.0
 70
     8
 71
     3
 72
    14
 73
    10
 74
     0
 42
0.00000001
 43
0.00000001
 40
0.0
 40
0.0
 40
0.0
 40
0.0
 40
0.2500000000000001
 40
0.2500000000000001
 40
0.5000000000000001
 40
0.5000000000000001
 40
0.7500000000000001
 40
0.7500000000000001
 40
1.0
 40
1.0
 40
1.0
 40
1.0
 10
123.3349682374393
 20
44.45139816391335
 30
0.0
 10
123.3349682374393
 20
44.07488145182639
 30
0.0
 10
123.3353774991589
 20
43.69834539419741
 30
0.0
 10
123.332066151053
 20
42.94546849534883
 30
0.0
 10
123.3283026655884
 20
42.56912968083348
 30
0.0
 10
123.3025294098087
 20
41.81731454211834
 30
0.0
 10
123.2806113151301
 20
41.44183388446933
 30
0.0
 10
123.1953936519449
 20
40.69282864520066
 30
0.0
 10
123.132080665794
 20
40.31722072975921
 30
0.0
 10
123.0295201479699
 20
39.95139816391335
 30
0.0
  0
LINE
  5
AC
330
1F
100
AcDbEntity
  8
0
  6
Continuous
 62
     7
370
    25
100
AcDbLine
 10
123.029520148
 20
39.9513981639
 30
0.0
 11
122.6058821703
 21
40.070167574
 31
0.0
  0
LINE
  5
AD
330
1F
100
AcDbEntity
  8
0
  6
Continuous
 62
     7
370
    25
100
AcDbLine
 10
123.3349682374
 20
44.4513981639
 30
0.0
 11
122.8349682374
 21
44.4513981639
 31
0.0
  0
SPLINE
  5
AE
330
1F
100
AcDbEntity
  8
0
  6
Continuous
 62
     7
370
    25
100
AcDbSpline
210
0.0
220
0.0
230
1.0
 70
     8
 71
     3
 72
    14
 73
    10
 74
     0
 42
0.00000001
 43
0.00000001
 40
0.0
 40
0.0
 40
0.0
 40
0.0
 40
0.2500000000000001
 40
0.2500000000000001
 40
0.5000000000000001
 40
0.5000000000000001
 40
0.75
 40
0.75
 40
1.0
 40
1.0
 40
1.0
 40
1.0
 10
123.0295201479699
 20
48.95139816391335
 30
0.0
 10
123.132080665794
 20
48.5855755980675
 30
0.0
 10
123.1953936519449
 20
48.20996768262604
 30
0.0
 10
123.2806113151301
 20
47.46096244335736
 30
0.0
 10
123.3025294098087
 20
47.08548178570835
 30
0.0
 10
123.3283026655884
 20
46.3336666469932
 30
0.0
 10
123.332066151053
 20
45.95732783247785
 30
0.0
 10
123.3353774991589
 20
45.20445093362927
 30
0.0
 10
123.3349682374393
 20
44.82791487600031
 30
0.0
 10
123.3349682374393
 20
44.45139816391334
 30
0.0
  0
LINE
  5
AF
330
1F
100
AcDbEntity
  8
0
  6
Continuous
 62
     7
370
    25
100
AcDbLine
 10
123.029520148
 20
48.9513981639
 30
0.0
 11
122.6058821703
 21
48.8326287538
 31
0.0
  0
SPLINE
  5
B0
330
1F
100
AcDbEntity
  8
0
  6
Continuous
 62
     7
370
    25
100
AcDbSpline
210
0.0
220
0.0
230
1.0
 70
     8
 71
     3
 72
    14
 73
    10
 74
     0
 42
0.00000001
 43
0.00000001
 40
0.0
 40
0.0
 40
0.0
 40
0.0
 40
0.25
 40
0.25
 40
0.5
 40
0.5
 40
0.75
 40
0.75
 40
1.0
 40
1.0
 40
1.0
 40
1.0
 10
123.2053667379007
 20
39.45139816391335
 30
0.0
 10
123.1668912542791
 20
39.45139816391335
 30
0.0
 10
123.1258023328091
 20
39.46218473489657
 30
0.0
 10
123.0465194853685
 20
39.50511652196172
 30
0.0
 10
123.0092365842581
 20
39.5365340302666
 30
0.0
 10
122.9564308249463
 20
39.62784887584282
 30
0.0
 10
122.9444615648527
 20
39.68907935860707
 30
0.0
 10
122.9644633532248
 20
39.8199427192628
 30
0.0
 10
122.9939198087771
 20
39.88790683360038
 30
0.0
 10
123.0295201479699
 20
39.95139816391335
 30
0.0
  0
ARC
  5
B1
330
1F
100
AcDbEntity
  8
0
  6
Continuous
 62
     7
370
    25
100
AcDbCircle
 10
123.2139153215
 20
38.9680283532
 30
0.0
 40
0.4834453973192036
100
AcDbArc
 50
91.0131925738
 51
170.032425387
  0
SPLINE
  5
B2
330
1F
100
AcDbEntity
  8
0
  6
Continuous
 62
     7
370
    25
100
AcDbSpline
210
0.0
220
0.0
230
1.0
 70
     8
 71
     3
 72
    14
 73
    10
 74
     0
 42
0.00000001
 43
0.00000001
 40
0.0
 40
0.0
 40
0.0
 40
0.0
 40
0.25
 40
0.25
 40
0.5
 40
0.5
 40
0.75
 40
0.75
 40
1.0
 40
1.0
 40
1.0
 40
1.0
 10
137.4645697369778
 20
49.45139816391335
 30
0.0
 10
137.5030452205994
 20
49.45139816391335
 30
0.0
 10
137.5441341420694
 20
49.44061159293013
 30
0.0
 10
137.62341698951
 20
49.39767980586498
 30
0.0
 10
137.6606998906205
 20
49.36626229756011
 30
0.0
 10
137.7135056499322
 20
49.27494745198388
 30
0.0
 10
137.7254749100259
 20
49.21371696921963
 30
0.0
 10
137.7054731216537
 20
49.0828536085639
 30
0.0
 10
137.6760166661014
 20
49.01488949422632
 30
0.0
 10
137.6404163269086
 20
48.95139816391335
 30
0.0
  0
ARC
  5
B3
330
1F
100
AcDbEntity
  8
0
  6
Continuous
 62
     7
370
    25
100
AcDbCircle
 10
137.4560211534
 20
49.9347679746
 30
0.0
 40
0.4834453973192505
100
AcDbArc
 50
271.0131925738
 51
350.032425387
  0
SPLINE
  5
B4
330
1F
100
AcDbEntity
  8
0
  6
Continuous
 62
     7
370
    25
100
AcDbSpline
210
0.0
220
0.0
230
1.0
 70
     8
 71
     3
 72
    16
 73
    12
 74
     0
 42
0.00000001
 43
0.00000001
 40
0.0
 40
0.0
 40
0.0
 40
0.0
 40
0.2500000000000049
 40
0.2500000000000049
 40
0.3750000000000051
 40
0.3750000000000051
 40
0.5000000000000052
 40
0.5000000000000052
 40
0.7500000000000026
 40
0.7500000000000026
 40
1.0
 40
1.0
 40
1.0
 40
1.0
 10
123.0295201479699
 20
48.95139816391335
 30
0.0
 10
122.9939662185212
 20
49.01480672489154
 30
0.0
 10
122.9646940772925
 20
49.08207402521236
 30
0.0
 10
122.9494815270717
 20
49.1805133363547
 30
0.0
 10
122.9494208588981
 20
49.21298874270999
 30
0.0
 10
122.9596314433754
 20
49.27161394983619
 30
0.0
 10
122.9694147729007
 20
49.29723676138917
 30
0.0
 10
123.0085793214326
 20
49.36544560508463
 30
0.0
 10
123.0464523947059
 20
49.3976083602504
 30
0.0
 10
123.1255253676975
 20
49.44049657936629
 30
0.0
 10
123.1669125002883
 20
49.45139816391335
 30
0.0
 10
123.2053667379007
 20
49.45139816391335
 30
0.0
  0
ARC
  5
B5
330
1F
100
AcDbEntity
  8
0
  6
Continuous
 62
     7
370
    25
100
AcDbCircle
 10
123.2139153215
 20
49.9347679746
 30
0.0
 40
0.4834453973191681
100
AcDbArc
 50
189.967574613
 51
268.9868074262
  0
ARC
  5
B6
330
1F
100
AcDbEntity
  8
0
  6
Continuous
 62
     7
370
    25
100
AcDbCircle
 10
137.4560211534
 20
38.9680283532
 30
0.0
 40
0.4834453973192566
100
AcDbArc
 50
9.967574613
 51
88.9868074262
  0
SPLINE
  5
B7
330
1F
100
AcDbEntity
  8
0
  6
Continuous
 62
     7
370
    25
100
AcDbSpline
210
0.0
220
0.0
230
1.0
 70
     8
 71
     3
 72
    16
 73
    12
 74
     0
 42
0.00000001
 43
0.00000001
 40
0.0
 40
0.0
 40
0.0
 40
0.0
 40
0.2499999999999999
 40
0.2499999999999999
 40
0.3750000000000003
 40
0.3750000000000003
 40
0.5000000000000007
 40
0.5000000000000007
 40
0.7500000000000003
 40
0.7500000000000003
 40
1.0
 40
1.0
 40
1.0
 40
1.0
 10
137.6404163269086
 20
39.95139816391335
 30
0.0
 10
137.6759702563573
 20
39.88798960293516
 30
0.0
 10
137.705242397586
 20
39.82072230261434
 30
0.0
 10
137.7204549478069
 20
39.722282991472
 30
0.0
 10
137.7205156159804
 20
39.68980758511671
 30
0.0
 10
137.7103050315031
 20
39.63118237799051
 30
0.0
 10
137.7005217019779
 20
39.60555956643752
 30
0.0
 10
137.6613571534459
 20
39.53735072274208
 30
0.0
 10
137.6234840801727
 20
39.50518796757629
 30
0.0
 10
137.5444111071811
 20
39.46229974846041
 30
0.0
 10
137.5030239745902
 20
39.45139816391335
 30
0.0
 10
137.4645697369778
 20
39.45139816391335
 30
0.0
  0
LINE
  5
B8
330
1F
100
AcDbEntity
  8
0
  6
Continuous
 62
     7
370
    25
100
AcDbLine
 10
137.464569737
 20
39.4513981639
 30
0.0
 11
123.2053667379
 21
39.4513981639
 31
0.0
  0
LINE
  5
B9
330
1F
100
AcDbEntity
  8
0
  6
Continuous
 62
     7
370
    25
100
AcDbLine
 10
123.029520148
 20
39.9513981639
 30
0.0
 11
137.6404163269
 21
39.9513981639
 31
0.0
  0
ARC
  5
BA
330
1F
100
AcDbEntity
  8
0
  6
Continuous
 62
     7
370
    25
100
AcDbCircle
 10
131.5246186462
 20
43.6463520234
 30
0.0
 40
0.7111999999997725
100
AcDbArc
 50
45.0
 51
315.0
  0
ARC
  5
BB
330
1F
100
AcDbEntity
  8
0
  6
Continuous
 62
     7
370
    25
100
AcDbCircle
 10
131.5246186462
 20
43.6463520234
 30
0.0
 40
1.239109388553857
100
AcDbArc
 50
45.0
 51
315.0
  0
ARC
  5
BC
330
1F
100
AcDbEntity
  8
0
  6
Continuous
 62
     7
370
    25
100
AcDbCircle
 10
134.1983343233
 20
43.6463520234
 30
0.0
 40
0.7112000000000971
100
AcDbArc
 50
200.9248324276
 51
315.0
  0
LINE
  5
BD
330
1F
100
AcDbEntity
  8
0
  6
Continuous
 62
     7
370
    25
100
AcDbLine
 10
133.5340381243
 20
43.3923520234
 30
0.0
 11
135.0745169746
 21
43.3923520234
 31
0.0
  0
LINE
  5
BE
330
1F
100
AcDbEntity
  8
0
  6
Continuous
 62
     7
370
    25
100
AcDbLine
 10
135.0745169746
 20
43.3923520234
 30
0.0
 11
135.0745169746
 21
43.9003520234
 31
0.0
  0
LINE
  5
BF
330
1F
100
AcDbEntity
  8
0
  6
Continuous
 62
     7
370
    25
100
AcDbLine
 10
135.0745169746
 20
43.9003520234
 30
0.0
 11
133.5340381243
 21
43.9003520234
 31
0.0
  0
ARC
  5
C0
330
1F
100
AcDbEntity
  8
0
  6
Continuous
 62
     7
370
    25
100
AcDbCircle
 10
134.1983343233
 20
43.6463520234
 30
0.0
 40
0.7112000000000488
100
AcDbArc
 50
45.0
 51
159.0751675723
  0
LINE
  5
C1
330
1F
100
AcDbEntity
  8
0
  6
Continuous
 62
     7
370
    25
100
AcDbLine
 10
134.7012286661
 20
44.1492463662
 30
0.0
 11
135.0745169746
 21
44.5225346747
 31
0.0
  0
ARC
  5
C2
330
1F
100
AcDbEntity
  8
0
  6
Continuous
 62
     7
370
    25
100
AcDbCircle
 10
134.1983343233
 20
43.6463520234
 30
0.0
 40
1.239109388553836
100
AcDbArc
 50
45.0
 51
315.0
  0
ELLIPSE
  5
C3
330
1F
100
AcDbEntity
  8
0
  6
Continuous
 62
     7
370
    25
100
AcDbEllipse
 10
127.2839640998
 20
40.8048712799
 30
0.0
 11
2.293035763987632
 21
-1.058708676282549E-12
 31
0.0
210
0.0
220
0.0
230
1.0
 40
0.9533039403
 41
0.8210019969645896
 42
2.320590656625102
  0
ELLIPSE
  5
C4
330
1F
100
AcDbEntity
  8
0
  6
Continuous
 62
     7
370
    25
100
AcDbEllipse
 10
128.8928740963
 20
42.4519501763
 30
0.0
 11
0.0678412947923448
 21
0.0
 31
0.0
210
0.0
220
0.0
230
1.0
 40
0.9533039403
 41
3.962594650555271
 42
5.819537698174823
  0
LINE
  5
C5
330
1F
100
AcDbEntity
  8
0
  6
Continuous
 62
     7
370
    25
100
AcDbLine
 10
128.9535531951
 20
42.4230273644
 30
0.0
 11
129.5905681227
 21
43.6375650455
 31
0.0
  0
LINE
  5
C6
330
1F
100
AcDbEntity
  8
0
  6
Continuous
 62
     7
370
    25
100
AcDbLine
 10
129.5905681227
 20
43.6375650455
 30
0.0
 11
129.5572478673
 21
43.6185211016
 31
0.0
  0
ELLIPSE
  5
C7
330
1F
100
AcDbEntity
  8
0
  6
Continuous
 62
     7
370
    25
100
AcDbEllipse
 10
129.2781733237
 20
44.0622670786
 30
0.0
 11
0.5427303583402932
 21
3.552713678800501E-13
 31
0.0
210
0.0
220
0.0
230
1.0
 40
0.9533039404
 41
3.470145824142413
 42
5.252469180527877
  0
LINE
  5
C8
330
1F
100
AcDbEntity
  8
0
  6
Continuous
 62
     7
370
    25
100
AcDbLine
 10
128.76447351
 20
43.8953197866
 30
0.0
 11
127.7567498006
 21
46.71327627
 31
0.0
  0
LINE
  5
C9
330
1F
100
AcDbEntity
  8
0
  6
Continuous
 62
     7
370
    25
100
AcDbLine
 10
126.8111783989
 20
46.71327627
 30
0.0
 11
125.803689526
 21
43.8959764737
 31
0.0
  0
ELLIPSE
  5
CA
330
1F
100
AcDbEntity
  8
0
  6
Continuous
 62
     7
370
    25
100
AcDbEllipse
 10
125.2899897124
 20
44.0629237657
 30
0.0
 11
-0.5427303583406626
 21
3.552713678800501E-13
 31
0.0
210
0.0
220
0.0
230
1.0
 40
0.9533039403
 41
1.047197551196587
 42
2.813039483039282
  0
LINE
  5
CB
330
1F
100
AcDbEntity
  8
0
  6
Continuous
 62
     7
370
    25
100
AcDbLine
 10
124.9773600768
 20
43.6375650455
 30
0.0
 11
125.6143750044
 21
42.4230273644
 31
0.0
  0
ELLIPSE
  5
CC
330
1F
100
AcDbEntity
  8
0
  6
Continuous
 62
     7
370
    25
100
AcDbEllipse
 10
125.6750541032
 20
42.4519501763
 30
0.0
 11
0.06784129479237322
 21
0.0
 31
0.0
210
0.0
220
0.0
230
1.0
 40
0.9533039403
 41
3.605240262580861
 42
5.462183310226999
  0
LINE
  5
CD
330
1F
100
AcDbEntity
  8
0
  6
Continuous
 62
     7
370
    25
100
AcDbLine
 10
137.6404163269
 20
48.9513981639
 30
0.0
 11
123.029520148
 21
48.9513981639
 31
0.0
  0
LINE
  5
CE
330
1F
100
AcDbEntity
  8
0
  6
Continuous
 62
     7
370
    25
100
AcDbLine
 10
132.027512989
 20
44.1492463662
 30
0.0
 11
132.4008012975
 21
44.5225346747
 31
0.0
  0
LINE
  5
CF
330
1F
100
AcDbEntity
  8
0
  6
Continuous
 62
     7
370
    25
100
AcDbLine
 10
125.0186245332
 20
43.6148534895
 30
0.0
 11
124.9773600768
 21
43.6375650455
 31
0.0
  0
ELLIPSE
  5
D0
330
1F
100
AcDbEntity
  8
0
  6
Continuous
 62
     7
370
    25
100
AcDbEllipse
 10
127.2839640998
 20
46.5034039151
 30
0.0
 11
0.521529953717689
 21
0.0
 31
0.0
210
0.0
220
0.0
230
1.0
 40
0.9533039403
 41
0.4357918987553392
 42
2.705800754834423
  0
LINE
  5
D1
330
1F
100
AcDbEntity
  8
0
  6
Continuous
 62
     7
370
    25
100
AcDbLine
 10
135.0745169746
 20
42.7701693721
 30
0.0
 11
134.7012286661
 21
43.1434576806
 31
0.0
  0
LINE
  5
D2
330
1F
100
AcDbEntity
  8
0
  6
Continuous
 62
     7
370
    25
100
AcDbLine
 10
132.4008012975
 20
42.7701693721
 30
0.0
 11
132.027512989
 21
43.1434576806
 31
0.0
  0
LINE
  5
D3
330
1F
100
AcDbEntity
  8
0
  6
Continuous
 62
     7
370
    25
100
AcDbLine
 10
123.2053667379
 20
49.4513981639
 30
0.0
 11
137.464569737
 21
49.4513981639
 31
0.0
  0
ELLIPSE
  5
D4
330
1F
100
AcDbEntity
  8
0
  6
Continuous
 62
     7
370
    25
100
AcDbEllipse
 10
127.2839641014
 20
44.6093980074
 30
0.0
 11
0.06784129479270007
 21
0.0
 31
0.0
210
0.0
220
0.0
230
1.0
 40
0.9533039403
 41
0.3430239385579903
 42
2.798568711308906
  0
LINE
  5
D5
330
1F
100
AcDbEntity
  8
0
  6
Continuous
 62
     7
370
    25
100
AcDbLine
 10
127.5907924342
 20
43.9826839231
 30
0.0
 11
127.3478530921
 21
44.6311500167
 31
0.0
  0
LINE
  5
D6
330
1F
100
AcDbEntity
  8
0
  6
Continuous
 62
     7
370
    25
100
AcDbLine
 10
127.0410247564
 20
43.8962585401
 30
0.0
 11
127.5269034435
 21
43.8962585401
 31
0.0
  0
ELLIPSE
  5
D7
330
1F
100
AcDbEntity
  8
0
  6
Continuous
 62
     7
370
    25
100
AcDbEllipse
 10
127.0410247564
 20
43.9609319137
 30
0.0
 11
0.0678412947923448
 21
0.0
 31
0.0
210
0.0
220
0.0
230
1.0
 40
0.9533039403
 41
2.798568711307424
 42
4.712388980384703
  0
LINE
  5
D8
330
1F
100
AcDbEntity
  8
0
  6
Continuous
 62
     7
370
    25
100
AcDbLine
 10
127.2200751108
 20
44.631150017
 30
0.0
 11
126.9771357658
 21
43.9826839233
 31
0.0
  0
ELLIPSE
  5
D9
330
1F
100
AcDbEntity
  8
0
  6
Continuous
 62
     7
370
    25
100
AcDbEllipse
 10
127.5269034435
 20
43.9609319137
 30
0.0
 11
-0.06784129479237322
 21
0.0
 31
0.0
210
0.0
220
0.0
230
1.0
 40
0.9533039403
 41
1.570796326794897
 42
3.484616592149482
  0
LINE
  5
DA
330
1F
100
AcDbEntity
  8
0
  6
Continuous
 62
     7
370
    25
100
AcDbLine
 10
150.3349682374
 20
44.4513981639
 30
0.0
 11
150.3349682374
 21
36.4513981639
 31
0.0
  0
LINE
  5
DB
330
1F
100
AcDbEntity
  8
0
  6
Continuous
 62
     7
370
    25
100
AcDbLine
 10
150.3349682374
 20
52.4513981639
 30
0.0
 11
150.3349682374
 21
44.4513981639
 31
0.0
  0
LINE
  5
DC
330
1F
100
AcDbEntity
  8
0
  6
Continuous
 62
     7
370
    25
100
AcDbLine
 10
150.0849682374
 20
44.4513981639
 30
0.0
 11
150.0849682374
 21
52.7013981639
 31
0.0
  0
LINE
  5
DD
330
1F
100
AcDbEntity
  8
0
  6
Continuous
 62
     7
370
    25
100
AcDbLine
 10
150.0849682374
 20
36.2013981639
 30
0.0
 11
150.0849682374
 21
44.4513981639
 31
0.0
  0
ARC
  5
DE
330
1F
100
AcDbEntity
  8
0
  6
Continuous
 62
     7
370
    25
100
AcDbCircle
 10
137.3349682374
 20
38.9513981639
 30
0.0
 40
0.5
100
AcDbArc
 50
0.0
 51
90.0
  0
ARC
  5
DF
330
1F
100
AcDbEntity
  8
0
  6
Continuous
 62
     7
370
    25
100
AcDbCircle
 10
123.3349682374
 20
38.9513981639
 30
0.0
 40
0.5
100
AcDbArc
 50
90.0
 51
180.0
  0
ARC
  5
E0
330
1F
100
AcDbEntity
  8
0
  6
Continuous
 62
     7
370
    25
100
AcDbCircle
 10
137.3349682374
 20
49.9513981639
 30
0.0
 40
0.5
100
AcDbArc
 50
270.0
 51
0.0
  0
ARC
  5
E1
330
1F
100
AcDbEntity
  8
0
  6
Continuous
 62
     7
370
    25
100
AcDbCircle
 10
123.3349682374
 20
49.9513981639
 30
0.0
 40
0.5
100
AcDbArc
 50
180.0
 51
270.0
  0
LWPOLYLINE
  5
E2
330
1F
100
AcDbEntity
  8
0
  6
Continuous
 62
     7
370
    25
100
AcDbPolyline
 90
        9
 70
   128
 43
0.0
 10
137.3349682374
 20
49.6458426084
 10
137.4325133984
 20
49.6517137727
 10
137.5263099536
 20
49.6691016401
 10
137.6127533539
 20
49.6973380046
 10
137.688521628
 20
49.7353377586
 10
137.7507030436
 20
49.7816405927
 10
137.7969080037
 20
49.8344671151
 10
137.8253608776
 20
49.8917872322
 10
137.8349682374
 20
49.9513981639
  0
LINE
  5
E3
330
1F
100
AcDbEntity
  8
0
  6
Continuous
 62
     7
370
    25
100
AcDbLine
 10
137.3349682374
 20
49.4513981639
 30
0.0
 11
137.3349682374
 21
49.6458426084
 31
0.0
  0
LWPOLYLINE
  5
E4
330
1F
100
AcDbEntity
  8
0
  6
Continuous
 62
     7
370
    25
100
AcDbPolyline
 90
        9
 70
   128
 43
0.0
 10
123.3349682374
 20
39.2569537195
 10
123.2374230764
 20
39.2510825551
 10
123.1436265213
 20
39.2336946877
 10
123.0571831209
 20
39.2054583232
 10
122.9814148468
 20
39.1674585693
 10
122.9192334313
 20
39.1211557351
 10
122.8730284712
 20
39.0683292127
 10
122.8445755972
 20
39.0110090956
 10
122.8349682374
 20
38.9513981639
  0
LINE
  5
E5
330
1F
100
AcDbEntity
  8
0
  6
Continuous
 62
     7
370
    25
100
AcDbLine
 10
123.3349682374
 20
39.2569537195
 30
0.0
 11
123.3349682374
 21
39.4513981639
 31
0.0
  0
LINE
  5
E6
330
1F
100
AcDbEntity
  8
0
  6
Continuous
 62
     7
370
    25
100
AcDbLine
 10
137.3349682374
 20
39.2569537195
 30
0.0
 11
123.3349682374
 21
39.2569537195
 31
0.0
  0
LINE
  5
E7
330
1F
100
AcDbEntity
  8
0
  6
Continuous
 62
     7
370
    25
100
AcDbLine
 10
137.3349682374
 20
39.2569537195
 30
0.0
 11
137.3349682374
 21
39.4513981639
 31
0.0
  0
LWPOLYLINE
  5
E8
330
1F
100
AcDbEntity
  8
0
  6
Continuous
 62
     7
370
    25
100
AcDbPolyline
 90
        9
 70
   128
 43
0.0
 10
122.8349682374
 20
49.9513981639
 10
122.8445755972
 20
49.8917872322
 10
122.8730284712
 20
49.8344671151
 10
122.9192334313
 20
49.7816405927
 10
122.9814148468
 20
49.7353377586
 10
123.0571831209
 20
49.6973380046
 10
123.1436265213
 20
49.6691016401
 10
123.2374230764
 20
49.6517137727
 10
123.3349682374
 20
49.6458426084
  0
LINE
  5
E9
330
1F
100
AcDbEntity
  8
0
  6
Continuous
 62
     7
370
    25
100
AcDbLine
 10
123.3349682374
 20
49.4513981639
 30
0.0
 11
123.3349682374
 21
49.6458426084
 31
0.0
  0
LWPOLYLINE
  5
EA
330
1F
100
AcDbEntity
  8
0
  6
Continuous
 62
     7
370
    25
100
AcDbPolyline
 90
        9
 70
   128
 43
0.0
 10
137.8349682374
 20
38.9513981639
 10
137.8253608776
 20
39.0110090956
 10
137.7969080037
 20
39.0683292127
 10
137.7507030436
 20
39.1211557351
 10
137.688521628
 20
39.1674585693
 10
137.6127533539
 20
39.2054583232
 10
137.5263099536
 20
39.2336946877
 10
137.4325133984
 20
39.2510825551
 10
137.3349682374
 20
39.2569537195
  0
LINE
  5
EB
330
1F
100
AcDbEntity
  8
0
  6
Continuous
 62
     7
370
    25
100
AcDbLine
 10
123.3349682374
 20
49.6458426084
 30
0.0
 11
137.3349682374
 21
49.6458426084
 31
0.0
  0
SPLINE
  5
EC
330
1F
100
AcDbEntity
  8
0
  6
Continuous
 62
     7
370
    25
100
AcDbSpline
210
0.0
220
0.0
230
1.0
 70
    11
 71
     3
 72
    26
 73
    22
 74
     0
 42
0.00000001
 43
0.00000001
 40
0.0
 40
0.0
 40
0.0
 40
0.0
 40
0.125
 40
0.125
 40
0.1875
 40
0.1875
 40
0.25
 40
0.25
 40
0.3125
 40
0.3125
 40
0.375
 40
0.375
 40
0.5
 40
0.5
 40
0.625
 40
0.625
 40
0.75
 40
0.75
 40
0.875
 40
0.875
 40
1.0
 40
1.0
 40
1.0
 40
1.0
 10
130.8482872062876
 20
52.45139816391335
 30
0.0
 10
130.8482872062876
 20
52.59051719514217
 30
0.0
 10
130.7954912351387
 20
52.72624489811766
 30
0.0
 10
130.6540356452614
 20
52.87926363461343
 30
0.0
 10
130.5974817088895
 20
52.92076653563396
 30
0.0
 10
130.4719375574461
 20
52.97796642942765
 30
0.0
 10
130.4027859443381
 20
52.99325041817198
 30
0.0
 10
130.2656275695946
 20
52.99302954440834
 30
0.0
 10
130.1965129867885
 20
52.97746948312067
 30
0.0
 10
130.0717532181574
 20
52.92026364862667
 30
0.0
 10
130.0151221298229
 20
52.87851222135971
 30
0.0
 10
129.8750085033
 20
52.72667135307626
 30
0.0
 10
129.8216879693534
 20
52.5906190258084
 30
0.0
 10
129.8216106107773
 20
52.31248633210505
 30
0.0
 10
129.8752989927989
 20
52.17568432208506
 30
0.0
 10
130.0619938071067
 20
51.97361551842
 30
0.0
 10
130.1978750164702
 20
51.90944575873445
 30
0.0
 10
130.4735061505087
 20
51.90986681153546
 30
0.0
 10
130.6084811889224
 20
51.97413549395877
 30
0.0
 10
130.7943286659884
 20
52.17541304518289
 30
0.0
 10
130.8482872062877
 20
52.31227913268453
 30
0.0
 10
130.8482872062876
 20
52.45139816391335
 30
0.0
  0
SPLINE
  5
ED
330
1F
100
AcDbEntity
  8
0
  6
Continuous
 62
     7
370
    25
100
AcDbSpline
210
0.0
220
0.0
230
1.0
 70
    11
 71
     3
 72
    38
 73
    34
 74
     0
 42
0.00000001
 43
0.00000001
 40
0.0
 40
0.0
 40
0.0
 40
0.0
 40
0.0625
 40
0.0625
 40
0.125
 40
0.125
 40
0.1874999999999999
 40
0.1874999999999999
 40
0.2499999999999999
 40
0.2499999999999999
 40
0.3125
 40
0.3125
 40
0.375
 40
0.375
 40
0.4375000000000001
 40
0.4375000000000001
 40
0.5000000000000001
 40
0.5000000000000001
 40
0.5625000000000001
 40
0.5625000000000001
 40
0.6250000000000001
 40
0.6250000000000001
 40
0.6875000000000001
 40
0.6875000000000001
 40
0.75
 40
0.75
 40
0.8125
 40
0.8125
 40
0.875
 40
0.875
 40
0.9375
 40
0.9375
 40
1.0
 40
1.0
 40
1.0
 40
1.0
 10
129.3349682374392
 20
52.45139816391334
 30
0.0
 10
129.3349682374393
 20
52.31901224900304
 30
0.0
 10
129.3611167885821
 20
52.18912492252434
 30
0.0
 10
129.4615824580399
 20
51.94704592793847
 30
0.0
 10
129.5358673244365
 20
51.83626457388245
 30
0.0
 10
129.7200165041712
 20
51.65215729377668
 30
0.0
 10
129.8313921267654
 20
51.57768862248069
 30
0.0
 10
130.0719406312993
 20
51.47786144635199
 30
0.0
 10
130.2036985272867
 20
51.45147352627868
 30
0.0
 10
130.4650872194506
 20
51.45132313259186
 30
0.0
 10
130.5962592900423
 20
51.4772629530019
 30
0.0
 10
130.838696976042
 20
51.57763058542718
 30
0.0
 10
130.9487511441916
 20
51.6510194885724
 30
0.0
 10
131.1350044616025
 20
51.83716895540195
 30
0.0
 10
131.2084307894956
 20
51.94720747280195
 30
0.0
 10
131.3087955371246
 20
52.18909018989063
 30
0.0
 10
131.3349168014207
 20
52.32036470840194
 30
0.0
 10
131.3350195189059
 20
52.58164535777447
 30
0.0
 10
131.3087758908123
 20
52.71346076128739
 30
0.0
 10
131.2091075340141
 20
52.95424867936885
 30
0.0
 10
131.1348267420456
 20
53.06558088076686
 30
0.0
 10
130.950640001612
 20
53.25011107596186
 30
0.0
 10
130.8402164275494
 20
53.32429740523563
 30
0.0
 10
130.5978317123094
 20
53.42511866420579
 30
0.0
 10
130.467907532743
 20
53.45129289351082
 30
0.0
 10
130.2036174232261
 20
53.45150280349774
 30
0.0
 10
130.0733836645641
 20
53.42541508113456
 30
0.0
 10
129.8314909933934
 20
53.32526663715596
 30
0.0
 10
129.7204750679868
 20
53.2509803419908
 30
0.0
 10
129.5363073320067
 20
53.06708824255401
 30
0.0
 10
129.4617086605047
 20
52.95575809199999
 30
0.0
 10
129.3616578469595
 20
52.71526955219137
 30
0.0
 10
129.3349682374393
 20
52.58378407882365
 30
0.0
 10
129.3349682374393
 20
52.45139816391335
 30
0.0
  0
LINE
  5
EE
330
1F
100
AcDbEntity
  8
0
  6
Continuous
 62
     7
370
    25
100
AcDbLine
 10
117.3349682374
 20
45.3272213868
 30
0.0
 11
117.3349682374
 21
52.2513981639
 31
0.0
  0
LINE
  5
EF
330
1F
100
AcDbEntity
  8
0
  6
Continuous
 62
     7
370
    25
100
AcDbLine
 10
117.3349682374
 20
36.6513981639
 30
0.0
 11
117.3349682374
 21
45.3272213868
 31
0.0
  0
LINE
  5
F0
330
1F
100
AcDbEntity
  8
0
  6
Continuous
 62
     7
370
    25
100
AcDbLine
 10
117.5349682374
 20
45.3496783925
 30
0.0
 11
117.5349682374
 21
36.4513981639
 31
0.0
  0
LINE
  5
F1
330
1F
100
AcDbEntity
  8
0
  6
Continuous
 62
     7
370
    25
100
AcDbLine
 10
117.5349682374
 20
52.4513981639
 30
0.0
 11
117.5349682374
 21
45.3496783925
 31
0.0
  0
LINE
  5
F2
330
1F
100
AcDbEntity
  8
0
  6
Continuous
 62
     7
370
    25
100
AcDbLine
 10
107.3349682374
 20
45.0777801958
 30
0.0
 11
107.3349682374
 21
50.0298981639
 31
0.0
  0
LINE
  5
F3
330
1F
100
AcDbEntity
  8
0
  6
Continuous
 62
     7
370
    25
100
AcDbLine
 10
107.3349682374
 20
38.8728981639
 30
0.0
 11
107.3349682374
 21
45.0777801958
 31
0.0
  0
LINE
  5
F4
330
1F
100
AcDbEntity
  8
0
  6
Continuous
 62
     7
370
    25
100
AcDbLine
 10
108.3349682374
 20
45.1900652244
 30
0.0
 11
108.3349682374
 21
37.8728981639
 31
0.0
  0
LINE
  5
F5
330
1F
100
AcDbEntity
  8
0
  6
Continuous
 62
     7
370
    25
100
AcDbLine
 10
108.3349682374
 20
51.0298981639
 30
0.0
 11
108.3349682374
 21
45.1900652244
 31
0.0
  0
SPLINE
  5
F6
330
1F
100
AcDbEntity
  8
0
  6
Continuous
 62
     7
370
    25
100
AcDbSpline
210
0.0
220
0.0
230
1.0
 70
     8
 71
     3
 72
    15
 73
    11
 74
     0
 42
0.00000001
 43
0.00000001
 40
0.0
 40
0.0
 40
0.0
 40
0.0
 40
0.0090459071881971
 40
0.1032433785236816
 40
0.1542564497735189
 40
0.31331690267151
 40
0.5243720399414428
 40
0.6678060008509183
 40
0.9918332554187028
 40
1.0
 40
1.0
 40
1.0
 40
1.0
 10
135.5740535700974
 20
71.55139816391335
 30
0.0
 10
135.5740478781307
 20
71.55307926249776
 30
0.0
 10
135.5739829141799
 20
71.57226609405329
 30
0.0
 10
135.571987227744
 20
71.60096037357327
 30
0.0
 10
135.5641702315276
 20
71.6516364135452
 30
0.0
 10
135.5470004077726
 20
71.70951271312211
 30
0.0
 10
135.520416511205
 20
71.75437822785679
 30
0.0
 10
135.4825872127165
 20
71.79174061111134
 30
0.0
 10
135.4543064327062
 20
71.80128662338079
 30
0.0
 10
135.4344752851749
 20
71.80139548756758
 30
0.0
 10
135.433987751032
 20
71.80139816391335
 30
0.0
  0
LINE
  5
F7
330
1F
100
AcDbEntity
  8
0
  6
Continuous
 62
     7
370
    25
100
AcDbLine
 10
135.5740535701
 20
71.5513981639
 30
0.0
 11
125.0958829048
 21
71.5513981639
 31
0.0
  0
SPLINE
  5
F8
330
1F
100
AcDbEntity
  8
0
  6
Continuous
 62
     7
370
    25
100
AcDbSpline
210
0.0
220
0.0
230
1.0
 70
     8
 71
     3
 72
    15
 73
    11
 74
     0
 42
0.00000001
 43
0.00000001
 40
0.0
 40
0.0
 40
0.0
 40
0.0
 40
0.0081667445812973
 40
0.3321939991490804
 40
0.475627960058556
 40
0.6866830973284891
 40
0.8457435502264751
 40
0.8967566214763124
 40
0.9909540928118028
 40
1.0
 40
1.0
 40
1.0
 40
1.0
 10
125.2359487238465
 20
71.80139816391335
 30
0.0
 10
125.2354611897036
 20
71.80139548756758
 30
0.0
 10
125.2156300421724
 20
71.80128662338075
 30
0.0
 10
125.1873492621621
 20
71.79174061111134
 30
0.0
 10
125.1495199636735
 20
71.75437822785678
 30
0.0
 10
125.1229360671059
 20
71.70951271312211
 30
0.0
 10
125.105766243351
 20
71.65163641354522
 30
0.0
 10
125.0979492471345
 20
71.60096037357327
 30
0.0
 10
125.0959535606986
 20
71.57226609405326
 30
0.0
 10
125.0958885967478
 20
71.55307926249777
 30
0.0
 10
125.0958829047812
 20
71.55139816391336
 30
0.0
  0
LINE
  5
F9
330
1F
100
AcDbEntity
  8
0
  6
Continuous
 62
     7
370
    25
100
AcDbLine
 10
125.2359487238
 20
71.8013981639
 30
0.0
 11
135.433987751
 21
71.8013981639
 31
0.0
  0
LINE
  5
FA
330
1F
100
AcDbEntity
  8
0
  6
Continuous
 62
     7
370
    25
100
AcDbLine
 10
135.5740535701
 20
70.9513981639
 30
0.0
 11
135.5740535701
 21
71.5513981639
 31
0.0
  0
LINE
  5
FB
330
1F
100
AcDbEntity
  8
0
  6
Continuous
 62
     7
370
    25
100
AcDbLine
 10
125.0958829048
 20
71.5513981639
 30
0.0
 11
125.0958829048
 21
70.9513981639
 31
0.0
  0
LINE
  5
FC
330
1F
100
AcDbEntity
  8
0
  6
Continuous
 62
     7
370
    25
100
AcDbLine
 10
125.0958829048
 20
70.9513981639
 30
0.0
 11
135.5740535701
 21
70.9513981639
 31
0.0
  0
SPLINE
  5
FD
330
1F
100
AcDbEntity
  8
0
  6
Continuous
 62
     7
370
    25
100
AcDbSpline
210
0.0
220
0.0
230
1.0
 70
     8
 71
     3
 72
    15
 73
    11
 74
     0
 42
0.00000001
 43
0.00000001
 40
0.0
 40
0.0
 40
0.0
 40
0.0
 40
0.0089557228015919
 40
0.0999003359608209
 40
0.1531632460581751
 40
0.3125636920784904
 40
0.5249666935695061
 40
0.6689893599351777
 40
0.991915253381045
 40
1.0
 40
1.0
 40
1.0
 40
1.0
 10
124.8577426623876
 20
71.55139816391335
 30
0.0
 10
124.8577584179662
 20
71.55307928948626
 30
0.0
 10
124.8579341701228
 20
71.57183210411068
 30
0.0
 10
124.8633631861423
 20
71.60059433321821
 30
0.0
 10
124.8848986698496
 20
71.6514814066865
 30
0.0
 10
124.9326040981144
 20
71.70961705681916
 30
0.0
 10
125.0049950431064
 20
71.75432493000257
 30
0.0
 10
125.106914155124
 20
71.79160675346432
 30
0.0
 10
125.1822692465791
 20
71.80128590830195
 30
0.0
 10
125.2346688923024
 20
71.80139548750367
 30
0.0
 10
125.2359487238465
 20
71.80139816391335
 30
0.0
  0
LINE
  5
FE
330
1F
100
AcDbEntity
  8
0
  6
Continuous
 62
     7
370
    25
100
AcDbLine
 10
124.8577426624
 20
71.5513981639
 30
0.0
 11
125.0958829048
 21
71.5513981639
 31
0.0
  0
SPLINE
  5
FF
330
1F
100
AcDbEntity
  8
0
  6
Continuous
 62
     7
370
    25
100
AcDbSpline
210
0.0
220
0.0
230
1.0
 70
     8
 71
     3
 72
    15
 73
    11
 74
     0
 42
0.00000001
 43
0.00000001
 40
0.0
 40
0.0
 40
0.0
 40
0.0
 40
0.0080847466189582
 40
0.3310106400648243
 40
0.4750333064304948
 40
0.6874363079215142
 40
0.8468367539418303
 40
0.9000996640391847
 40
0.9910442771984082
 40
1.0
 40
1.0
 40
1.0
 40
1.0
 10
135.433987751032
 20
71.80139816391335
 30
0.0
 10
135.4352675825762
 20
71.80139548750367
 30
0.0
 10
135.4876672282994
 20
71.80128590830195
 30
0.0
 10
135.5630223197545
 20
71.79160675346431
 30
0.0
 10
135.6649414317722
 20
71.75432493000257
 30
0.0
 10
135.7373323767641
 20
71.70961705681917
 30
0.0
 10
135.7850378050289
 20
71.6514814066865
 30
0.0
 10
135.8065732887362
 20
71.6005943332182
 30
0.0
 10
135.8120023047558
 20
71.57183210411068
 30
0.0
 10
135.8121780569123
 20
71.55307928948626
 30
0.0
 10
135.8121938124909
 20
71.55139816391335
 30
0.0
  0
LINE
  5
100
330
1F
100
AcDbEntity
  8
0
  6
Continuous
 62
     7
370
    25
100
AcDbLine
 10
135.5740535701
 20
71.5513981639
 30
0.0
 11
135.8121938125
 21
71.5513981639
 31
0.0
  0
LINE
  5
101
330
1F
100
AcDbEntity
  8
0
  6
Continuous
 62
     7
370
    25
100
AcDbLine
 10
135.8121938125
 20
71.5513981639
 30
0.0
 11
135.8121938125
 21
70.9513981639
 31
0.0
  0
LINE
  5
102
330
1F
100
AcDbEntity
  8
0
  6
Continuous
 62
     7
370
    25
100
AcDbLine
 10
135.8121938125
 20
70.9513981639
 30
0.0
 11
135.5740535701
 21
70.9513981639
 31
0.0
  0
LINE
  5
103
330
1F
100
AcDbEntity
  8
0
  6
Continuous
 62
     7
370
    25
100
AcDbLine
 10
124.8577426624
 20
70.9513981639
 30
0.0
 11
124.8577426624
 21
71.5513981639
 31
0.0
  0
LINE
  5
104
330
1F
100
AcDbEntity
  8
0
  6
Continuous
 62
     7
370
    25
100
AcDbLine
 10
125.0958829048
 20
70.9513981639
 30
0.0
 11
124.8577426624
 21
70.9513981639
 31
0.0
  0
LINE
  5
105
330
1F
100
AcDbEntity
  8
0
  6
Continuous
 62
     7
370
    25
100
AcDbLine
 10
136.0849682374
 20
70.9513981639
 30
0.0
 11
136.0849682374
 21
71.5513981639
 31
0.0
  0
LINE
  5
106
330
1F
100
AcDbEntity
  8
0
  6
Continuous
 62
     7
370
    25
100
AcDbLine
 10
136.0849682374
 20
71.5513981639
 30
0.0
 11
135.8121938125
 21
71.5513981639
 31
0.0
  0
LINE
  5
107
330
1F
100
AcDbEntity
  8
0
  6
Continuous
 62
     7
370
    25
100
AcDbLine
 10
135.8121938125
 20
70.9513981639
 30
0.0
 11
136.0849682374
 21
70.9513981639
 31
0.0
  0
ARC
  5
108
330
1F
100
AcDbEntity
  8
0
  6
Continuous
 62
     7
370
    25
100
AcDbCircle
 10
124.5849682374
 20
71.5513981639
 30
0.0
 40
0.25
100
AcDbArc
 50
90.0
 51
180.0
  0
LINE
  5
109
330
1F
100
AcDbEntity
  8
0
  6
Continuous
 62
     7
370
    25
100
AcDbLine
 10
124.5849682374
 20
71.8013981639
 30
0.0
 11
124.5849682374
 21
71.5513981639
 31
0.0
  0
LINE
  5
10A
330
1F
100
AcDbEntity
  8
0
  6
Continuous
 62
     7
370
    25
100
AcDbLine
 10
124.3349682374
 20
71.5513981639
 30
0.0
 11
124.5849682374
 21
71.5513981639
 31
0.0
  0
LINE
  5
10B
330
1F
100
AcDbEntity
  8
0
  6
Continuous
 62
     7
370
    25
100
AcDbLine
 10
136.0849682374
 20
71.5513981639
 30
0.0
 11
136.3349682374
 21
71.5513981639
 31
0.0
  0
LINE
  5
10C
330
1F
100
AcDbEntity
  8
0
  6
Continuous
 62
     7
370
    25
100
AcDbLine
 10
136.0849682374
 20
71.5513981639
 30
0.0
 11
136.0849682374
 21
71.8013981639
 31
0.0
  0
ARC
  5
10D
330
1F
100
AcDbEntity
  8
0
  6
Continuous
 62
     7
370
    25
100
AcDbCircle
 10
136.0849682374
 20
71.5513981639
 30
0.0
 40
0.25
100
AcDbArc
 50
0.0
 51
90.0
  0
LINE
  5
10E
330
1F
100
AcDbEntity
  8
0
  6
Continuous
 62
     7
370
    25
100
AcDbLine
 10
124.5849682374
 20
71.5513981639
 30
0.0
 11
124.5849682374
 21
70.9513981639
 31
0.0
  0
LINE
  5
10F
330
1F
100
AcDbEntity
  8
0
  6
Continuous
 62
     7
370
    25
100
AcDbLine
 10
124.8577426624
 20
71.5513981639
 30
0.0
 11
124.5849682374
 21
71.5513981639
 31
0.0
  0
LINE
  5
110
330
1F
100
AcDbEntity
  8
0
  6
Continuous
 62
     7
370
    25
100
AcDbLine
 10
124.5849682374
 20
70.9513981639
 30
0.0
 11
124.8577426624
 21
70.9513981639
 31
0.0
  0
LINE
  5
111
330
1F
100
AcDbEntity
  8
0
  6
Continuous
 62
     7
370
    25
100
AcDbLine
 10
124.5849682374
 20
71.8013981639
 30
0.0
 11
125.2359487238
 21
71.8013981639
 31
0.0
  0
LINE
  5
112
330
1F
100
AcDbEntity
  8
0
  6
Continuous
 62
     7
370
    25
100
AcDbLine
 10
136.3349682374
 20
71.5513981639
 30
0.0
 11
136.3349682374
 21
70.9513981639
 31
0.0
  0
LINE
  5
113
330
1F
100
AcDbEntity
  8
0
  6
Continuous
 62
     7
370
    25
100
AcDbLine
 10
136.3349682374
 20
70.9513981639
 30
0.0
 11
136.0849682374
 21
70.9513981639
 31
0.0
  0
LINE
  5
114
330
1F
100
AcDbEntity
  8
0
  6
Continuous
 62
     7
370
    25
100
AcDbLine
 10
124.3349682374
 20
70.9513981639
 30
0.0
 11
124.3349682374
 21
71.5513981639
 31
0.0
  0
LINE
  5
115
330
1F
100
AcDbEntity
  8
0
  6
Continuous
 62
     7
370
    25
100
AcDbLine
 10
124.5849682374
 20
70.9513981639
 30
0.0
 11
124.3349682374
 21
70.9513981639
 31
0.0
  0
LINE
  5
116
330
1F
100
AcDbEntity
  8
0
  6
Continuous
 62
     7
370
    25
100
AcDbLine
 10
135.433987751
 20
71.8013981639
 30
0.0
 11
136.0849682374
 21
71.8013981639
 31
0.0
  0
LINE
  5
117
330
1F
100
AcDbEntity
  8
0
  6
Continuous
 62
     7
370
    25
100
AcDbLine
 10
125.3349682374
 20
71.8113981639
 30
0.0
 11
135.3349682374
 21
71.8113981639
 31
0.0
  0
LINE
  5
118
330
1F
100
AcDbEntity
  8
0
  6
Continuous
 62
     7
370
    25
100
AcDbLine
 10
135.3349682374
 20
71.8013981639
 30
0.0
 11
135.3349682374
 21
71.8113981639
 31
0.0
  0
LINE
  5
119
330
1F
100
AcDbEntity
  8
0
  6
Continuous
 62
     7
370
    25
100
AcDbLine
 10
125.3349682374
 20
71.8013981639
 30
0.0
 11
125.3349682374
 21
71.8113981639
 31
0.0
  0
LINE
  5
11A
330
1F
100
AcDbEntity
  8
0
  6
Continuous
 62
     7
370
    25
100
AcDbLine
 10
128.3349682374
 20
54.9513981639
 30
0.0
 11
137.3349682374
 21
54.9513981639
 31
0.0
  0
LINE
  5
11B
330
1F
100
AcDbEntity
  8
0
  6
Continuous
 62
     7
370
    25
100
AcDbLine
 10
128.3349682374
 20
54.9892150877
 30
0.0
 11
128.3349682374
 21
54.9513981639
 31
0.0
  0
SPLINE
  5
11C
330
1F
100
AcDbEntity
  8
0
  6
Continuous
 62
     7
370
    25
100
AcDbSpline
210
0.0
220
0.0
230
1.0
 70
     8
 71
     3
 72
     9
 73
     5
 74
     0
 42
0.00000001
 43
0.00000001
 40
0.0
 40
0.0
 40
0.0
 40
0.0
 40
0.4875141023677128
 40
0.9999999999999999
 40
0.9999999999999999
 40
0.9999999999999999
 40
0.9999999999999999
 10
128.179022987012
 20
54.95139816391342
 30
0.0
 10
128.2053295609346
 20
54.95312550988512
 30
0.0
 10
128.2592902028829
 20
54.95666868117659
 30
0.0
 10
128.3093257335777
 20
54.97818716712591
 30
0.0
 10
128.3349682374393
 20
54.98921508771333
 30
0.0
  0
SPLINE
  5
11D
330
1F
100
AcDbEntity
  8
0
  6
Continuous
 62
     7
370
    25
100
AcDbSpline
210
0.0
220
0.0
230
1.0
 70
     8
 71
     3
 72
    17
 73
    13
 74
     0
 42
0.00000001
 43
0.00000001
 40
0.0
 40
0.0
 40
0.0
 40
0.0
 40
0.3241697628029873
 40
0.5422758463620719
 40
0.689509052693928
 40
0.7894036290694505
 40
0.8577090008137825
 40
0.9049823971474137
 40
0.9551712229700868
 40
0.9753097783197817
 40
0.9919572060138848
 40
1.0
 40
1.0
 40
1.0
 40
1.0
 10
125.8604213533571
 20
62.95139816391099
 30
0.0
 10
126.0031367133743
 20
62.0387846613053
 30
0.0
 10
126.2418730223163
 20
60.51215165504397
 30
0.0
 10
126.6214602167679
 20
58.585378752763
 30
0.0
 10
126.930594425115
 20
57.29774328183022
 30
0.0
 10
127.1867079533151
 20
56.43859131510848
 30
0.0
 10
127.4010189562101
 20
55.86512342673108
 30
0.0
 10
127.604253177238
 20
55.44359127270111
 30
0.0
 10
127.7887984417806
 20
55.16309872990568
 30
0.0
 10
127.9748695281487
 20
55.00755006132503
 30
0.0
 10
128.0900801274046
 20
54.95693946212753
 30
0.0
 10
128.1571689328775
 20
54.95275971032289
 30
0.0
 10
128.179022987012
 20
54.95139816391342
 30
0.0
  0
LINE
  5
11E
330
1F
100
AcDbEntity
  8
0
  6
Continuous
 62
     7
370
    25
100
AcDbLine
 10
125.8604213534
 20
62.9513981639
 30
0.0
 11
137.7849682374
 21
62.9513981639
 31
0.0
  0
SPLINE
  5
11F
330
1F
100
AcDbEntity
  8
0
  6
Continuous
 62
     7
370
    25
100
AcDbSpline
210
0.0
220
0.0
230
1.0
 70
     8
 71
     3
 72
     9
 73
     5
 74
     0
 42
0.00000001
 43
0.00000001
 40
0.0
 40
0.0
 40
0.0
 40
0.0
 40
0.4978401817595073
 40
1.0
 40
1.0
 40
1.0
 40
1.0
 10
126.6206321091189
 20
63.94614174188028
 30
0.0
 10
126.4843102007482
 20
63.78963055918769
 30
0.0
 10
126.2104835524273
 20
63.47525018486866
 30
0.0
 10
125.9774443013307
 20
63.12651763684241
 30
0.0
 10
125.8604213533571
 20
62.95139816391099
 30
0.0
  0
LINE
  5
120
330
1F
100
AcDbEntity
  8
0
  6
Continuous
 62
     7
370
    25
100
AcDbLine
 10
125.1111660631
 20
70.9513981639
 30
0.0
 11
123.3830273991
 21
63.9461417419
 31
0.0
  0
LINE
  5
121
330
1F
100
AcDbEntity
  8
0
  6
Continuous
 62
     7
370
    25
100
AcDbLine
 10
135.5740535701
 20
70.9513981639
 30
0.0
 11
125.1111660631
 21
70.9513981639
 31
0.0
  0
SPLINE
  5
122
330
1F
100
AcDbEntity
  8
0
  6
Continuous
 62
     7
370
    25
100
AcDbSpline
210
0.0
220
0.0
230
1.0
 70
     8
 71
     3
 72
    14
 73
    10
 74
     0
 42
0.00000001
 43
0.00000001
 40
0.0
 40
0.0
 40
0.0
 40
0.0
 40
0.1576095309202822
 40
0.3152382602707094
 40
0.4726926441579498
 40
0.6301650083177254
 40
0.7907313191165901
 40
0.9513050385928076
 40
1.0
 40
1.0
 40
1.0
 40
1.0
 10
123.8349682374393
 20
54.95139816391335
 30
0.0
 10
123.7683972226572
 20
55.16489995239075
 30
0.0
 10
123.6352470840723
 20
55.59192953601626
 30
0.0
 10
123.3066801223216
 20
56.17717661487258
 30
0.0
 10
122.8932904815896
 20
56.699331155695
 30
0.0
 10
122.3976155626449
 20
57.14830928311487
 30
0.0
 10
121.8313258573604
 20
57.50759101492125
 30
0.0
 10
121.3550752009674
 20
57.71215719402242
 30
0.0
 10
121.0748806327746
 20
57.79295174237373
 30
0.0
 10
121.0096818480016
 20
57.8117519154205
 30
0.0
  0
LINE
  5
123
330
1F
100
AcDbEntity
  8
0
  6
Continuous
 62
     7
370
    25
100
AcDbLine
 10
121.009681848
 20
57.8117519154
 30
0.0
 11
115.2299249981
 21
59.3803733559
 31
0.0
  0
SPLINE
  5
124
330
1F
100
AcDbEntity
  8
0
  6
Continuous
 62
     7
370
    25
100
AcDbSpline
210
0.0
220
0.0
230
1.0
 70
     8
 71
     3
 72
    11
 73
     7
 74
     0
 42
0.00000001
 43
0.00000001
 40
0.0
 40
0.0
 40
0.0
 40
0.0
 40
0.2488466353289361
 40
0.4976946020535204
 40
0.7488461225871278
 40
1.0
 40
1.0
 40
1.0
 40
1.0
 10
108.1595313759026
 20
60.70357385688889
 30
0.0
 10
108.7539674250389
 20
60.63404948039526
 30
0.0
 10
109.9428427037023
 20
60.49500035543409
 30
0.0
 10
111.7175673744113
 20
60.19467161730881
 30
0.0
 10
113.4841480161537
 20
59.83276199905366
 30
0.0
 10
114.6479975171734
 20
59.5311700419891
 30
0.0
 10
115.2299249981464
 20
59.38037335590337
 30
0.0
  0
LINE
  5
125
330
1F
100
AcDbEntity
  8
0
  6
Continuous
 62
     7
370
    25
100
AcDbLine
 10
108.1595313759
 20
60.7035738569
 30
0.0
 11
108.1595313759
 21
63.9461417419
 31
0.0
  0
LINE
  5
126
330
1F
100
AcDbEntity
  8
0
  6
Continuous
 62
     7
370
    25
100
AcDbLine
 10
108.1595313759
 20
63.9461417419
 30
0.0
 11
126.6206321091
 21
63.9461417419
 31
0.0
  0
LINE
  5
127
330
1F
100
AcDbEntity
  8
0
  6
Continuous
 62
     7
370
    25
100
AcDbLine
 10
128.179022987
 20
54.9513981639
 30
0.0
 11
123.8349682374
 21
54.9513981639
 31
0.0
  0
LINE
  5
128
330
1F
100
AcDbEntity
  8
0
  6
Continuous
 62
     7
370
    25
100
AcDbLine
 10
128.3349682374
 20
54.9892150877
 30
0.0
 11
128.3281688795
 21
54.9513981639
 31
0.0
  0
LINE
  5
129
330
1F
100
AcDbEntity
  8
0
  6
Continuous
 62
     7
370
    25
100
AcDbLine
 10
128.3349682374
 20
54.9513981639
 30
0.0
 11
128.3281688795
 21
54.9513981639
 31
0.0
  0
LINE
  5
12A
330
1F
100
AcDbEntity
  8
0
  6
Continuous
 62
     7
370
    25
100
AcDbLine
 10
128.3281688795
 20
54.9513981639
 30
0.0
 11
128.179022987
 21
54.9513981639
 31
0.0
  0
LINE
  5
12B
330
1F
100
AcDbEntity
  8
0
  6
Continuous
 62
     7
370
    25
100
AcDbLine
 10
90.3349682374
 20
72.9513981639
 30
0.0
 11
108.1595313759
 21
72.9513981639
 31
0.0
  0
LINE
  5
12C
330
1F
100
AcDbEntity
  8
0
  6
Continuous
 62
     7
370
    25
100
AcDbLine
 10
108.1595313759
 20
72.9513981639
 30
0.0
 11
108.1595313759
 21
63.9461417419
 31
0.0
  0
LINE
  5
12D
330
1F
100
AcDbEntity
  8
0
  6
Continuous
 62
     7
370
    25
100
AcDbLine
 10
103.4433003797
 20
60.9513981639
 30
0.0
 11
95.3349682374
 21
60.9513981639
 31
0.0
  0
ARC
  5
12E
330
1F
100
AcDbEntity
  8
0
  6
Continuous
 62
     7
370
    25
100
AcDbCircle
 10
95.3349682374
 20
65.9513981639
 30
0.0
 40
5.0
100
AcDbArc
 50
180.0
 51
270.0
  0
LINE
  5
12F
330
1F
100
AcDbEntity
  8
0
  6
Continuous
 62
     7
370
    25
100
AcDbLine
 10
90.3349682374
 20
65.9513981639
 30
0.0
 11
90.3349682374
 21
72.9513981639
 31
0.0
  0
ARC
  5
130
330
1F
100
AcDbEntity
  8
0
  6
Continuous
 62
     7
370
    25
100
AcDbCircle
 10
103.4433003797
 20
15.9512689097
 30
0.0
 40
45.00012925418374
100
AcDbArc
 50
83.9840777705
 51
90.0
  0
LINE
  5
131
330
1F
100
AcDbEntity
  8
0
  6
Continuous
 62
     7
370
    25
100
AcDbLine
 10
108.1595313759
 20
72.9513981639
 30
0.0
 11
110.3349682374
 21
72.9513981639
 31
0.0
  0
LINE
  5
132
330
1F
100
AcDbEntity
  8
0
  6
Continuous
 62
     7
370
    25
100
AcDbLine
 10
110.3349682374
 20
72.9513981639
 30
0.0
 11
110.3349682374
 21
70.9703536873
 31
0.0
  0
ARC
  5
133
330
1F
100
AcDbEntity
  8
0
  6
Continuous
 62
     7
370
    25
100
AcDbCircle
 10
116.3349682374
 20
70.9703536873
 30
0.0
 40
6.0
100
AcDbArc
 50
180.0
 51
275.5801667845
  0
ARC
  5
134
330
1F
100
AcDbEntity
  8
0
  6
Continuous
 62
     7
370
    25
100
AcDbCircle
 10
115.9460146732
 20
74.9513981639
 30
0.0
 40
10.00000000000846
100
AcDbArc
 50
275.5801667845
 51
336.4218215217
  0
LINE
  5
135
330
1F
100
AcDbEntity
  8
0
  6
Continuous
 62
     7
370
    25
100
AcDbLine
 10
123.8349682374
 20
54.9513981639
 30
0.0
 11
123.3349682374
 21
54.9513981639
 31
0.0
  0
LINE
  5
136
330
1F
100
AcDbEntity
  8
0
  6
Continuous
 62
     7
370
    25
100
AcDbLine
 10
125.0958829048
 20
70.9513981639
 30
0.0
 11
125.1111660631
 21
70.9513981639
 31
0.0
  0
LINE
  5
137
330
1F
100
AcDbEntity
  8
0
  6
Continuous
 62
     7
370
    25
100
AcDbLine
 10
137.3349682374
 20
49.6458426084
 30
0.0
 11
137.3349682374
 21
52.9513981639
 31
0.0
  0
LINE
  5
138
330
1F
100
AcDbEntity
  8
0
  6
Continuous
 62
     7
370
    25
100
AcDbLine
 10
123.3349682374
 20
52.9513981639
 30
0.0
 11
123.3349682374
 21
49.6458426084
 31
0.0
  0
LINE
  5
139
330
1F
100
AcDbEntity
  8
0
  6
Continuous
 62
     7
370
    25
100
AcDbLine
 10
123.3349682374
 20
39.2569537195
 30
0.0
 11
123.3349682374
 21
35.9513981639
 31
0.0
  0
LINE
  5
13A
330
1F
100
AcDbEntity
  8
0
  6
Continuous
 62
     7
370
    25
100
AcDbLine
 10
137.3349682374
 20
35.9513981639
 30
0.0
 11
137.3349682374
 21
39.2569537195
 31
0.0
  0
SPLINE
  5
13B
330
1F
100
AcDbEntity
  8
0
  6
Continuous
 62
     7
370
    25
100
AcDbSpline
210
0.0
220
0.0
230
1.0
 70
     8
 71
     3
 72
    32
 73
    28
 74
     0
 42
0.00000001
 43
0.00000001
 40
0.0
 40
0.0
 40
0.0
 40
0.0
 40
0.0401450235848357
 40
0.0814946510747366
 40
0.1230108374273918
 40
0.1655335881087852
 40
0.213102689944118
 40
0.2616869956899938
 40
0.3186512837064658
 40
0.3479268696243464
 40
0.3771976325562726
 40
0.4187548087056146
 40
0.4612652019558922
 40
0.5031787598671369
 40
0.5464778200637773
 40
0.5837150053189375
 40
0.6216789039917089
 40
0.649608003238977
 40
0.6775412817538382
 40
0.7348752066615024
 40
0.7907587055724206
 40
0.8195305177303107
 40
0.848297267517085
 40
0.8930422512982819
 40
0.939068727387773
 40
0.9835429316127413
 40
1.0
 40
1.0
 40
1.0
 40
1.0
 10
136.7349682374393
 20
52.95139816391335
 30
0.0
 10
136.7236494270709
 20
52.9437794819311
 30
0.0
 10
136.7006721706346
 20
52.92831350945556
 30
0.0
 10
136.5159957381381
 20
52.80509423321865
 30
0.0
 10
136.2254159656918
 20
52.61507030016025
 30
0.0
 10
135.8144756768281
 20
52.35453555944127
 30
0.0
 10
135.2818437424536
 20
52.03273126514001
 30
0.0
 10
134.5933990185669
 20
51.6468716301827
 30
0.0
 10
133.9014430658581
 20
51.3027031138464
 30
0.0
 10
133.255524456886
 20
51.02866122602487
 30
0.0
 10
132.6653384310219
 20
50.81157479787717
 30
0.0
 10
131.9574456833356
 20
50.60602565038922
 30
0.0
 10
131.1273486800974
 20
50.45658796435639
 30
0.0
 10
130.2605538220517
 20
50.409005079694
 30
0.0
 10
129.4314760094612
 20
50.47247332068181
 30
0.0
 10
128.6557337502149
 20
50.62269882493091
 30
0.0
 10
128.012416883472
 20
50.81010793800365
 30
0.0
 10
127.4575654659639
 20
51.01204265952999
 30
0.0
 10
126.8208360405906
 20
51.27847412266331
 30
0.0
 10
126.0907352479172
 20
51.63790067999123
 30
0.0
 10
125.4518565713779
 20
51.99686713169371
 30
0.0
 10
125.0082476352891
 20
52.26201001954085
 30
0.0
 10
124.6533171095618
 20
52.48175833145456
 30
0.0
 10
124.309995127245
 20
52.7023087886007
 30
0.0
 10
124.0533374167553
 20
52.87192498009593
 30
0.0
 10
123.9302592438681
 20
52.95455491652505
 30
0.0
 10
123.947886402457
 20
52.94272971235058
 30
0.0
 10
123.9526473625015
 20
52.93953581559691
 30
0.0
  0
SPLINE
  5
13C
330
1F
100
AcDbEntity
  8
0
  6
Continuous
 62
     7
370
    25
100
AcDbSpline
210
0.0
220
0.0
230
1.0
 70
     8
 71
     3
 72
    32
 73
    28
 74
     0
 42
0.00000001
 43
0.00000001
 40
0.0
 40
0.0
 40
0.0
 40
0.0
 40
0.0148226906036678
 40
0.0619098642308405
 40
0.1074419255042467
 40
0.1543358594329046
 40
0.182598153298089
 40
0.2108647534549355
 40
0.2690259379277178
 40
0.3246070981579414
 40
0.3531531900241039
 40
0.3816927019323051
 40
0.4179901534316578
 40
0.4550296659437936
 40
0.4953226362402814
 40
0.5372317715994345
 40
0.5776049808321276
 40
0.6191596213353762
 40
0.6475096399520571
 40
0.6758659597953307
 40
0.7341701314178916
 40
0.7822939425002001
 40
0.8313627427680195
 40
0.8736469360376942
 40
0.9168681617688612
 40
0.9578489936169664
 40
1.0
 40
1.0
 40
1.0
 40
1.0
 10
124.4494739396481
 20
53.44021913606835
 30
0.0
 10
124.4455299439723
 20
53.44325837571095
 30
0.0
 10
124.4290570752236
 20
53.45595235406276
 30
0.0
 10
124.5398309615884
 20
53.37049970243761
 30
0.0
 10
124.7772636684755
 20
53.19026009762045
 30
0.0
 10
125.090081693662
 20
52.95926417229674
 30
0.0
 10
125.4152040368533
 20
52.72796598803157
 30
0.0
 10
125.8212928765514
 20
52.44871010295498
 30
0.0
 10
126.4035184617958
 20
52.07201430459543
 30
0.0
 10
127.0793096388007
 20
51.68890451753208
 30
0.0
 10
127.6658824883917
 20
51.40508927580645
 30
0.0
 10
128.1811438389626
 20
51.18895378225351
 30
0.0
 10
128.7786432889024
 20
50.98808638575275
 30
0.0
 10
129.4847322579336
 20
50.82959984083195
 30
0.0
 10
130.2561058990838
 20
50.75950318291097
 30
0.0
 10
131.0529550353564
 20
50.8078040126406
 30
0.0
 10
131.8288949987187
 20
50.96750611170048
 30
0.0
 10
132.4777906340902
 20
51.18360796127001
 30
0.0
 10
133.0188383551597
 20
51.41187489373596
 30
0.0
 10
133.616540709338
 20
51.70209096118182
 30
0.0
 10
134.2538871323724
 20
52.06599192228789
 30
0.0
 10
134.893283943467
 20
52.47725917972618
 30
0.0
 10
135.3813274053097
 20
52.81584666146249
 30
0.0
 10
135.7631485290717
 20
53.09373035740922
 30
0.0
 10
136.0294677838033
 20
53.29373941639976
 30
0.0
 10
136.2022444203409
 20
53.42609456482653
 30
0.0
 10
136.2239584154031
 20
53.44288485013997
 30
0.0
 10
136.2349682374393
 20
53.45139816391335
 30
0.0
  0
LINE
  5
13D
330
1F
100
AcDbEntity
  8
FORMAT
100
AcDbLine
 10
107.4564682374
 20
50.1513981639
 30
0.0
 11
117.3349682374
 21
50.1513981639
 31
0.0
  0
LINE
  5
13E
330
1F
100
AcDbEntity
  8
FORMAT
100
AcDbLine
 10
107.4564682374
 20
38.7513981639
 30
0.0
 11
117.3349682374
 21
38.7513981639
 31
0.0
  0
LINE
  5
13F
330
1F
100
AcDbEntity
  8
FORMAT
  6
CENTERX2
370
    18
100
AcDbLine
 10
106.3349682374
 20
44.4513981639
 30
0.0
 11
151.378205522
 21
44.4513981639
 31
0.0
  0
LINE
  5
140
330
1F
100
AcDbEntity
  8
FORMAT
  6
CENTERX2
370
    18
100
AcDbLine
 10
130.3349682374
 20
34.7184329197
 30
0.0
 11
130.3349682374
 21
73.0021451433
 31
0.0
  0
LINE
  5
141
330
1F
100
AcDbEntity
  8
0
  6
Continuous
 62
     7
370
    25
100
AcDbLine
 10
184.8611675263
 20
52.5254306137
 30
0.0
 11
184.8611675263
 21
54.9513981639
 31
0.0
  0
LINE
  5
142
330
1F
100
AcDbEntity
  8
0
  6
Continuous
 62
     7
370
    25
100
AcDbLine
 10
173.0611675263
 20
54.9513981639
 30
0.0
 11
173.0611675263
 21
53.4494918342
 31
0.0
  0
ARC
  5
143
330
1F
100
AcDbEntity
  8
0
  6
Continuous
 62
     7
370
    25
100
AcDbCircle
 10
173.2611675263
 20
52.9931405942
 30
0.0
 40
0.4999999999999851
100
AcDbArc
 50
113.6449780875
 51
180.007858636
  0
ARC
  5
144
330
1F
100
AcDbEntity
  8
0
  6
Continuous
 62
     7
370
    25
100
AcDbCircle
 10
184.2111675263
 20
71.5513981639
 30
0.0
 40
0.25
100
AcDbArc
 50
0.0
 51
90.0
  0
ARC
  5
145
330
1F
100
AcDbEntity
  8
0
  6
Continuous
 62
     7
370
    25
100
AcDbCircle
 10
173.7111675263
 20
71.5513981639
 30
0.0
 40
0.25
100
AcDbArc
 50
90.0
 51
180.0
  0
LINE
  5
146
330
1F
100
AcDbEntity
  8
0
  6
Continuous
 62
     7
370
    25
100
AcDbLine
 10
184.4611675263
 20
70.9513981639
 30
0.0
 11
184.4611675263
 21
71.5513981639
 31
0.0
  0
LINE
  5
147
330
1F
100
AcDbEntity
  8
0
  6
Continuous
 62
     7
370
    25
100
AcDbLine
 10
173.4611675263
 20
71.5513981639
 30
0.0
 11
173.4611675263
 21
70.9513981639
 31
0.0
  0
LINE
  5
148
330
1F
100
AcDbEntity
  8
0
  6
Continuous
 62
     7
370
    25
100
AcDbLine
 10
186.4111675263
 20
62.9513981639
 30
0.0
 11
184.4611675263
 21
70.9513981639
 31
0.0
  0
LINE
  5
149
330
1F
100
AcDbEntity
  8
0
  6
Continuous
 62
     7
370
    25
100
AcDbLine
 10
173.4611675263
 20
70.9513981639
 30
0.0
 11
171.5111675263
 21
62.9513981639
 31
0.0
  0
LINE
  5
14A
330
1F
100
AcDbEntity
  8
0
  6
Continuous
 62
     7
370
    25
100
AcDbLine
 10
171.5111675263
 20
62.9513981639
 30
0.0
 11
171.9611675263
 21
54.9513981639
 31
0.0
  0
LINE
  5
14B
330
1F
100
AcDbEntity
  8
0
  6
Continuous
 62
     7
370
    25
100
AcDbLine
 10
185.9611675263
 20
54.9513981639
 30
0.0
 11
186.4111675263
 21
62.9513981639
 31
0.0
  0
CIRCLE
  5
14C
330
1F
100
AcDbEntity
  8
0
  6
Continuous
 62
     7
370
    25
100
AcDbCircle
 10
178.9611675263
 20
44.4513981639
 30
0.0
 40
6.75
  0
CIRCLE
  5
14D
330
1F
100
AcDbEntity
  8
0
  6
Continuous
 62
     7
370
    25
100
AcDbCircle
 10
178.9611675263
 20
44.4513981639
 30
0.0
 40
8.0
  0
CIRCLE
  5
14E
330
1F
100
AcDbEntity
  8
0
  6
Continuous
 62
     7
370
    25
100
AcDbCircle
 10
178.9611675263
 20
44.4513981639
 30
0.0
 40
8.25
  0
CIRCLE
  5
14F
330
1F
100
AcDbEntity
  8
0
  6
Continuous
 62
     7
370
    25
100
AcDbCircle
 10
178.9611675263
 20
44.4513981639
 30
0.0
 40
6.083631787923196
  0
CIRCLE
  5
150
330
1F
100
AcDbEntity
  8
0
  6
Continuous
 62
     7
370
    25
100
AcDbCircle
 10
178.9611675263
 20
44.4513981639
 30
0.0
 40
5.810616951453426
  0
CIRCLE
  5
151
330
1F
100
AcDbEntity
  8
0
  6
Continuous
 62
     7
370
    25
100
AcDbCircle
 10
178.9611675263
 20
44.4513981639
 30
0.0
 40
5.474999999999994
  0
CIRCLE
  5
152
330
1F
100
AcDbEntity
  8
0
  6
Continuous
 62
     7
370
    25
100
AcDbCircle
 10
178.9611675263
 20
44.4513981639
 30
0.0
 40
9.750000000000028
  0
CIRCLE
  5
153
330
1F
100
AcDbEntity
  8
0
  6
Continuous
 62
     7
370
    25
100
AcDbCircle
 10
178.9611675263
 20
44.4513981639
 30
0.0
 40
10.0
  0
CIRCLE
  5
154
330
1F
100
AcDbEntity
  8
0
  6
Continuous
 62
     7
370
    25
100
AcDbCircle
 10
178.9611675263
 20
44.4513981639
 30
0.0
 40
2.999999999999972
  0
SPLINE
  5
155
330
1F
100
AcDbEntity
  8
0
  6
Continuous
 62
     7
370
    25
100
AcDbSpline
210
0.0
220
0.0
230
1.0
 70
     8
 71
     3
 72
    13
 73
     9
 74
     0
 42
0.00000001
 43
0.00000001
 40
0.0
 40
0.0
 40
0.0
 40
0.0
 40
0.0709002556126968
 40
0.2985326187209603
 40
0.5283503324641388
 40
0.7606230766495085
 40
0.9918193887712566
 40
1.0
 40
1.0
 40
1.0
 40
1.0
 10
173.1434357967224
 20
52.56239176050084
 30
0.0
 10
173.1433512447124
 20
52.596920748238
 30
0.0
 10
173.1429952300163
 20
52.74230850519147
 30
0.0
 10
173.1238945130689
 20
52.98198269741267
 30
0.0
 10
173.0945673578349
 20
53.24145505872173
 30
0.0
 10
173.0698534041261
 20
53.40059367823818
 30
0.0
 10
173.058315368739
 20
53.46864853050861
 30
0.0
 10
173.0613781768356
 20
53.45012487287568
 30
0.0
 10
173.0614828470852
 20
53.44949183423725
 30
0.0
  0
SPLINE
  5
156
330
1F
100
AcDbEntity
  8
0
  6
Continuous
 62
     7
370
    25
100
AcDbSpline
210
0.0
220
0.0
230
1.0
 70
    24
 71
     3
 72
    14
 73
    10
 74
     0
 42
0.00000001
 43
0.00000001
 40
0.0
 40
0.0
 40
0.0
 40
0.0
 40
0.0686782875714484
 40
0.293216909137959
 40
0.2935197863693179
 40
0.5073359099559678
 40
0.7069537562193142
 40
0.9001971037285486
 40
1.0
 40
1.0
 40
1.0
 40
1.0
 10
172.7611675263349
 20
52.4513981639142
 30
0.0
 10
172.7611675263349
 20
52.47025026514181
 30
0.0
 10
172.7611675263349
 20
52.55073792795612
 30
0.0
 10
172.7611675263348
 20
52.63042693429916
 30
0.0
 10
172.761167526335
 20
52.73963865707547
 30
0.0
 10
172.7611675263349
 20
52.83633473758573
 30
0.0
 10
172.7611675263349
 20
52.93791727987588
 30
0.0
 10
172.7611675263349
 20
52.9914693493302
 30
0.0
 10
172.7611675263349
 20
52.98726254806534
 30
0.0
 10
172.7611675263349
 20
52.98582983579148
 30
0.0
  0
SPLINE
  5
157
330
1F
100
AcDbEntity
  8
0
  6
Continuous
 62
     7
370
    25
100
AcDbSpline
210
0.0
220
0.0
230
1.0
 70
    24
 71
     3
 72
     9
 73
     5
 74
     0
 42
0.00000001
 43
0.00000001
 40
0.0
 40
0.0
 40
0.0
 40
0.0
 40
0.3143288738672225
 40
1.0
 40
1.0
 40
1.0
 40
1.0
 10
172.7611675263349
 20
52.26597576090397
 30
0.0
 10
172.7611675263349
 20
52.28415903272104
 30
0.0
 10
172.7611675263349
 20
52.34200695357334
 30
0.0
 10
172.7611675263349
 20
52.40690170596304
 30
0.0
 10
172.7611675263349
 20
52.4513981639142
 30
0.0
  0
CIRCLE
  5
158
330
1F
100
AcDbEntity
  8
0
  6
Continuous
 62
     7
370
    25
100
AcDbCircle
 10
178.9611675263
 20
44.4513981639
 30
0.0
 40
2.899999999999994
  0
LINE
  5
159
330
1F
100
AcDbEntity
  8
0
  6
Continuous
 62
     7
370
    25
100
AcDbLine
 10
180.2111675263
 20
71.5513981639
 30
0.0
 11
180.4611675263
 21
71.5513981639
 31
0.0
  0
LINE
  5
15A
330
1F
100
AcDbEntity
  8
0
  6
Continuous
 62
     7
370
    25
100
AcDbLine
 10
180.2111675263
 20
71.5513981639
 30
0.0
 11
180.2111675263
 21
71.8013981639
 31
0.0
  0
ARC
  5
15B
330
1F
100
AcDbEntity
  8
0
  6
Continuous
 62
     7
370
    25
100
AcDbCircle
 10
180.2111675263
 20
71.5513981639
 30
0.0
 40
0.25
100
AcDbArc
 50
0.0
 51
90.0
  0
LINE
  5
15C
330
1F
100
AcDbEntity
  8
0
  6
Continuous
 62
     7
370
    25
100
AcDbLine
 10
180.2111675263
 20
70.9513981639
 30
0.0
 11
180.2111675263
 21
71.5513981639
 31
0.0
  0
LINE
  5
15D
330
1F
100
AcDbEntity
  8
0
  6
Continuous
 62
     7
370
    25
100
AcDbLine
 10
180.4611675263
 20
71.5513981639
 30
0.0
 11
180.4611675263
 21
70.9513981639
 31
0.0
  0
LINE
  5
15E
330
1F
100
AcDbEntity
  8
0
  6
Continuous
 62
     7
370
    25
100
AcDbLine
 10
180.4611675263
 20
70.9513981639
 30
0.0
 11
180.2111675263
 21
70.9513981639
 31
0.0
  0
LINE
  5
15F
330
1F
100
AcDbEntity
  8
0
  6
Continuous
 62
     7
370
    25
100
AcDbLine
 10
177.7111675263
 20
71.5513981639
 30
0.0
 11
177.7111675263
 21
70.9513981639
 31
0.0
  0
LINE
  5
160
330
1F
100
AcDbEntity
  8
0
  6
Continuous
 62
     7
370
    25
100
AcDbLine
 10
180.2111675263
 20
71.5513981639
 30
0.0
 11
177.7111675263
 21
71.5513981639
 31
0.0
  0
LINE
  5
161
330
1F
100
AcDbEntity
  8
0
  6
Continuous
 62
     7
370
    25
100
AcDbLine
 10
177.7111675263
 20
70.9513981639
 30
0.0
 11
180.2111675263
 21
70.9513981639
 31
0.0
  0
LINE
  5
162
330
1F
100
AcDbEntity
  8
0
  6
Continuous
 62
     7
370
    25
100
AcDbLine
 10
177.7111675263
 20
71.8013981639
 30
0.0
 11
177.7111675263
 21
71.5513981639
 31
0.0
  0
LINE
  5
163
330
1F
100
AcDbEntity
  8
0
  6
Continuous
 62
     7
370
    25
100
AcDbLine
 10
177.7111675263
 20
71.8013981639
 30
0.0
 11
180.2111675263
 21
71.8013981639
 31
0.0
  0
LINE
  5
164
330
1F
100
AcDbEntity
  8
0
  6
Continuous
 62
     7
370
    25
100
AcDbLine
 10
177.4611675263
 20
70.9513981639
 30
0.0
 11
177.4611675263
 21
71.5513981639
 31
0.0
  0
LINE
  5
165
330
1F
100
AcDbEntity
  8
0
  6
Continuous
 62
     7
370
    25
100
AcDbLine
 10
177.4611675263
 20
71.5513981639
 30
0.0
 11
177.7111675263
 21
71.5513981639
 31
0.0
  0
LINE
  5
166
330
1F
100
AcDbEntity
  8
0
  6
Continuous
 62
     7
370
    25
100
AcDbLine
 10
177.7111675263
 20
70.9513981639
 30
0.0
 11
177.4611675263
 21
70.9513981639
 31
0.0
  0
ARC
  5
167
330
1F
100
AcDbEntity
  8
0
  6
Continuous
 62
     7
370
    25
100
AcDbCircle
 10
177.7111675263
 20
71.5513981639
 30
0.0
 40
0.25
100
AcDbArc
 50
90.0
 51
180.0
  0
SPLINE
  5
168
330
1F
100
AcDbEntity
  8
0
  6
Continuous
 62
     7
370
    25
100
AcDbSpline
210
0.0
220
0.0
230
1.0
 70
     8
 71
     3
 72
    15
 73
    11
 74
     0
 42
0.00000001
 43
0.00000001
 40
0.0
 40
0.0
 40
0.0
 40
0.0
 40
0.0090459071881971
 40
0.1032433785236816
 40
0.1542564497735189
 40
0.31331690267151
 40
0.5243720399414428
 40
0.6678060008509183
 40
0.9918332554187028
 40
1.0
 40
1.0
 40
1.0
 40
1.0
 10
177.2872544828566
 20
71.55139816391335
 30
0.0
 10
177.2872721285811
 20
71.55307926249776
 30
0.0
 10
177.2874735239937
 20
71.57226609405329
 30
0.0
 10
177.2936631446599
 20
71.60096037357327
 30
0.0
 10
177.317865076504
 20
71.6516364135452
 30
0.0
 10
177.3708840685057
 20
71.70951271312211
 30
0.0
 10
177.4522549557022
 20
71.75437822785679
 30
0.0
 10
177.5668340277248
 20
71.79174061111134
 30
0.0
 10
177.6512592054439
 20
71.80128662338079
 30
0.0
 10
177.7097300633959
 20
71.80139548756758
 30
0.0
 10
177.7111675263349
 20
71.80139816391335
 30
0.0
  0
LINE
  5
169
330
1F
100
AcDbEntity
  8
0
  6
Continuous
 62
     7
370
    25
100
AcDbLine
 10
177.2872544829
 20
71.5513981639
 30
0.0
 11
177.4611675263
 21
71.5513981639
 31
0.0
  0
LINE
  5
16A
330
1F
100
AcDbEntity
  8
0
  6
Continuous
 62
     7
370
    25
100
AcDbLine
 10
180.4611675263
 20
71.5513981639
 30
0.0
 11
180.6350805698
 21
71.5513981639
 31
0.0
  0
SPLINE
  5
16B
330
1F
100
AcDbEntity
  8
0
  6
Continuous
 62
     7
370
    25
100
AcDbSpline
210
0.0
220
0.0
230
1.0
 70
     8
 71
     3
 72
    15
 73
    11
 74
     0
 42
0.00000001
 43
0.00000001
 40
0.0
 40
0.0
 40
0.0
 40
0.0
 40
0.0081667445812695
 40
0.3321939991490083
 40
0.4756279600585602
 40
0.6866830973284899
 40
0.8457435502264811
 40
0.8967566214763185
 40
0.9909540928118029
 40
1.0
 40
1.0
 40
1.0
 40
1.0
 10
180.2111675263349
 20
71.80139816391335
 30
0.0
 10
180.2126049892739
 20
71.80139548756758
 30
0.0
 10
180.2710758472256
 20
71.80128662338073
 30
0.0
 10
180.3555010249451
 20
71.79174061111134
 30
0.0
 10
180.4700800969676
 20
71.75437822785679
 30
0.0
 10
180.5514509841642
 20
71.70951271312212
 30
0.0
 10
180.6044699761658
 20
71.6516364135452
 30
0.0
 10
180.62867190801
 20
71.60096037357327
 30
0.0
 10
180.6348615286762
 20
71.57226609405326
 30
0.0
 10
180.6350629240887
 20
71.55307926249776
 30
0.0
 10
180.6350805698132
 20
71.55139816391335
 30
0.0
  0
LINE
  5
16C
330
1F
100
AcDbEntity
  8
0
  6
Continuous
 62
     7
370
    25
100
AcDbLine
 10
180.6350805698
 20
71.5513981639
 30
0.0
 11
180.6350805698
 21
70.9513981639
 31
0.0
  0
LINE
  5
16D
330
1F
100
AcDbEntity
  8
0
  6
Continuous
 62
     7
370
    25
100
AcDbLine
 10
180.6350805698
 20
70.9513981639
 30
0.0
 11
180.4611675263
 21
70.9513981639
 31
0.0
  0
LINE
  5
16E
330
1F
100
AcDbEntity
  8
0
  6
Continuous
 62
     7
370
    25
100
AcDbLine
 10
177.2872544829
 20
70.9513981639
 30
0.0
 11
177.2872544829
 21
71.5513981639
 31
0.0
  0
LINE
  5
16F
330
1F
100
AcDbEntity
  8
0
  6
Continuous
 62
     7
370
    25
100
AcDbLine
 10
177.4611675263
 20
70.9513981639
 30
0.0
 11
177.2872544829
 21
70.9513981639
 31
0.0
  0
LINE
  5
170
330
1F
100
AcDbEntity
  8
0
  6
Continuous
 62
     7
370
    25
100
AcDbLine
 10
180.2111675263
 20
71.8013981639
 30
0.0
 11
184.2111675263
 21
71.8013981639
 31
0.0
  0
LINE
  5
171
330
1F
100
AcDbEntity
  8
0
  6
Continuous
 62
     7
370
    25
100
AcDbLine
 10
173.7111675263
 20
71.8013981639
 30
0.0
 11
177.7111675263
 21
71.8013981639
 31
0.0
  0
LINE
  5
172
330
1F
100
AcDbEntity
  8
0
  6
Continuous
 62
     7
370
    25
100
AcDbLine
 10
180.6350805698
 20
70.9513981639
 30
0.0
 11
184.4611675263
 21
70.9513981639
 31
0.0
  0
LINE
  5
173
330
1F
100
AcDbEntity
  8
0
  6
Continuous
 62
     7
370
    25
100
AcDbLine
 10
173.4611675263
 20
70.9513981639
 30
0.0
 11
177.2872544829
 21
70.9513981639
 31
0.0
  0
LINE
  5
174
330
1F
100
AcDbEntity
  8
0
  6
Continuous
 62
     7
370
    25
100
AcDbLine
 10
178.3611675263
 20
71.8113981639
 30
0.0
 11
179.5611675263
 21
71.8113981639
 31
0.0
  0
LINE
  5
175
330
1F
100
AcDbEntity
  8
0
  6
Continuous
 62
     7
370
    25
100
AcDbLine
 10
179.5611675263
 20
71.8013981639
 30
0.0
 11
179.5611675263
 21
71.8113981639
 31
0.0
  0
LINE
  5
176
330
1F
100
AcDbEntity
  8
0
  6
Continuous
 62
     7
370
    25
100
AcDbLine
 10
178.3611675263
 20
71.8013981639
 30
0.0
 11
178.3611675263
 21
71.8113981639
 31
0.0
  0
LINE
  5
177
330
1F
100
AcDbEntity
  8
0
  6
Continuous
 62
     7
370
    25
100
AcDbLine
 10
171.5111675263
 20
62.9513981639
 30
0.0
 11
186.4111675263
 21
62.9513981639
 31
0.0
  0
LINE
  5
178
330
1F
100
AcDbEntity
  8
0
  6
Continuous
 62
     7
370
    25
100
AcDbLine
 10
171.9611675263
 20
54.9513981639
 30
0.0
 11
185.9611675263
 21
54.9513981639
 31
0.0
  0
LINE
  5
179
330
1F
100
AcDbEntity
  8
0
  6
Continuous
 62
     7
370
    25
100
AcDbLine
 10
182.2328667904
 20
72.9513981639
 30
0.0
 11
182.2328667904
 21
71.8013981639
 31
0.0
  0
LINE
  5
17A
330
1F
100
AcDbEntity
  8
0
  6
Continuous
 62
     7
370
    25
100
AcDbLine
 10
182.2328667904
 20
72.9513981639
 30
0.0
 11
182.4611675263
 21
72.9513981639
 31
0.0
  0
LINE
  5
17B
330
1F
100
AcDbEntity
  8
0
  6
Continuous
 62
     7
370
    25
100
AcDbLine
 10
182.4611675263
 20
71.8013981639
 30
0.0
 11
182.4611675263
 21
72.9513981639
 31
0.0
  0
LINE
  5
17C
330
1F
100
AcDbEntity
  8
0
  6
Continuous
 62
     7
370
    25
100
AcDbLine
 10
175.4611675263
 20
72.9513981639
 30
0.0
 11
175.4611675263
 21
71.8013981639
 31
0.0
  0
LINE
  5
17D
330
1F
100
AcDbEntity
  8
0
  6
Continuous
 62
     7
370
    25
100
AcDbLine
 10
175.4611675263
 20
72.9513981639
 30
0.0
 11
175.6894682623
 21
72.9513981639
 31
0.0
  0
LINE
  5
17E
330
1F
100
AcDbEntity
  8
0
  6
Continuous
 62
     7
370
    25
100
AcDbLine
 10
175.6894682623
 20
72.9513981639
 30
0.0
 11
175.6894682623
 21
71.8013981639
 31
0.0
  0
LINE
  5
17F
330
1F
100
AcDbEntity
  8
0
  6
Continuous
 62
     7
370
    25
100
AcDbLine
 10
175.6894682623
 20
72.9513981639
 30
0.0
 11
182.2328667904
 21
72.9513981639
 31
0.0
  0
LINE
  5
180
330
1F
100
AcDbEntity
  8
0
  6
Continuous
 62
     7
370
    25
100
AcDbLine
 10
184.4611675263
 20
71.5513981639
 30
0.0
 11
180.6350805698
 21
71.5513981639
 31
0.0
  0
LINE
  5
181
330
1F
100
AcDbEntity
  8
0
  6
Continuous
 62
     7
370
    25
100
AcDbLine
 10
177.2872544829
 20
71.5513981639
 30
0.0
 11
173.4611675263
 21
71.5513981639
 31
0.0
  0
INSERT
  5
18D
330
1F
100
AcDbEntity
  8
FORMAT
100
AcDbBlockReference
  2
SW_CENTERMARKSYMBOL_0
 10
178.9611675263
 20
44.4513981639
 30
0.0
  0
ARC
  5
18E
330
1F
100
AcDbEntity
  8
0
  6
Continuous
 62
     7
370
    25
100
AcDbCircle
 10
139.3349682374
 20
114.1093566995
 30
0.0
 40
1.5
100
AcDbArc
 50
138.1896851042
 51
180.0
  0
ARC
  5
18F
330
1F
100
AcDbEntity
  8
0
  6
Continuous
 62
     7
370
    25
100
AcDbCircle
 10
139.3349682374
 20
96.1093566995
 30
0.0
 40
1.5
100
AcDbArc
 50
180.0
 51
221.8103148958
  0
LINE
  5
190
330
1F
100
AcDbEntity
  8
0
  6
Continuous
 62
     7
370
    25
100
AcDbLine
 10
140.0849682374
 20
95.1093566995
 30
0.0
 11
140.3349682374
 21
95.3593566995
 31
0.0
  0
LINE
  5
191
330
1F
100
AcDbEntity
  8
0
  6
Continuous
 62
     7
370
    25
100
AcDbLine
 10
140.3349682374
 20
114.8593566995
 30
0.0
 11
140.0849682374
 21
115.1093566995
 31
0.0
  0
LINE
  5
192
330
1F
100
AcDbEntity
  8
0
  6
Continuous
 62
     7
370
    25
100
AcDbLine
 10
140.0849682374
 20
115.1093566995
 30
0.0
 11
138.2169342487
 21
115.1093566995
 31
0.0
  0
LINE
  5
193
330
1F
100
AcDbEntity
  8
0
  6
Continuous
 62
     7
370
    25
100
AcDbLine
 10
138.2169342487
 20
95.1093566995
 30
0.0
 11
140.0849682374
 21
95.1093566995
 31
0.0
  0
LINE
  5
194
330
1F
100
AcDbEntity
  8
0
  6
Continuous
 62
     7
370
    25
100
AcDbLine
 10
120.5849682374
 20
115.1093566995
 30
0.0
 11
120.3349682374
 21
114.8593566995
 31
0.0
  0
LINE
  5
195
330
1F
100
AcDbEntity
  8
0
  6
Continuous
 62
     7
370
    25
100
AcDbLine
 10
120.3349682374
 20
95.3593566995
 30
0.0
 11
120.5849682374
 21
95.1093566995
 31
0.0
  0
ARC
  5
196
330
1F
100
AcDbEntity
  8
0
  6
Continuous
 62
     7
370
    25
100
AcDbCircle
 10
121.3349682374
 20
96.1093566995
 30
0.0
 40
1.5
100
AcDbArc
 50
318.1896851042
 51
0.0
  0
ARC
  5
197
330
1F
100
AcDbEntity
  8
0
  6
Continuous
 62
     7
370
    25
100
AcDbCircle
 10
121.3349682374
 20
114.1093566995
 30
0.0
 40
1.5
100
AcDbArc
 50
0.0
 51
41.8103148958
  0
LINE
  5
198
330
1F
100
AcDbEntity
  8
0
  6
Continuous
 62
     7
370
    25
100
AcDbLine
 10
120.5849682374
 20
95.1093566995
 30
0.0
 11
122.4530022262
 21
95.1093566995
 31
0.0
  0
LINE
  5
199
330
1F
100
AcDbEntity
  8
0
  6
Continuous
 62
     7
370
    25
100
AcDbLine
 10
122.4530022262
 20
115.1093566995
 30
0.0
 11
120.5849682374
 21
115.1093566995
 31
0.0
  0
LINE
  5
19A
330
1F
100
AcDbEntity
  8
0
  6
Continuous
 62
     7
370
    25
100
AcDbLine
 10
150.0849682374
 20
96.8593566995
 30
0.0
 11
150.3349682374
 21
97.1093566995
 31
0.0
  0
LINE
  5
19B
330
1F
100
AcDbEntity
  8
0
  6
Continuous
 62
     7
370
    25
100
AcDbLine
 10
150.3349682374
 20
113.1093566995
 30
0.0
 11
150.0849682374
 21
113.3593566995
 31
0.0
  0
LINE
  5
19C
330
1F
100
AcDbEntity
  8
0
  6
Continuous
 62
     7
370
    25
100
AcDbLine
 10
150.0849682374
 20
113.3593566995
 30
0.0
 11
140.3349682374
 21
113.3593566995
 31
0.0
  0
LINE
  5
19D
330
1F
100
AcDbEntity
  8
0
  6
Continuous
 62
     7
370
    25
100
AcDbLine
 10
140.3349682374
 20
96.8593566995
 30
0.0
 11
150.0849682374
 21
96.8593566995
 31
0.0
  0
LINE
  5
19E
330
1F
100
AcDbEntity
  8
0
  6
Continuous
 62
     7
370
    25
100
AcDbLine
 10
120.3349682374
 20
113.1093566995
 30
0.0
 11
117.5349682374
 21
113.1093566995
 31
0.0
  0
LINE
  5
19F
330
1F
100
AcDbEntity
  8
0
  6
Continuous
 62
     7
370
    25
100
AcDbLine
 10
117.5349682374
 20
97.1093566995
 30
0.0
 11
120.3349682374
 21
97.1093566995
 31
0.0
  0
LINE
  5
1A0
330
1F
100
AcDbEntity
  8
0
  6
Continuous
 62
     7
370
    25
100
AcDbLine
 10
117.5349682374
 20
113.1093566995
 30
0.0
 11
117.3349682374
 21
112.9093566995
 31
0.0
  0
LINE
  5
1A1
330
1F
100
AcDbEntity
  8
0
  6
Continuous
 62
     7
370
    25
100
AcDbLine
 10
117.3349682374
 20
97.3093566995
 30
0.0
 11
117.5349682374
 21
97.1093566995
 31
0.0
  0
LINE
  5
1A2
330
1F
100
AcDbEntity
  8
0
  6
Continuous
 62
     7
370
    25
100
AcDbLine
 10
108.3349682374
 20
111.6878566995
 30
0.0
 11
107.3349682374
 21
110.6878566995
 31
0.0
  0
LINE
  5
1A3
330
1F
100
AcDbEntity
  8
0
  6
Continuous
 62
     7
370
    25
100
AcDbLine
 10
107.3349682374
 20
99.5308566995
 30
0.0
 11
108.3349682374
 21
98.5308566995
 31
0.0
  0
LINE
  5
1A4
330
1F
100
AcDbEntity
  8
0
  6
Continuous
 62
     7
370
    25
100
AcDbLine
 10
117.3349682374
 20
111.6878566995
 30
0.0
 11
108.3349682374
 21
111.6878566995
 31
0.0
  0
LINE
  5
1A5
330
1F
100
AcDbEntity
  8
0
  6
Continuous
 62
     7
370
    25
100
AcDbLine
 10
108.3349682374
 20
98.5308566995
 30
0.0
 11
117.3349682374
 21
98.5308566995
 31
0.0
  0
LINE
  5
1A6
330
1F
100
AcDbEntity
  8
0
  6
Continuous
 62
     7
370
    25
100
AcDbLine
 10
138.2169342487
 20
95.1093566995
 30
0.0
 11
138.2169342487
 21
115.1093566995
 31
0.0
  0
SPLINE
  5
1A7
330
1F
100
AcDbEntity
  8
0
  6
Continuous
 62
     7
370
    25
100
AcDbSpline
210
0.0
220
0.0
230
1.0
 70
     8
 71
     3
 72
    12
 73
     8
 74
     0
 42
0.00000001
 43
0.00000001
 40
0.0
 40
0.0
 40
0.0
 40
0.0
 40
0.25
 40
0.25
 40
0.5
 40
0.5
 40
1.0
 40
1.0
 40
1.0
 40
1.0
 10
138.0640543045413
 20
96.34689551977178
 30
0.0
 10
137.9829377024366
 20
96.31239038191171
 30
0.0
 10
137.9359077792683
 20
96.27954531061124
 30
0.0
 10
137.8730441777365
 20
96.22119278236458
 30
0.0
 10
137.8575945068193
 20
96.19553841873596
 30
0.0
 10
137.83041084244
 20
96.13243916599622
 30
0.0
 10
137.8349682374392
 20
96.1093566995216
 30
0.0
 10
137.8349682374392
 20
96.1093566995216
 30
0.0
  0
SPLINE
  5
1A8
330
1F
100
AcDbEntity
  8
0
  6
Continuous
 62
     7
370
    25
100
AcDbSpline
210
0.0
220
0.0
230
1.0
 70
     8
 71
     3
 72
    14
 73
    10
 74
     0
 42
0.00000001
 43
0.00000001
 40
0.0
 40
0.0
 40
0.0
 40
0.0
 40
0.25
 40
0.25
 40
0.5
 40
0.5
 40
0.75
 40
0.75
 40
1.0
 40
1.0
 40
1.0
 40
1.0
 10
138.0640543045413
 20
96.34689551977178
 30
0.0
 10
138.0915752922864
 20
96.35860231531734
 30
0.0
 10
138.1114952141228
 20
96.39064426839893
 30
0.0
 10
138.1271622559408
 20
96.48996801906392
 30
0.0
 10
138.1226704241285
 20
96.55779146184467
 30
0.0
 10
138.091414078845
 20
96.72023307925751
 30
0.0
 10
138.0650414954632
 20
96.81467847599325
 30
0.0
 10
138.0022049443189
 20
97.02290758358978
 30
0.0
 10
137.9661653654588
 20
97.13550597647293
 30
0.0
 10
137.9321693620932
 20
97.25526237007303
 30
0.0
  0
SPLINE
  5
1A9
330
1F
100
AcDbEntity
  8
0
  6
Continuous
 62
     7
370
    25
100
AcDbSpline
210
0.0
220
0.0
230
1.0
 70
     8
 71
     3
 72
     8
 73
     4
 74
     0
 42
0.00000001
 43
0.00000001
 40
0.0
 40
0.0
 40
0.0
 40
0.0
 40
1.0
 40
1.0
 40
1.0
 40
1.0
 10
137.8349682374392
 20
97.98545327513409
 30
0.0
 10
137.8349682374392
 20
97.73802381833909
 30
0.0
 10
137.8643329445171
 20
97.49422706943176
 30
0.0
 10
137.9321693620932
 20
97.25526237007303
 30
0.0
  0
LINE
  5
1AA
330
1F
100
AcDbEntity
  8
0
  6
Continuous
 62
     7
370
    25
100
AcDbLine
 10
137.8349682374
 20
97.9854532751
 30
0.0
 11
137.8349682374
 21
112.2332601239
 31
0.0
  0
SPLINE
  5
1AB
330
1F
100
AcDbEntity
  8
0
  6
Continuous
 62
     7
370
    25
100
AcDbSpline
210
0.0
220
0.0
230
1.0
 70
     8
 71
     3
 72
     8
 73
     4
 74
     0
 42
0.00000001
 43
0.00000001
 40
0.0
 40
0.0
 40
0.0
 40
0.0
 40
1.0
 40
1.0
 40
1.0
 40
1.0
 10
137.9321693620932
 20
112.9634510289702
 30
0.0
 10
137.8643329445171
 20
112.7244863296115
 30
0.0
 10
137.8349682374392
 20
112.4806895807041
 30
0.0
 10
137.8349682374392
 20
112.2332601239091
 30
0.0
  0
SPLINE
  5
1AC
330
1F
100
AcDbEntity
  8
0
  6
Continuous
 62
     7
370
    25
100
AcDbSpline
210
0.0
220
0.0
230
1.0
 70
     8
 71
     3
 72
    12
 73
     8
 74
     0
 42
0.00000001
 43
0.00000001
 40
0.0
 40
0.0
 40
0.0
 40
0.0
 40
0.4999999999999992
 40
0.4999999999999992
 40
0.7499999999999996
 40
0.7499999999999996
 40
1.0
 40
1.0
 40
1.0
 40
1.0
 10
137.9321693620932
 20
112.9634510289702
 30
0.0
 10
138.000039122103
 20
113.2025331824183
 30
0.0
 10
138.0760736733567
 20
113.4183032895951
 30
0.0
 10
138.1227182717337
 20
113.661397882299
 30
0.0
 10
138.1271572682564
 20
113.7290631577751
 30
0.0
 10
138.1114266544635
 20
113.8282162739317
 30
0.0
 10
138.0915462245212
 20
113.860123448485
 30
0.0
 10
138.0640543045413
 20
113.8718178792714
 30
0.0
  0
SPLINE
  5
1AD
330
1F
100
AcDbEntity
  8
0
  6
Continuous
 62
     7
370
    25
100
AcDbSpline
210
0.0
220
0.0
230
1.0
 70
     8
 71
     3
 72
    12
 73
     8
 74
     0
 42
0.00000001
 43
0.00000001
 40
0.0
 40
0.0
 40
0.0
 40
0.0
 40
0.5000000000000002
 40
0.5000000000000002
 40
0.7500000000000001
 40
0.7500000000000001
 40
1.0
 40
1.0
 40
1.0
 40
1.0
 10
137.8349682374392
 20
114.1093566995216
 30
0.0
 10
137.8349682374392
 20
114.1093566995216
 30
0.0
 10
137.83041084244
 20
114.086274233047
 30
0.0
 10
137.8575945068193
 20
114.0231749803072
 30
0.0
 10
137.8730441777365
 20
113.9975206166786
 30
0.0
 10
137.9359077792683
 20
113.939168088432
 30
0.0
 10
137.9829377024366
 20
113.9063230171315
 30
0.0
 10
138.0640543045413
 20
113.8718178792714
 30
0.0
  0
LINE
  5
1AE
330
1F
100
AcDbEntity
  8
0
  6
Continuous
 62
     7
370
    25
100
AcDbLine
 10
140.0849682374
 20
95.1093566995
 30
0.0
 11
140.0849682374
 21
115.1093566995
 31
0.0
  0
LINE
  5
1AF
330
1F
100
AcDbEntity
  8
0
  6
Continuous
 62
     7
370
    25
100
AcDbLine
 10
140.3349682374
 20
114.8593566995
 30
0.0
 11
140.3349682374
 21
95.3593566995
 31
0.0
  0
LINE
  5
1B0
330
1F
100
AcDbEntity
  8
0
  6
Continuous
 62
     7
370
    25
100
AcDbLine
 10
120.3349682374
 20
95.3593566995
 30
0.0
 11
120.3349682374
 21
100.4588573807
 31
0.0
  0
LINE
  5
1B1
330
1F
100
AcDbEntity
  8
0
  6
Continuous
 62
     7
370
    25
100
AcDbLine
 10
120.3349682374
 20
109.7598560184
 30
0.0
 11
120.3349682374
 21
114.8593566995
 31
0.0
  0
LINE
  5
1B2
330
1F
100
AcDbEntity
  8
0
  6
Continuous
 62
     7
370
    25
100
AcDbLine
 10
120.5849682374
 20
115.1093566995
 30
0.0
 11
120.5849682374
 21
109.8080360329
 31
0.0
  0
LINE
  5
1B3
330
1F
100
AcDbEntity
  8
0
  6
Continuous
 62
     7
370
    25
100
AcDbLine
 10
120.5849682374
 20
100.4106773661
 30
0.0
 11
120.5849682374
 21
95.1093566995
 31
0.0
  0
LINE
  5
1B4
330
1F
100
AcDbEntity
  8
0
  6
Continuous
 62
     7
370
    25
100
AcDbLine
 10
122.4530022262
 20
115.1093566995
 30
0.0
 11
122.4530022262
 21
110.2003928927
 31
0.0
  0
LINE
  5
1B5
330
1F
100
AcDbEntity
  8
0
  6
Continuous
 62
     7
370
    25
100
AcDbLine
 10
122.4530022262
 20
100.0183205063
 30
0.0
 11
122.4530022262
 21
95.1093566995
 31
0.0
  0
SPLINE
  5
1B6
330
1F
100
AcDbEntity
  8
0
  6
Continuous
 62
     7
370
    25
100
AcDbSpline
210
0.0
220
0.0
230
1.0
 70
     8
 71
     3
 72
    12
 73
     8
 74
     0
 42
0.00000001
 43
0.00000001
 40
0.0
 40
0.0
 40
0.0
 40
0.0
 40
0.2500000000000001
 40
0.2500000000000001
 40
0.5000000000000001
 40
0.5000000000000001
 40
1.0
 40
1.0
 40
1.0
 40
1.0
 10
122.6058821703372
 20
113.8718178792714
 30
0.0
 10
122.6869987724419
 20
113.9063230171315
 30
0.0
 10
122.7340286956102
 20
113.939168088432
 30
0.0
 10
122.796892297142
 20
113.9975206166786
 30
0.0
 10
122.8123419680592
 20
114.0231749803072
 30
0.0
 10
122.8395256324385
 20
114.086274233047
 30
0.0
 10
122.8349682374393
 20
114.1093566995216
 30
0.0
 10
122.8349682374393
 20
114.1093566995216
 30
0.0
  0
SPLINE
  5
1B7
330
1F
100
AcDbEntity
  8
0
  6
Continuous
 62
     7
370
    25
100
AcDbSpline
210
0.0
220
0.0
230
1.0
 70
     8
 71
     3
 72
    14
 73
    10
 74
     0
 42
0.00000001
 43
0.00000001
 40
0.0
 40
0.0
 40
0.0
 40
0.0
 40
0.25
 40
0.25
 40
0.5
 40
0.5
 40
0.75
 40
0.75
 40
1.0
 40
1.0
 40
1.0
 40
1.0
 10
122.6058821703372
 20
113.8718178792714
 30
0.0
 10
122.5783611825921
 20
113.8601110837258
 30
0.0
 10
122.5584412607557
 20
113.8280691306443
 30
0.0
 10
122.5427742189377
 20
113.7287453799793
 30
0.0
 10
122.54726605075
 20
113.6609219371985
 30
0.0
 10
122.5785223960336
 20
113.4984803197857
 30
0.0
 10
122.6048949794153
 20
113.40403492305
 30
0.0
 10
122.6677315305596
 20
113.1958058154534
 30
0.0
 10
122.7037711094197
 20
113.0832074225703
 30
0.0
 10
122.7377671127853
 20
112.9634510289702
 30
0.0
  0
SPLINE
  5
1B8
330
1F
100
AcDbEntity
  8
0
  6
Continuous
 62
     7
370
    25
100
AcDbSpline
210
0.0
220
0.0
230
1.0
 70
     8
 71
     3
 72
     8
 73
     4
 74
     0
 42
0.00000001
 43
0.00000001
 40
0.0
 40
0.0
 40
0.0
 40
0.0
 40
1.0
 40
1.0
 40
1.0
 40
1.0
 10
122.8349682374393
 20
112.2332601239091
 30
0.0
 10
122.8349682374393
 20
112.4806895807041
 30
0.0
 10
122.8056035303614
 20
112.7244863296115
 30
0.0
 10
122.7377671127853
 20
112.9634510289702
 30
0.0
  0
LINE
  5
1B9
330
1F
100
AcDbEntity
  8
0
  6
Continuous
 62
     7
370
    25
100
AcDbLine
 10
122.8349682374
 20
112.2332601239
 30
0.0
 11
122.8349682374
 21
110.2877051661
 31
0.0
  0
LINE
  5
1BA
330
1F
100
AcDbEntity
  8
0
  6
Continuous
 62
     7
370
    25
100
AcDbLine
 10
122.8349682374
 20
99.931008233
 30
0.0
 11
122.8349682374
 21
97.9854532751
 31
0.0
  0
SPLINE
  5
1BB
330
1F
100
AcDbEntity
  8
0
  6
Continuous
 62
     7
370
    25
100
AcDbSpline
210
0.0
220
0.0
230
1.0
 70
     8
 71
     3
 72
     8
 73
     4
 74
     0
 42
0.00000001
 43
0.00000001
 40
0.0
 40
0.0
 40
0.0
 40
0.0
 40
1.0
 40
1.0
 40
1.0
 40
1.0
 10
122.7377671127853
 20
97.25526237007303
 30
0.0
 10
122.8056035303614
 20
97.49422706943176
 30
0.0
 10
122.8349682374393
 20
97.73802381833909
 30
0.0
 10
122.8349682374393
 20
97.98545327513409
 30
0.0
  0
SPLINE
  5
1BC
330
1F
100
AcDbEntity
  8
0
  6
Continuous
 62
     7
370
    25
100
AcDbSpline
210
0.0
220
0.0
230
1.0
 70
     8
 71
     3
 72
    12
 73
     8
 74
     0
 42
0.00000001
 43
0.00000001
 40
0.0
 40
0.0
 40
0.0
 40
0.0
 40
0.4999999999999992
 40
0.4999999999999992
 40
0.7499999999999996
 40
0.7499999999999996
 40
1.0
 40
1.0
 40
1.0
 40
1.0
 10
122.7377671127853
 20
97.25526237007303
 30
0.0
 10
122.6698973527755
 20
97.01618021662492
 30
0.0
 10
122.5938628015218
 20
96.8004101094481
 30
0.0
 10
122.5472182031448
 20
96.5573155167442
 30
0.0
 10
122.5427792066221
 20
96.48965024126807
 30
0.0
 10
122.558509820415
 20
96.39049712511145
 30
0.0
 10
122.5783902503574
 20
96.35858995055823
 30
0.0
 10
122.6058821703372
 20
96.34689551977179
 30
0.0
  0
SPLINE
  5
1BD
330
1F
100
AcDbEntity
  8
0
  6
Continuous
 62
     7
370
    25
100
AcDbSpline
210
0.0
220
0.0
230
1.0
 70
     8
 71
     3
 72
    12
 73
     8
 74
     0
 42
0.00000001
 43
0.00000001
 40
0.0
 40
0.0
 40
0.0
 40
0.0
 40
0.4999999999999998
 40
0.4999999999999998
 40
0.7499999999999999
 40
0.7499999999999999
 40
1.0
 40
1.0
 40
1.0
 40
1.0
 10
122.8349682374393
 20
96.1093566995216
 30
0.0
 10
122.8349682374393
 20
96.1093566995216
 30
0.0
 10
122.8395256324385
 20
96.13243916599622
 30
0.0
 10
122.8123419680592
 20
96.19553841873596
 30
0.0
 10
122.796892297142
 20
96.22119278236458
 30
0.0
 10
122.7340286956102
 20
96.27954531061124
 30
0.0
 10
122.6869987724419
 20
96.31239038191171
 30
0.0
 10
122.6058821703372
 20
96.34689551977178
 30
0.0
  0
ARC
  5
1BE
330
1F
100
AcDbEntity
  8
0
  6
Continuous
 62
     7
370
    25
100
AcDbCircle
 10
137.3816503362
 20
112.2922360622
 30
0.0
 40
0.4571381420088254
100
AcDbArc
 50
264.138844256
 51
352.5875431534
  0
ARC
  5
1BF
330
1F
100
AcDbEntity
  8
0
  6
Continuous
 62
     7
370
    25
100
AcDbCircle
 10
137.3816503362
 20
97.9264773368
 30
0.0
 40
0.4571381420088236
100
AcDbArc
 50
7.4124568466
 51
95.861155744
  0
ARC
  5
1C0
330
1F
100
AcDbEntity
  8
0
  6
Continuous
 62
     7
370
    25
100
AcDbCircle
 10
123.2882861387
 20
112.2922360622
 30
0.0
 40
0.4571381420089051
100
AcDbArc
 50
187.4124568466
 51
275.861155744
  0
ARC
  5
1C1
330
1F
100
AcDbEntity
  8
0
  6
Continuous
 62
     7
370
    25
100
AcDbCircle
 10
123.2882861387
 20
97.9264773368
 30
0.0
 40
0.4571381420089032
100
AcDbArc
 50
84.138844256
 51
172.5875431534
  0
LINE
  5
1C2
330
1F
100
AcDbEntity
  8
0
  6
Continuous
 62
     7
370
    25
100
AcDbLine
 10
150.3349682374
 20
113.1093566995
 30
0.0
 11
150.3349682374
 21
97.1093566995
 31
0.0
  0
LINE
  5
1C3
330
1F
100
AcDbEntity
  8
0
  6
Continuous
 62
     7
370
    25
100
AcDbLine
 10
150.0849682374
 20
96.8593566995
 30
0.0
 11
150.0849682374
 21
113.3593566995
 31
0.0
  0
LINE
  5
1C4
330
1F
100
AcDbEntity
  8
0
  6
Continuous
 62
     7
370
    25
100
AcDbLine
 10
122.7377671128
 20
112.963451029
 30
0.0
 11
123.2053667379
 21
113.1093566995
 31
0.0
  0
SPLINE
  5
1C5
330
1F
100
AcDbEntity
  8
0
  6
Continuous
 62
     7
370
    25
100
AcDbSpline
210
0.0
220
0.0
230
1.0
 70
     8
 71
     3
 72
     8
 73
     4
 74
     0
 42
0.00000001
 43
0.00000001
 40
0.0
 40
0.0
 40
0.0
 40
0.0
 40
1.0
 40
1.0
 40
1.0
 40
1.0
 10
123.2053667379007
 20
113.1093566995216
 30
0.0
 10
123.2943754332891
 20
112.8241009418918
 30
0.0
 10
123.3349682374393
 20
112.5316829920099
 30
0.0
 10
123.3349682374393
 20
112.2332601239091
 30
0.0
  0
LINE
  5
1C6
330
1F
100
AcDbEntity
  8
0
  6
Continuous
 62
     7
370
    25
100
AcDbLine
 10
122.8349682374
 20
112.2332601239
 30
0.0
 11
123.3349682374
 21
112.2332601239
 31
0.0
  0
SPLINE
  5
1C7
330
1F
100
AcDbEntity
  8
0
  6
Continuous
 62
     7
370
    25
100
AcDbSpline
210
0.0
220
0.0
230
1.0
 70
     8
 71
     3
 72
     8
 73
     4
 74
     0
 42
0.00000001
 43
0.00000001
 40
0.0
 40
0.0
 40
0.0
 40
0.0
 40
1.0
 40
1.0
 40
1.0
 40
1.0
 10
137.3349682374392
 20
112.2332601239091
 30
0.0
 10
137.3349682374392
 20
112.5316829920099
 30
0.0
 10
137.3755610415894
 20
112.8241009418918
 30
0.0
 10
137.4645697369778
 20
113.1093566995216
 30
0.0
  0
LINE
  5
1C8
330
1F
100
AcDbEntity
  8
0
  6
Continuous
 62
     7
370
    25
100
AcDbLine
 10
137.464569737
 20
113.1093566995
 30
0.0
 11
137.9321693621
 21
112.963451029
 31
0.0
  0
LINE
  5
1C9
330
1F
100
AcDbEntity
  8
0
  6
Continuous
 62
     7
370
    25
100
AcDbLine
 10
137.3349682374
 20
112.2332601239
 30
0.0
 11
137.8349682374
 21
112.2332601239
 31
0.0
  0
SPLINE
  5
1CA
330
1F
100
AcDbEntity
  8
0
  6
Continuous
 62
     7
370
    25
100
AcDbSpline
210
0.0
220
0.0
230
1.0
 70
     8
 71
     3
 72
     8
 73
     4
 74
     0
 42
0.00000001
 43
0.00000001
 40
0.0
 40
0.0
 40
0.0
 40
0.0
 40
1.0
 40
1.0
 40
1.0
 40
1.0
 10
123.3349682374393
 20
97.98545327513409
 30
0.0
 10
123.3349682374393
 20
97.68703040703335
 30
0.0
 10
123.2943754332891
 20
97.39461245715141
 30
0.0
 10
123.2053667379007
 20
97.1093566995216
 30
0.0
  0
LINE
  5
1CB
330
1F
100
AcDbEntity
  8
0
  6
Continuous
 62
     7
370
    25
100
AcDbLine
 10
123.2053667379
 20
97.1093566995
 30
0.0
 11
122.7377671128
 21
97.2552623701
 31
0.0
  0
LINE
  5
1CC
330
1F
100
AcDbEntity
  8
0
  6
Continuous
 62
     7
370
    25
100
AcDbLine
 10
122.8349682374
 20
97.9854532751
 30
0.0
 11
123.3349682374
 21
97.9854532751
 31
0.0
  0
LINE
  5
1CD
330
1F
100
AcDbEntity
  8
0
  6
Continuous
 62
     7
370
    25
100
AcDbLine
 10
137.9321693621
 20
97.2552623701
 30
0.0
 11
137.464569737
 21
97.1093566995
 31
0.0
  0
SPLINE
  5
1CE
330
1F
100
AcDbEntity
  8
0
  6
Continuous
 62
     7
370
    25
100
AcDbSpline
210
0.0
220
0.0
230
1.0
 70
     8
 71
     3
 72
     8
 73
     4
 74
     0
 42
0.00000001
 43
0.00000001
 40
0.0
 40
0.0
 40
0.0
 40
0.0
 40
1.0
 40
1.0
 40
1.0
 40
1.0
 10
137.4645697369778
 20
97.1093566995216
 30
0.0
 10
137.3755610415894
 20
97.39461245715141
 30
0.0
 10
137.3349682374392
 20
97.68703040703335
 30
0.0
 10
137.3349682374392
 20
97.98545327513409
 30
0.0
  0
LINE
  5
1CF
330
1F
100
AcDbEntity
  8
0
  6
Continuous
 62
     7
370
    25
100
AcDbLine
 10
137.8349682374
 20
97.9854532751
 30
0.0
 11
137.3349682374
 21
97.9854532751
 31
0.0
  0
LINE
  5
1D0
330
1F
100
AcDbEntity
  8
0
  6
Continuous
 62
     7
370
    25
100
AcDbLine
 10
137.3349682374
 20
111.8374877114
 30
0.0
 11
137.3349682374
 21
112.2332601239
 31
0.0
  0
LINE
  5
1D1
330
1F
100
AcDbEntity
  8
0
  6
Continuous
 62
     7
370
    25
100
AcDbLine
 10
123.3349682374
 20
111.8374877114
 30
0.0
 11
123.3349682374
 21
112.2332601239
 31
0.0
  0
LINE
  5
1D2
330
1F
100
AcDbEntity
  8
0
  6
Continuous
 62
     7
370
    25
100
AcDbLine
 10
123.3349682374
 20
97.9854532751
 30
0.0
 11
123.3349682374
 21
98.3812256876
 31
0.0
  0
LINE
  5
1D3
330
1F
100
AcDbEntity
  8
0
  6
Continuous
 62
     7
370
    25
100
AcDbLine
 10
137.3349682374
 20
97.9854532751
 30
0.0
 11
137.3349682374
 21
98.3812256876
 31
0.0
  0
ARC
  5
1D4
330
1F
100
AcDbEntity
  8
0
  6
Continuous
 62
     7
370
    25
100
AcDbCircle
 10
123.033349961
 20
114.088665517
 30
0.0
 40
0.4793241179195275
100
AcDbArc
 50
206.8979585986
 51
269.5422002632
  0
SPLINE
  5
1D5
330
1F
100
AcDbEntity
  8
0
  6
Continuous
 62
     7
370
    25
100
AcDbSpline
210
0.0
220
0.0
230
1.0
 70
     8
 71
     3
 72
    14
 73
    10
 74
     0
 42
0.00000001
 43
0.00000001
 40
0.0
 40
0.0
 40
0.0
 40
0.0
 40
0.25
 40
0.25
 40
0.5
 40
0.5
 40
0.75
 40
0.75
 40
1.0
 40
1.0
 40
1.0
 40
1.0
 10
123.2053667379007
 20
113.1093566995216
 30
0.0
 10
123.1668912542791
 20
113.1710099637491
 30
0.0
 10
123.1258023328091
 20
113.229193909022
 30
0.0
 10
123.0465194853685
 20
113.342859230489
 30
0.0
 10
123.009236584258
 20
113.3965358291887
 30
0.0
 10
122.9564308249463
 20
113.4965258616354
 30
0.0
 10
122.9444615648526
 20
113.5409303618583
 30
0.0
 10
122.9644633532248
 20
113.5969902173521
 30
0.0
 10
122.9939198087771
 20
113.6093566995216
 30
0.0
 10
123.0295201479699
 20
113.6093566995216
 30
0.0
  0
ARC
  5
1D6
330
1F
100
AcDbEntity
  8
0
  6
Continuous
 62
     7
370
    25
100
AcDbCircle
 10
137.6365865139
 20
96.130047882
 30
0.0
 40
0.4793241179194095
100
AcDbArc
 50
26.8979585986
 51
89.5422002632
  0
SPLINE
  5
1D7
330
1F
100
AcDbEntity
  8
0
  6
Continuous
 62
     7
370
    25
100
AcDbSpline
210
0.0
220
0.0
230
1.0
 70
     8
 71
     3
 72
    14
 73
    10
 74
     0
 42
0.00000001
 43
0.00000001
 40
0.0
 40
0.0
 40
0.0
 40
0.0
 40
0.25
 40
0.25
 40
0.5
 40
0.5
 40
0.75
 40
0.75
 40
1.0
 40
1.0
 40
1.0
 40
1.0
 10
137.4645697369778
 20
97.1093566995216
 30
0.0
 10
137.5030452205994
 20
97.04770343529412
 30
0.0
 10
137.5441341420694
 20
96.9895194900212
 30
0.0
 10
137.62341698951
 20
96.87585416855426
 30
0.0
 10
137.6606998906204
 20
96.8221775698545
 30
0.0
 10
137.7135056499322
 20
96.72218753740785
 30
0.0
 10
137.7254749100258
 20
96.6777830371849
 30
0.0
 10
137.7054731216537
 20
96.6217231816911
 30
0.0
 10
137.6760166661014
 20
96.6093566995216
 30
0.0
 10
137.6404163269086
 20
96.6093566995216
 30
0.0
  0
SPLINE
  5
1D8
330
1F
100
AcDbEntity
  8
0
  6
Continuous
 62
     7
370
    25
100
AcDbSpline
210
0.0
220
0.0
230
1.0
 70
     8
 71
     3
 72
    16
 73
    12
 74
     0
 42
0.00000001
 43
0.00000001
 40
0.0
 40
0.0
 40
0.0
 40
0.0
 40
0.2500000000000011
 40
0.2500000000000011
 40
0.3749999999999992
 40
0.3749999999999992
 40
0.4999999999999974
 40
0.4999999999999974
 40
0.7499999999999987
 40
0.7499999999999987
 40
1.0
 40
1.0
 40
1.0
 40
1.0
 10
137.6404163269086
 20
113.6093566995216
 30
0.0
 10
137.6759702563573
 20
113.6093566995216
 30
0.0
 10
137.705242397586
 20
113.5972249491058
 30
0.0
 10
137.7204549478069
 20
113.5552032428264
 30
0.0
 10
137.7205156159804
 20
113.5369888733198
 30
0.0
 10
137.7103050315031
 20
113.4950518607933
 30
0.0
 10
137.7005217019778
 20
113.472024297299
 30
0.0
 10
137.6613571534459
 20
113.397615618527
 30
0.0
 10
137.6234840801726
 20
113.3429577423445
 30
0.0
 10
137.544411107181
 20
113.2295886691657
 30
0.0
 10
137.5030239745902
 20
113.1709759190615
 30
0.0
 10
137.4645697369778
 20
113.1093566995216
 30
0.0
  0
ARC
  5
1D9
330
1F
100
AcDbEntity
  8
0
  6
Continuous
 62
     7
370
    25
100
AcDbCircle
 10
137.6365865139
 20
114.088665517
 30
0.0
 40
0.4793241179194417
100
AcDbArc
 50
270.4577997368
 51
333.1020414014
  0
SPLINE
  5
1DA
330
1F
100
AcDbEntity
  8
0
  6
Continuous
 62
     7
370
    25
100
AcDbSpline
210
0.0
220
0.0
230
1.0
 70
     8
 71
     3
 72
    16
 73
    12
 74
     0
 42
0.00000001
 43
0.00000001
 40
0.0
 40
0.0
 40
0.0
 40
0.0
 40
0.2500000000000049
 40
0.2500000000000049
 40
0.3750000000000051
 40
0.3750000000000051
 40
0.5000000000000052
 40
0.5000000000000052
 40
0.7500000000000026
 40
0.7500000000000026
 40
1.0
 40
1.0
 40
1.0
 40
1.0
 10
123.0295201479699
 20
96.6093566995216
 30
0.0
 10
122.9939662185212
 20
96.6093566995216
 30
0.0
 10
122.9646940772925
 20
96.62148844993742
 30
0.0
 10
122.9494815270717
 20
96.66351015621683
 30
0.0
 10
122.9494208588981
 20
96.68172452572338
 30
0.0
 10
122.9596314433754
 20
96.72366153824993
 30
0.0
 10
122.9694147729007
 20
96.74668910174421
 30
0.0
 10
123.0085793214326
 20
96.82109778051623
 30
0.0
 10
123.0464523947059
 20
96.87575565669873
 30
0.0
 10
123.1255253676974
 20
96.98912472987746
 30
0.0
 10
123.1669125002883
 20
97.04773747998166
 30
0.0
 10
123.2053667379007
 20
97.1093566995216
 30
0.0
  0
ARC
  5
1DB
330
1F
100
AcDbEntity
  8
0
  6
Continuous
 62
     7
370
    25
100
AcDbCircle
 10
123.033349961
 20
96.130047882
 30
0.0
 40
0.4793241179194606
100
AcDbArc
 50
90.4577997368
 51
153.1020414014
  0
LINE
  5
1DC
330
1F
100
AcDbEntity
  8
0
  6
Continuous
 62
     7
370
    25
100
AcDbLine
 10
137.464569737
 20
113.1093566995
 30
0.0
 11
123.2053667379
 21
113.1093566995
 31
0.0
  0
LINE
  5
1DD
330
1F
100
AcDbEntity
  8
0
  6
Continuous
 62
     7
370
    25
100
AcDbLine
 10
123.029520148
 20
113.6093566995
 30
0.0
 11
137.6404163269
 21
113.6093566995
 31
0.0
  0
LINE
  5
1DE
330
1F
100
AcDbEntity
  8
0
  6
Continuous
 62
     7
370
    25
100
AcDbLine
 10
123.2053667379
 20
97.1093566995
 30
0.0
 11
137.464569737
 21
97.1093566995
 31
0.0
  0
LINE
  5
1DF
330
1F
100
AcDbEntity
  8
0
  6
Continuous
 62
     7
370
    25
100
AcDbLine
 10
137.6404163269
 20
96.6093566995
 30
0.0
 11
123.029520148
 21
96.6093566995
 31
0.0
  0
ARC
  5
1E0
330
1F
100
AcDbEntity
  8
0
  6
Continuous
 62
     7
370
    25
100
AcDbCircle
 10
137.3349682374
 20
114.1093566995
 30
0.0
 40
0.5
100
AcDbArc
 50
270.0
 51
0.0
  0
ARC
  5
1E1
330
1F
100
AcDbEntity
  8
0
  6
Continuous
 62
     7
370
    25
100
AcDbCircle
 10
123.3349682374
 20
114.1093566995
 30
0.0
 40
0.5
100
AcDbArc
 50
180.0
 51
270.0
  0
ARC
  5
1E2
330
1F
100
AcDbEntity
  8
0
  6
Continuous
 62
     7
370
    25
100
AcDbCircle
 10
137.3349682374
 20
96.1093566995
 30
0.0
 40
0.5
100
AcDbArc
 50
0.0
 51
90.0
  0
ARC
  5
1E3
330
1F
100
AcDbEntity
  8
0
  6
Continuous
 62
     7
370
    25
100
AcDbCircle
 10
123.3349682374
 20
96.1093566995
 30
0.0
 40
0.5
100
AcDbArc
 50
90.0
 51
180.0
  0
LINE
  5
1E4
330
1F
100
AcDbEntity
  8
0
  6
Continuous
 62
     7
370
    25
100
AcDbLine
 10
117.5349682374
 20
97.15994838
 30
0.0
 11
117.5349682374
 21
97.1093566995
 31
0.0
  0
LINE
  5
1E5
330
1F
100
AcDbEntity
  8
0
  6
Continuous
 62
     7
370
    25
100
AcDbLine
 10
117.5349682374
 20
113.1093566995
 30
0.0
 11
117.5349682374
 21
109.2890552104
 31
0.0
  0
LINE
  5
1E6
330
1F
100
AcDbEntity
  8
0
  6
Continuous
 62
     7
370
    25
100
AcDbLine
 10
117.5349682374
 20
100.9296581887
 30
0.0
 11
117.5349682374
 21
97.15994838
 31
0.0
  0
LINE
  5
1E7
330
1F
100
AcDbEntity
  8
0
  6
Continuous
 62
     7
370
    25
100
AcDbLine
 10
117.3349682374
 20
97.358683588
 30
0.0
 11
117.3349682374
 21
100.9584931226
 31
0.0
  0
LINE
  5
1E8
330
1F
100
AcDbEntity
  8
0
  6
Continuous
 62
     7
370
    25
100
AcDbLine
 10
117.3349682374
 20
109.2602202764
 30
0.0
 11
117.3349682374
 21
112.9093566995
 31
0.0
  0
LINE
  5
1E9
330
1F
100
AcDbEntity
  8
0
  6
Continuous
 62
     7
370
    25
100
AcDbLine
 10
117.3349682374
 20
97.3093566995
 30
0.0
 11
117.3349682374
 21
97.358683588
 31
0.0
  0
LINE
  5
1EA
330
1F
100
AcDbEntity
  8
0
  6
Continuous
 62
     7
370
    25
100
AcDbLine
 10
107.3349682374
 20
99.5661349107
 30
0.0
 11
107.3349682374
 21
101.6093566995
 31
0.0
  0
LINE
  5
1EB
330
1F
100
AcDbEntity
  8
0
  6
Continuous
 62
     7
370
    25
100
AcDbLine
 10
107.3349682374
 20
108.6093566995
 30
0.0
 11
107.3349682374
 21
110.6878566995
 31
0.0
  0
LINE
  5
1EC
330
1F
100
AcDbEntity
  8
0
  6
Continuous
 62
     7
370
    25
100
AcDbLine
 10
107.3349682374
 20
99.5308566995
 30
0.0
 11
107.3349682374
 21
99.5661349107
 31
0.0
  0
LINE
  5
1ED
330
1F
100
AcDbEntity
  8
0
  6
Continuous
 62
     7
370
    25
100
AcDbLine
 10
108.3349682374
 20
98.5724588708
 30
0.0
 11
108.3349682374
 21
98.5308566995
 31
0.0
  0
LINE
  5
1EE
330
1F
100
AcDbEntity
  8
0
  6
Continuous
 62
     7
370
    25
100
AcDbLine
 10
108.3349682374
 20
111.6878566995
 30
0.0
 11
108.3349682374
 21
108.6095934545
 31
0.0
  0
LINE
  5
1EF
330
1F
100
AcDbEntity
  8
0
  6
Continuous
 62
     7
370
    25
100
AcDbLine
 10
108.3349682374
 20
101.6091199445
 30
0.0
 11
108.3349682374
 21
98.5724588708
 31
0.0
  0
SPLINE
  5
1F0
330
1F
100
AcDbEntity
  8
0
  6
Continuous
 62
     7
370
    25
100
AcDbSpline
210
0.0
220
0.0
230
1.0
 70
     8
 71
     3
 72
    15
 73
    11
 74
     0
 42
0.00000001
 43
0.00000001
 40
0.0
 40
0.0
 40
0.0
 40
0.0
 40
0.0081667445812695
 40
0.3321939991490083
 40
0.4756279600585602
 40
0.6866830973284899
 40
0.8457435502264811
 40
0.8967566214763185
 40
0.9909540928118029
 40
1.0
 40
1.0
 40
1.0
 40
1.0
 10
135.433987751032
 20
106.3593566995216
 30
0.0
 10
135.4344752851749
 20
106.3607941624606
 30
0.0
 10
135.454306432707
 20
106.4192650204123
 30
0.0
 10
135.4825872127163
 20
106.5036901981318
 30
0.0
 10
135.5204165112051
 20
106.6182692701542
 30
0.0
 10
135.5470004077726
 20
106.6996401573509
 30
0.0
 10
135.5641702315276
 20
106.7526591493525
 30
0.0
 10
135.571987227744
 20
106.7768610811967
 30
0.0
 10
135.5739829141799
 20
106.7830507018628
 30
0.0
 10
135.5740478781307
 20
106.7832520972754
 30
0.0
 10
135.5740535700974
 20
106.7832697429999
 30
0.0
  0
ARC
  5
1F1
330
1F
100
AcDbEntity
  8
0
  6
Continuous
 62
     7
370
    25
100
AcDbCircle
 10
130.3349682374
 20
105.1093566995
 30
0.0
 40
5.250000000000009
100
AcDbArc
 50
13.774146998
 51
166.225853002
  0
SPLINE
  5
1F2
330
1F
100
AcDbEntity
  8
0
  6
Continuous
 62
     7
370
    25
100
AcDbSpline
210
0.0
220
0.0
230
1.0
 70
     8
 71
     3
 72
    15
 73
    11
 74
     0
 42
0.00000001
 43
0.00000001
 40
0.0
 40
0.0
 40
0.0
 40
0.0
 40
0.0090459071881971
 40
0.1032433785236874
 40
0.1542564497735246
 40
0.313316902671511
 40
0.5243720399414428
 40
0.6678060008509903
 40
0.9918332554187292
 40
1.0
 40
1.0
 40
1.0
 40
1.0
 10
125.0958829047811
 20
106.7832697429999
 30
0.0
 10
125.0958885967478
 20
106.7832520972754
 30
0.0
 10
125.0959535606986
 20
106.7830507018628
 30
0.0
 10
125.0979492471345
 20
106.7768610811967
 30
0.0
 10
125.1057662433509
 20
106.7526591493525
 30
0.0
 10
125.1229360671059
 20
106.6996401573508
 30
0.0
 10
125.1495199636734
 20
106.6182692701542
 30
0.0
 10
125.1873492621622
 20
106.5036901981318
 30
0.0
 10
125.2156300421715
 20
106.4192650204123
 30
0.0
 10
125.2354611897036
 20
106.3607941624606
 30
0.0
 10
125.2359487238465
 20
106.3593566995216
 30
0.0
  0
ARC
  5
1F3
330
1F
100
AcDbEntity
  8
0
  6
Continuous
 62
     7
370
    25
100
AcDbCircle
 10
130.3349682374
 20
105.1093566995
 30
0.0
 40
5.500000000000011
100
AcDbArc
 50
17.7189318734
 51
162.2810681266
  0
ARC
  5
1F4
330
1F
100
AcDbEntity
  8
0
  6
Continuous
 62
     7
370
    25
100
AcDbCircle
 10
124.8577426624
 20
106.8593566995
 30
0.0
 40
0.2500000000000034
100
AcDbArc
 50
270.0
 51
342.2810681266
  0
SPLINE
  5
1F5
330
1F
100
AcDbEntity
  8
0
  6
Continuous
 62
     7
370
    25
100
AcDbSpline
210
0.0
220
0.0
230
1.0
 70
     8
 71
     3
 72
    15
 73
    11
 74
     0
 42
0.00000001
 43
0.00000001
 40
0.0
 40
0.0
 40
0.0
 40
0.0
 40
0.0080847466189818
 40
0.3310106400647567
 40
0.4750333064304972
 40
0.6874363079215137
 40
0.8468367539418253
 40
0.9000996640391794
 40
0.9910442771984082
 40
1.0
 40
1.0
 40
1.0
 40
1.0
 10
125.2359487238465
 20
106.3593566995216
 30
0.0
 10
125.2346688923023
 20
106.3601726355099
 30
0.0
 10
125.1822692465785
 20
106.3935791857035
 30
0.0
 10
125.1069141551241
 20
106.4423927504384
 30
0.0
 10
125.0049950431063
 20
106.5097632227065
 30
0.0
 10
124.9326040981144
 20
106.55834726305
 30
0.0
 10
124.8848986698496
 20
106.5907961245085
 30
0.0
 10
124.8633631861423
 20
106.6055071655748
 30
0.0
 10
124.8579341701227
 20
106.6092256164929
 30
0.0
 10
124.8577584179662
 20
106.6093459151584
 30
0.0
 10
124.8577426623876
 20
106.6093566995216
 30
0.0
  0
SPLINE
  5
1F6
330
1F
100
AcDbEntity
  8
0
  6
Continuous
 62
     7
370
    25
100
AcDbSpline
210
0.0
220
0.0
230
1.0
 70
     8
 71
     3
 72
    15
 73
    11
 74
     0
 42
0.00000001
 43
0.00000001
 40
0.0
 40
0.0
 40
0.0
 40
0.0
 40
0.0090459071881971
 40
0.1032433785236816
 40
0.1542564497735189
 40
0.31331690267151
 40
0.5243720399414428
 40
0.6678060008509183
 40
0.9918332554187028
 40
1.0
 40
1.0
 40
1.0
 40
1.0
 10
135.5740535700974
 20
103.4354436560433
 30
0.0
 10
135.5740478781307
 20
103.4354613017678
 30
0.0
 10
135.5739829141799
 20
103.4356626971803
 30
0.0
 10
135.571987227744
 20
103.4418523178465
 30
0.0
 10
135.5641702315276
 20
103.4660542496907
 30
0.0
 10
135.5470004077726
 20
103.5190732416924
 30
0.0
 10
135.520416511205
 20
103.6004441288889
 30
0.0
 10
135.4825872127164
 20
103.7150232009114
 30
0.0
 10
135.4543064327062
 20
103.7994483786306
 30
0.0
 10
135.4344752851749
 20
103.8579192365826
 30
0.0
 10
135.433987751032
 20
103.8593566995216
 30
0.0
  0
ARC
  5
1F7
330
1F
100
AcDbEntity
  8
0
  6
Continuous
 62
     7
370
    25
100
AcDbCircle
 10
130.3349682374
 20
105.1093566995
 30
0.0
 40
5.500000000000011
100
AcDbArc
 50
197.7189318734
 51
342.2810681266
  0
SPLINE
  5
1F8
330
1F
100
AcDbEntity
  8
0
  6
Continuous
 62
     7
370
    25
100
AcDbSpline
210
0.0
220
0.0
230
1.0
 70
     8
 71
     3
 72
    15
 73
    11
 74
     0
 42
0.00000001
 43
0.00000001
 40
0.0
 40
0.0
 40
0.0
 40
0.0
 40
0.0081667445812973
 40
0.3321939991490804
 40
0.475627960058556
 40
0.6866830973284891
 40
0.8457435502264751
 40
0.8967566214763124
 40
0.9909540928118028
 40
1.0
 40
1.0
 40
1.0
 40
1.0
 10
125.2359487238465
 20
103.8593566995216
 30
0.0
 10
125.2354611897036
 20
103.8579192365826
 30
0.0
 10
125.2156300421724
 20
103.7994483786306
 30
0.0
 10
125.1873492621621
 20
103.7150232009114
 30
0.0
 10
125.1495199636735
 20
103.6004441288889
 30
0.0
 10
125.1229360671059
 20
103.5190732416924
 30
0.0
 10
125.105766243351
 20
103.4660542496907
 30
0.0
 10
125.0979492471345
 20
103.4418523178465
 30
0.0
 10
125.0959535606986
 20
103.4356626971803
 30
0.0
 10
125.0958885967478
 20
103.4354613017678
 30
0.0
 10
125.0958829047811
 20
103.4354436560433
 30
0.0
  0
ARC
  5
1F9
330
1F
100
AcDbEntity
  8
0
  6
Continuous
 62
     7
370
    25
100
AcDbCircle
 10
130.3349682374
 20
105.1093566995
 30
0.0
 40
5.250000000000009
100
AcDbArc
 50
193.774146998
 51
346.225853002
  0
SPLINE
  5
1FA
330
1F
100
AcDbEntity
  8
0
  6
Continuous
 62
     7
370
    25
100
AcDbSpline
210
0.0
220
0.0
230
1.0
 70
     8
 71
     3
 72
    15
 73
    11
 74
     0
 42
0.00000001
 43
0.00000001
 40
0.0
 40
0.0
 40
0.0
 40
0.0
 40
0.0080847466189582
 40
0.3310106400648243
 40
0.4750333064304948
 40
0.6874363079215142
 40
0.8468367539418303
 40
0.9000996640391847
 40
0.9910442771984082
 40
1.0
 40
1.0
 40
1.0
 40
1.0
 10
135.433987751032
 20
103.8593566995216
 30
0.0
 10
135.4352675825762
 20
103.8585407635333
 30
0.0
 10
135.4876672282994
 20
103.8251342133388
 30
0.0
 10
135.5630223197545
 20
103.776320648605
 30
0.0
 10
135.6649414317721
 20
103.7089501763366
 30
0.0
 10
135.7373323767641
 20
103.6603661359932
 30
0.0
 10
135.7850378050289
 20
103.6279172745346
 30
0.0
 10
135.8065732887362
 20
103.6132062334684
 30
0.0
 10
135.8120023047557
 20
103.6094877825503
 30
0.0
 10
135.8121780569123
 20
103.6093674838847
 30
0.0
 10
135.8121938124909
 20
103.6093566995216
 30
0.0
  0
ARC
  5
1FB
330
1F
100
AcDbEntity
  8
0
  6
Continuous
 62
     7
370
    25
100
AcDbCircle
 10
135.8121938125
 20
103.3593566995
 30
0.0
 40
0.25
100
AcDbArc
 50
90.0
 51
162.2810681266
  0
SPLINE
  5
1FC
330
1F
100
AcDbEntity
  8
0
  6
Continuous
 62
     7
370
    25
100
AcDbSpline
210
0.0
220
0.0
230
1.0
 70
     8
 71
     3
 72
    15
 73
    11
 74
     0
 42
0.00000001
 43
0.00000001
 40
0.0
 40
0.0
 40
0.0
 40
0.0
 40
0.0089557228015919
 40
0.0999003359608209
 40
0.1531632460581751
 40
0.3125636920784904
 40
0.5249666935695061
 40
0.6689893599351777
 40
0.991915253381045
 40
1.0
 40
1.0
 40
1.0
 40
1.0
 10
124.8577426623876
 20
103.6093566995216
 30
0.0
 10
124.8577584179662
 20
103.6093674838847
 30
0.0
 10
124.8579341701227
 20
103.6094877825503
 30
0.0
 10
124.8633631861423
 20
103.6132062334684
 30
0.0
 10
124.8848986698496
 20
103.6279172745346
 30
0.0
 10
124.9326040981144
 20
103.6603661359932
 30
0.0
 10
125.0049950431063
 20
103.7089501763366
 30
0.0
 10
125.106914155124
 20
103.776320648605
 30
0.0
 10
125.1822692465791
 20
103.8251342133389
 30
0.0
 10
125.2346688923023
 20
103.8585407635333
 30
0.0
 10
125.2359487238465
 20
103.8593566995216
 30
0.0
  0
ARC
  5
1FD
330
1F
100
AcDbEntity
  8
0
  6
Continuous
 62
     7
370
    25
100
AcDbCircle
 10
124.8577426624
 20
103.3593566995
 30
0.0
 40
0.2500000000000034
100
AcDbArc
 50
17.7189318734
 51
90.0
  0
ARC
  5
1FE
330
1F
100
AcDbEntity
  8
0
  6
Continuous
 62
     7
370
    25
100
AcDbCircle
 10
135.8121938125
 20
106.8593566995
 30
0.0
 40
0.25
100
AcDbArc
 50
197.7189318734
 51
270.0
  0
SPLINE
  5
1FF
330
1F
100
AcDbEntity
  8
0
  6
Continuous
 62
     7
370
    25
100
AcDbSpline
210
0.0
220
0.0
230
1.0
 70
     8
 71
     3
 72
    15
 73
    11
 74
     0
 42
0.00000001
 43
0.00000001
 40
0.0
 40
0.0
 40
0.0
 40
0.0
 40
0.0089557228015919
 40
0.0999003359608148
 40
0.153163246058169
 40
0.3125636920784848
 40
0.5249666935694999
 40
0.6689893599352451
 40
0.9919152533810159
 40
1.0
 40
1.0
 40
1.0
 40
1.0
 10
135.8121938124909
 20
106.6093566995216
 30
0.0
 10
135.8121780569123
 20
106.6093459151584
 30
0.0
 10
135.8120023047557
 20
106.6092256164929
 30
0.0
 10
135.8065732887362
 20
106.6055071655748
 30
0.0
 10
135.7850378050289
 20
106.5907961245086
 30
0.0
 10
135.7373323767641
 20
106.55834726305
 30
0.0
 10
135.6649414317722
 20
106.5097632227065
 30
0.0
 10
135.5630223197544
 20
106.4423927504384
 30
0.0
 10
135.4876672282999
 20
106.3935791857036
 30
0.0
 10
135.4352675825762
 20
106.3601726355099
 30
0.0
 10
135.433987751032
 20
106.3593566995216
 30
0.0
  0
LINE
  5
200
330
1F
100
AcDbEntity
  8
0
  6
Continuous
 62
     7
370
    25
100
AcDbLine
 10
135.3349682374
 20
105.7093566995
 30
0.0
 11
125.3349682374
 21
105.7093566995
 31
0.0
  0
LINE
  5
201
330
1F
100
AcDbEntity
  8
0
  6
Continuous
 62
     7
370
    25
100
AcDbLine
 10
135.3349682374
 20
104.5093566995
 30
0.0
 11
135.3349682374
 21
105.7093566995
 31
0.0
  0
LINE
  5
202
330
1F
100
AcDbEntity
  8
0
  6
Continuous
 62
     7
370
    25
100
AcDbLine
 10
125.3349682374
 20
104.5093566995
 30
0.0
 11
135.3349682374
 21
104.5093566995
 31
0.0
  0
LINE
  5
203
330
1F
100
AcDbEntity
  8
0
  6
Continuous
 62
     7
370
    25
100
AcDbLine
 10
125.3349682374
 20
105.7093566995
 30
0.0
 11
125.3349682374
 21
104.5093566995
 31
0.0
  0
LINE
  5
204
330
1F
100
AcDbEntity
  8
0
  6
Continuous
 62
     7
370
    25
100
AcDbLine
 10
136.0849682374
 20
106.3593566995
 30
0.0
 11
135.433987751
 21
106.3593566995
 31
0.0
  0
LINE
  5
205
330
1F
100
AcDbEntity
  8
0
  6
Continuous
 62
     7
370
    25
100
AcDbLine
 10
136.0849682374
 20
103.8593566995
 30
0.0
 11
136.0849682374
 21
106.3593566995
 31
0.0
  0
LINE
  5
206
330
1F
100
AcDbEntity
  8
0
  6
Continuous
 62
     7
370
    25
100
AcDbLine
 10
135.433987751
 20
103.8593566995
 30
0.0
 11
136.0849682374
 21
103.8593566995
 31
0.0
  0
LINE
  5
207
330
1F
100
AcDbEntity
  8
0
  6
Continuous
 62
     7
370
    25
100
AcDbLine
 10
124.5849682374
 20
103.8593566995
 30
0.0
 11
125.2359487238
 21
103.8593566995
 31
0.0
  0
LINE
  5
208
330
1F
100
AcDbEntity
  8
0
  6
Continuous
 62
     7
370
    25
100
AcDbLine
 10
124.5849682374
 20
106.3593566995
 30
0.0
 11
124.5849682374
 21
103.8593566995
 31
0.0
  0
LINE
  5
209
330
1F
100
AcDbEntity
  8
0
  6
Continuous
 62
     7
370
    25
100
AcDbLine
 10
125.2359487238
 20
106.3593566995
 30
0.0
 11
124.5849682374
 21
106.3593566995
 31
0.0
  0
LINE
  5
20A
330
1F
100
AcDbEntity
  8
0
  6
Continuous
 62
     7
370
    25
100
AcDbLine
 10
136.0849682374
 20
106.3593566995
 30
0.0
 11
136.0849682374
 21
106.6093566995
 31
0.0
  0
LINE
  5
20B
330
1F
100
AcDbEntity
  8
0
  6
Continuous
 62
     7
370
    25
100
AcDbLine
 10
135.8121938125
 20
106.6093566995
 30
0.0
 11
136.0849682374
 21
106.6093566995
 31
0.0
  0
LINE
  5
20C
330
1F
100
AcDbEntity
  8
0
  6
Continuous
 62
     7
370
    25
100
AcDbLine
 10
124.5849682374
 20
106.6093566995
 30
0.0
 11
124.5849682374
 21
106.3593566995
 31
0.0
  0
LINE
  5
20D
330
1F
100
AcDbEntity
  8
0
  6
Continuous
 62
     7
370
    25
100
AcDbLine
 10
124.5849682374
 20
106.3593566995
 30
0.0
 11
124.3349682374
 21
106.3593566995
 31
0.0
  0
ARC
  5
20E
330
1F
100
AcDbEntity
  8
0
  6
Continuous
 62
     7
370
    25
100
AcDbCircle
 10
124.5849682374
 20
106.3593566995
 30
0.0
 40
0.25
100
AcDbArc
 50
90.0
 51
180.0
  0
LINE
  5
20F
330
1F
100
AcDbEntity
  8
0
  6
Continuous
 62
     7
370
    25
100
AcDbLine
 10
124.5849682374
 20
106.6093566995
 30
0.0
 11
124.8577426624
 21
106.6093566995
 31
0.0
  0
ARC
  5
210
330
1F
100
AcDbEntity
  8
0
  6
Continuous
 62
     7
370
    25
100
AcDbCircle
 10
136.0849682374
 20
106.3593566995
 30
0.0
 40
0.25
100
AcDbArc
 50
0.0
 51
90.0
  0
LINE
  5
211
330
1F
100
AcDbEntity
  8
0
  6
Continuous
 62
     7
370
    25
100
AcDbLine
 10
136.3349682374
 20
106.3593566995
 30
0.0
 11
136.0849682374
 21
106.3593566995
 31
0.0
  0
LINE
  5
212
330
1F
100
AcDbEntity
  8
0
  6
Continuous
 62
     7
370
    25
100
AcDbLine
 10
136.3349682374
 20
106.3593566995
 30
0.0
 11
136.3349682374
 21
103.8593566995
 31
0.0
  0
LINE
  5
213
330
1F
100
AcDbEntity
  8
0
  6
Continuous
 62
     7
370
    25
100
AcDbLine
 10
136.0849682374
 20
103.8593566995
 30
0.0
 11
136.3349682374
 21
103.8593566995
 31
0.0
  0
LINE
  5
214
330
1F
100
AcDbEntity
  8
0
  6
Continuous
 62
     7
370
    25
100
AcDbLine
 10
124.3349682374
 20
103.8593566995
 30
0.0
 11
124.5849682374
 21
103.8593566995
 31
0.0
  0
LINE
  5
215
330
1F
100
AcDbEntity
  8
0
  6
Continuous
 62
     7
370
    25
100
AcDbLine
 10
124.3349682374
 20
103.8593566995
 30
0.0
 11
124.3349682374
 21
106.3593566995
 31
0.0
  0
LINE
  5
216
330
1F
100
AcDbEntity
  8
0
  6
Continuous
 62
     7
370
    25
100
AcDbLine
 10
124.8577426624
 20
103.6093566995
 30
0.0
 11
124.5849682374
 21
103.6093566995
 31
0.0
  0
LINE
  5
217
330
1F
100
AcDbEntity
  8
0
  6
Continuous
 62
     7
370
    25
100
AcDbLine
 10
124.5849682374
 20
103.8593566995
 30
0.0
 11
124.5849682374
 21
103.6093566995
 31
0.0
  0
ARC
  5
218
330
1F
100
AcDbEntity
  8
0
  6
Continuous
 62
     7
370
    25
100
AcDbCircle
 10
124.5849682374
 20
103.8593566995
 30
0.0
 40
0.25
100
AcDbArc
 50
180.0
 51
270.0
  0
LINE
  5
219
330
1F
100
AcDbEntity
  8
0
  6
Continuous
 62
     7
370
    25
100
AcDbLine
 10
136.0849682374
 20
103.6093566995
 30
0.0
 11
136.0849682374
 21
103.8593566995
 31
0.0
  0
LINE
  5
21A
330
1F
100
AcDbEntity
  8
0
  6
Continuous
 62
     7
370
    25
100
AcDbLine
 10
136.0849682374
 20
103.6093566995
 30
0.0
 11
135.8121938125
 21
103.6093566995
 31
0.0
  0
ARC
  5
21B
330
1F
100
AcDbEntity
  8
0
  6
Continuous
 62
     7
370
    25
100
AcDbCircle
 10
136.0849682374
 20
103.8593566995
 30
0.0
 40
0.25
100
AcDbArc
 50
270.0
 51
0.0
  0
LINE
  5
21C
330
1F
100
AcDbEntity
  8
0
  6
Continuous
 62
     7
370
    25
100
AcDbLine
 10
110.3349682374
 20
108.3810559636
 30
0.0
 11
108.1595313759
 21
108.6093566995
 31
0.0
  0
LINE
  5
21D
330
1F
100
AcDbEntity
  8
0
  6
Continuous
 62
     7
370
    25
100
AcDbLine
 10
110.3349682374
 20
101.8376574355
 30
0.0
 11
110.3349682374
 21
108.3810559636
 31
0.0
  0
LINE
  5
21E
330
1F
100
AcDbEntity
  8
0
  6
Continuous
 62
     7
370
    25
100
AcDbLine
 10
108.1595313759
 20
101.6093566995
 30
0.0
 11
110.3349682374
 21
101.8376574355
 31
0.0
  0
LINE
  5
21F
330
1F
100
AcDbEntity
  8
0
  6
Continuous
 62
     7
370
    25
100
AcDbLine
 10
90.3349682374
 20
101.6093566995
 30
0.0
 11
108.1595313759
 21
101.6093566995
 31
0.0
  0
LINE
  5
220
330
1F
100
AcDbEntity
  8
0
  6
Continuous
 62
     7
370
    25
100
AcDbLine
 10
90.3349682374
 20
108.6093566995
 30
0.0
 11
90.3349682374
 21
101.6093566995
 31
0.0
  0
LINE
  5
221
330
1F
100
AcDbEntity
  8
0
  6
Continuous
 62
     7
370
    25
100
AcDbLine
 10
108.1595313759
 20
108.6093566995
 30
0.0
 11
90.3349682374
 21
108.6093566995
 31
0.0
  0
LINE
  5
222
330
1F
100
AcDbEntity
  8
0
  6
Continuous
 62
     7
370
    25
100
AcDbLine
 10
125.1111660631
 20
106.8303711803
 30
0.0
 11
124.9827570244
 21
106.6462295469
 31
0.0
  0
LINE
  5
223
330
1F
100
AcDbEntity
  8
0
  6
Continuous
 62
     7
370
    25
100
AcDbLine
 10
124.9923243652
 20
103.5641390322
 30
0.0
 11
125.1111660631
 21
103.3883422187
 31
0.0
  0
LINE
  5
224
330
1F
100
AcDbEntity
  8
0
  6
Continuous
 62
     7
370
    25
100
AcDbLine
 10
116.9183985838
 20
107.6901593351
 30
0.0
 11
116.9183985838
 21
102.528554064
 31
0.0
  0
LINE
  5
225
330
1F
100
AcDbEntity
  8
0
  6
Continuous
 62
     7
370
    25
100
AcDbLine
 10
125.1111660631
 20
103.3883422187
 30
0.0
 11
116.9183985838
 21
102.528554064
 31
0.0
  0
LINE
  5
226
330
1F
100
AcDbEntity
  8
0
  6
Continuous
 62
     7
370
    25
100
AcDbLine
 10
116.9183985838
 20
107.6901593351
 30
0.0
 11
125.1111660631
 21
106.8303711803
 31
0.0
  0
LINE
  5
227
330
1F
100
AcDbEntity
  8
0
  6
Continuous
 62
     7
370
    25
100
AcDbLine
 10
116.9183985838
 20
102.528554064
 30
0.0
 11
110.3349682374
 21
101.8376574355
 31
0.0
  0
LINE
  5
228
330
1F
100
AcDbEntity
  8
0
  6
Continuous
 62
     7
370
    25
100
AcDbLine
 10
110.3349682374
 20
108.3810559636
 30
0.0
 11
116.9183985838
 21
107.6901593351
 31
0.0
  0
ARC
  5
229
330
1F
100
AcDbEntity
  8
0
  6
Continuous
 62
     7
370
    25
100
AcDbCircle
 10
130.3349682374
 20
105.1093566995
 30
0.0
 40
7.450000000000647
100
AcDbArc
 50
233.0863788866
 51
126.9136211134
  0
ARC
  5
22A
330
1F
100
AcDbEntity
  8
0
  6
Continuous
 62
     7
370
    25
100
AcDbCircle
 10
130.3349682374
 20
105.1093566995
 30
0.0
 40
7.207531252870786
100
AcDbArc
 50
195.3041237151
 51
238.9797515565
  0
ARC
  5
22B
330
1F
100
AcDbEntity
  8
0
  6
Continuous
 62
     7
370
    25
100
AcDbCircle
 10
130.3349682374
 20
105.1093566995
 30
0.0
 40
7.207531252872443
100
AcDbArc
 50
121.0202484435
 51
164.6958762849
  0
ARC
  5
22C
330
1F
100
AcDbEntity
  8
0
  6
Continuous
 62
     7
370
    25
100
AcDbCircle
 10
108.1595313759
 20
173.6093566995
 30
0.0
 40
64.99999999999999
100
AcDbArc
 50
270.0
 51
286.5000949923
  0
ARC
  5
22D
330
1F
100
AcDbEntity
  8
0
  6
Continuous
 62
     7
370
    25
100
AcDbCircle
 10
108.1595313759
 20
36.6093566995
 30
0.0
 40
65.0
100
AcDbArc
 50
73.4999050077
 51
90.0
  0
LINE
  5
22E
330
1F
100
AcDbEntity
  8
0
  6
Continuous
 62
     7
370
    25
100
AcDbLine
 10
137.3349682374
 20
98.3812256876
 30
0.0
 11
137.3349682374
 21
102.5593566995
 31
0.0
  0
LINE
  5
22F
330
1F
100
AcDbEntity
  8
0
  6
Continuous
 62
     7
370
    25
100
AcDbLine
 10
137.3349682374
 20
107.6593566995
 30
0.0
 11
137.3349682374
 21
111.8374877114
 31
0.0
  0
LINE
  5
230
330
1F
100
AcDbEntity
  8
0
  6
Continuous
 62
     7
370
    25
100
AcDbLine
 10
123.3349682374
 20
111.8374877114
 30
0.0
 11
123.3349682374
 21
110.40566918
 31
0.0
  0
LINE
  5
231
330
1F
100
AcDbEntity
  8
0
  6
Continuous
 62
     7
370
    25
100
AcDbLine
 10
123.3349682374
 20
99.813044219
 30
0.0
 11
123.3349682374
 21
98.3812256876
 31
0.0
  0
LINE
  5
232
330
1F
100
AcDbEntity
  8
0
  6
Continuous
 62
     7
370
    25
100
AcDbLine
 10
137.3349682374
 20
111.8374877114
 30
0.0
 11
133.5341483022
 21
111.8374877114
 31
0.0
  0
LINE
  5
233
330
1F
100
AcDbEntity
  8
0
  6
Continuous
 62
     7
370
    25
100
AcDbLine
 10
127.1357881727
 20
111.8374877114
 30
0.0
 11
123.3349682374
 21
111.8374877114
 31
0.0
  0
LINE
  5
234
330
1F
100
AcDbEntity
  8
0
  6
Continuous
 62
     7
370
    25
100
AcDbLine
 10
123.3349682374
 20
98.3812256876
 30
0.0
 11
127.1357881727
 21
98.3812256876
 31
0.0
  0
LINE
  5
235
330
1F
100
AcDbEntity
  8
0
  6
Continuous
 62
     7
370
    25
100
AcDbLine
 10
133.5341483022
 20
98.3812256876
 30
0.0
 11
137.3349682374
 21
98.3812256876
 31
0.0
  0
LINE
  5
236
330
1F
100
AcDbEntity
  8
0
  6
Continuous
 62
     7
370
    25
100
AcDbLine
 10
123.3349682374
 20
112.2332601239
 30
0.0
 11
128.1549453018
 21
112.2332601239
 31
0.0
  0
LINE
  5
237
330
1F
100
AcDbEntity
  8
0
  6
Continuous
 62
     7
370
    25
100
AcDbLine
 10
132.5149911731
 20
112.2332601239
 30
0.0
 11
137.3349682374
 21
112.2332601239
 31
0.0
  0
LINE
  5
238
330
1F
100
AcDbEntity
  8
0
  6
Continuous
 62
     7
370
    25
100
AcDbLine
 10
137.3349682374
 20
97.9854532751
 30
0.0
 11
132.5149911731
 21
97.9854532751
 31
0.0
  0
LINE
  5
239
330
1F
100
AcDbEntity
  8
0
  6
Continuous
 62
     7
370
    25
100
AcDbLine
 10
128.1549453018
 20
97.9854532751
 30
0.0
 11
123.3349682374
 21
97.9854532751
 31
0.0
  0
INSERT
  5
245
330
1F
100
AcDbEntity
  8
FORMAT
100
AcDbBlockReference
  2
SW_CENTERMARKSYMBOL_1
 10
130.3349682374
 20
105.1093566995
 30
0.0
  0
LINE
  5
246
330
1F
100
AcDbEntity
  8
FORMAT
100
AcDbLine
 10
107.4564682374
 20
110.8093566995
 30
0.0
 11
117.3349682374
 21
110.8093566995
 31
0.0
  0
LINE
  5
247
330
1F
100
AcDbEntity
  8
FORMAT
100
AcDbLine
 10
107.4564682374
 20
99.4093566995
 30
0.0
 11
117.3349682374
 21
99.4093566995
 31
0.0
  0
ENDSEC
  0
SECTION
  2
OBJECTS
  0
DICTIONARY
  5
C
330
0
100
AcDbDictionary
281
     1
  3
ACAD_GROUP
350
D
  3
ACAD_LAYOUT
350
1A
  3
ACAD_MLINESTYLE
350
17
  3
ACAD_PLOTSETTINGS
350
19
  3
ACAD_PLOTSTYLENAME
350
E
  3
ACAD_SCALELIST
350
47
  3
DWGPROPS
350
248
  0
DICTIONARY
  5
D
102
{ACAD_REACTORS
330
C
102
}
330
C
100
AcDbDictionary
281
     1
  0
DICTIONARY
  5
1A
102
{ACAD_REACTORS
330
C
102
}
330
C
100
AcDbDictionary
281
     1
  3
Layout1
350
1E
  3
Layout2
350
26
  3
Model
350
22
  0
DICTIONARY
  5
17
102
{ACAD_REACTORS
330
C
102
}
330
C
100
AcDbDictionary
281
     1
  3
Standard
350
18
  0
DICTIONARY
  5
19
102
{ACAD_REACTORS
330
C
102
}
330
C
100
AcDbDictionary
281
     1
  0
ACDBDICTIONARYWDFLT
  5
E
102
{ACAD_REACTORS
330
C
102
}
330
C
100
AcDbDictionary
281
     1
  3
Normal
350
F
100
AcDbDictionaryWithDefault
340
F
  0
DICTIONARY
  5
47
102
{ACAD_REACTORS
330
C
102
}
330
C
100
AcDbDictionary
281
     1
  3
A0
350
48
  3
A1
350
49
  3
A2
350
4A
  3
A3
350
4B
  3
A4
350
4C
  3
A5
350
4D
  3
A6
350
4E
  3
A7
350
4F
  3
A8
350
50
  3
A9
350
51
  3
B0
350
52
  3
B1
350
53
  3
B2
350
54
  3
B3
350
55
  3
B4
350
56
  3
B5
350
57
  3
B6
350
58
  0
XRECORD
  5
248
102
{ACAD_REACTORS
330
C
102
}
330
C
100
AcDbXrecord
280
     1
  1
DWGPROPS COOKIE
  2

  3

  4

  6

  7

  8
user28
  9

300
=
301
=
302
=
303
=
304
=
305
=
306
=
307
=
308
=
309
=
 40
0.0
 41
2460481.353752604
 42
2460481.353753426
  1

 90
        0
  0
LAYOUT
  5
1E
102
{ACAD_REACTORS
330
1A
102
}
330
1A
100
AcDbPlotSettings
  1

  2
none_device
  4

  6

 40
0.0
 41
0.0
 42
0.0
 43
0.0
 44
0.0
 45
0.0
 46
0.0
 47
0.0
 48
0.0
 49
0.0
140
0.0
141
0.0
142
1.0
143
1.0
 70
   688
 72
     1
 73
     0
 74
     5
  7

 75
    16
147
1.0
148
0.0
149
0.0
100
AcDbLayout
  1
Layout1
 70
     1
 71
     1
 10
0.0
 20
0.0
 11
420.0
 21
297.0
 12
0.0
 22
0.0
 32
0.0
 14
1.0000000000E+20
 24
1.0000000000E+20
 34
1.0000000000E+20
 15
-1.0000000000E+20
 25
-1.0000000000E+20
 35
-1.0000000000E+20
146
0.0
 13
0.0
 23
0.0
 33
0.0
 16
1.0
 26
0.0
 36
0.0
 17
0.0
 27
1.0
 37
0.0
 76
     0
330
1B
  0
LAYOUT
  5
26
102
{ACAD_REACTORS
330
1A
102
}
330
1A
100
AcDbPlotSettings
  1

  2
none_device
  4

  6

 40
0.0
 41
0.0
 42
0.0
 43
0.0
 44
0.0
 45
0.0
 46
0.0
 47
0.0
 48
0.0
 49
0.0
140
0.0
141
0.0
142
1.0
143
1.0
 70
   688
 72
     1
 73
     0
 74
     5
  7

 75
    16
147
1.0
148
0.0
149
0.0
100
AcDbLayout
  1
Layout2
 70
     1
 71
     2
 10
0.0
 20
0.0
 11
0.0
 21
0.0
 12
0.0
 22
0.0
 32
0.0
 14
0.0
 24
0.0
 34
0.0
 15
0.0
 25
0.0
 35
0.0
146
0.0
 13
0.0
 23
0.0
 33
0.0
 16
1.0
 26
0.0
 36
0.0
 17
0.0
 27
1.0
 37
0.0
 76
     0
330
23
  0
LAYOUT
  5
22
102
{ACAD_REACTORS
330
1A
102
}
330
1A
100
AcDbPlotSettings
  1

  2
none_device
  4
Letter_(8.50_x_11.00_Inches)
  6

 40
6.35
 41
6.35
 42
6.35000508
 43
6.35000508
 44
215.9
 45
279.4
 46
0.0
 47
0.0
 48
0.0
 49
0.0
140
0.0
141
0.0
142
1.0
143
1.0
 70
  1712
 72
     1
 73
     0
 74
     0
  7

 75
     0
147
1.0
148
0.0
149
0.0
100
AcDbLayout
  1
Model
 70
     1
 71
     0
 10
0.0
 20
0.0
 11
297.0
 21
210.0
 12
0.0
 22
0.0
 32
0.0
 14
0.0
 24
0.0
 34
0.0
 15
297.0
 25
210.0
 35
0.0
146
0.0
 13
0.0
 23
0.0
 33
0.0
 16
1.0
 26
0.0
 36
0.0
 17
0.0
 27
1.0
 37
0.0
 76
     0
330
1F
331
29
  0
MLINESTYLE
  5
18
102
{ACAD_REACTORS
330
17
102
}
330
17
100
AcDbMlineStyle
  2
Standard
 70
     0
  3

 62
   256
 51
90.0
 52
90.0
 71
     2
 49
0.5
 62
   256
  6
BYLAYER
 49
-0.5
 62
   256
  6
BYLAYER
  0
ACDBPLACEHOLDER
  5
F
102
{ACAD_REACTORS
330
E
102
}
330
E
  0
SCALE
  5
48
102
{ACAD_REACTORS
330
47
102
}
330
47
100
AcDbScale
 70
     0
300
1:1
140
1.0
141
1.0
290
     1
  0
SCALE
  5
49
102
{ACAD_REACTORS
330
47
102
}
330
47
100
AcDbScale
 70
     0
300
1:2
140
1.0
141
2.0
290
     0
  0
SCALE
  5
4A
102
{ACAD_REACTORS
330
47
102
}
330
47
100
AcDbScale
 70
     0
300
1:4
140
1.0
141
4.0
290
     0
  0
SCALE
  5
4B
102
{ACAD_REACTORS
330
47
102
}
330
47
100
AcDbScale
 70
     0
300
1:5
140
1.0
141
5.0
290
     0
  0
SCALE
  5
4C
102
{ACAD_REACTORS
330
47
102
}
330
47
100
AcDbScale
 70
     0
300
1:8
140
1.0
141
8.0
290
     0
  0
SCALE
  5
4D
102
{ACAD_REACTORS
330
47
102
}
330
47
100
AcDbScale
 70
     0
300
1:10
140
1.0
141
10.0
290
     0
  0
SCALE
  5
4E
102
{ACAD_REACTORS
330
47
102
}
330
47
100
AcDbScale
 70
     0
300
1:16
140
1.0
141
16.0
290
     0
  0
SCALE
  5
4F
102
{ACAD_REACTORS
330
47
102
}
330
47
100
AcDbScale
 70
     0
300
1:20
140
1.0
141
20.0
290
     0
  0
SCALE
  5
50
102
{ACAD_REACTORS
330
47
102
}
330
47
100
AcDbScale
 70
     0
300
1:30
140
1.0
141
30.0
290
     0
  0
SCALE
  5
51
102
{ACAD_REACTORS
330
47
102
}
330
47
100
AcDbScale
 70
     0
300
1:40
140
1.0
141
40.0
290
     0
  0
SCALE
  5
52
102
{ACAD_REACTORS
330
47
102
}
330
47
100
AcDbScale
 70
     0
300
1:50
140
1.0
141
50.0
290
     0
  0
SCALE
  5
53
102
{ACAD_REACTORS
330
47
102
}
330
47
100
AcDbScale
 70
     0
300
1:100
140
1.0
141
100.0
290
     0
  0
SCALE
  5
54
102
{ACAD_REACTORS
330
47
102
}
330
47
100
AcDbScale
 70
     0
300
2:1
140
2.0
141
1.0
290
     0
  0
SCALE
  5
55
102
{ACAD_REACTORS
330
47
102
}
330
47
100
AcDbScale
 70
     0
300
4:1
140
4.0
141
1.0
290
     0
  0
SCALE
  5
56
102
{ACAD_REACTORS
330
47
102
}
330
47
100
AcDbScale
 70
     0
300
8:1
140
8.0
141
1.0
290
     0
  0
SCALE
  5
57
102
{ACAD_REACTORS
330
47
102
}
330
47
100
AcDbScale
 70
     0
300
10:1
140
10.0
141
1.0
290
     0
  0
SCALE
  5
58
102
{ACAD_REACTORS
330
47
102
}
330
47
100
AcDbScale
 70
     0
300
100:1
140
100.0
141
1.0
290
     0
  0
ENDSEC
  0
EOF
